  0
SECTION
  2
HEADER
  9
$ACADVER
  1
AC1002
  9
$USERI1
 70
0
  9
$INSBASE
 10
0.000000
 20
0.000000
  9
$EXTMIN
 10
0.000000
 20
0.000000
  9
$EXTMAX
 10
7.761771
 20
4.436620
  9
$LIMMIN
 10
0.000000
 20
0.000000
  9
$LIMMAX
 10
12.000000
 20
9.000000
  9
$VIEWCTR
 10
78.887138
 20
59.361758
  9
$VIEWSIZE
 40
127.522840
  9
$TEXTSIZE
 40
0.100000
  9
$TRACEWID
 40
0.010000
  9
$LTSCALE
 40
1.000000
  0
ENDSEC
  0
SECTION
  2
TABLES
  0
TABLE
  2
LTYPE
 70
     3
  0
LTYPE
  2
CONTINUOUS
 70
    64
  3
Solid line
 72
    65
 73
     0
 40
0.000000
  0
LTYPE
  2
ESTILO_TQS_0001
 70
    64
  3
-  -  -  -  -  -
 72
    65
 73
     2
 40
1.000000
 49
0.700000
 49
-0.300000
  0
LTYPE
  2
ESTILO_TQS_0002
 70
    64
  3
. . . . . . . .
 72
    65
 73
     2
 40
0.400000
 49
0.100000
 49
-0.300000
  0
LTYPE
  2
ESTILO_TQS_0003
 70
    64
  3
- . - . - . - .
 72
    65
 73
     4
 40
0.910000
 49
0.500000
 49
-0.200000
 49
0.010000
 49
-0.200000
  0
LTYPE
  2
ESTILO_TQS_0004
 70
    64
  3
- .. - .. - ..
 72
    65
 73
     6
 40
1.120000
 49
0.500000
 49
-0.200000
 49
0.010000
 49
-0.200000
 49
0.010000
 49
-0.200000
  0
LTYPE
  2
CONTINUOUS
 70
    64
  3
- - - - - - - -
 72
    65
 73
     2
 40
0.400000
 49
0.300000
 49
-0.100000
  0
ENDTAB
  0
TABLE
  2
LAYER
 70
    89
  0
LAYER
  2
0
 70
     0
 62
     7
  6
CONTINUOUS
  0
LAYER
  2
1
 70
     0
 62
     1
  6
CONTINUOUS
  0
LAYER
  2
2
 70
     0
 62
     2
  6
CONTINUOUS
  0
LAYER
  2
3
 70
     0
 62
     3
  6
CONTINUOUS
  0
LAYER
  2
4
 70
     0
 62
     4
  6
CONTINUOUS
  0
LAYER
  2
5
 70
     0
 62
     5
  6
CONTINUOUS
  0
LAYER
  2
6
 70
     0
 62
     6
  6
CONTINUOUS
  0
LAYER
  2
7
 70
     0
 62
     7
  6
CONTINUOUS
  0
LAYER
  2
8
 70
     0
 62
     8
  6
CONTINUOUS
  0
LAYER
  2
9
 70
     0
 62
     9
  6
CONTINUOUS
  0
LAYER
  2
10
 70
     0
 62
    10
  6
CONTINUOUS
  0
LAYER
  2
11
 70
     0
 62
    11
  6
CONTINUOUS
  0
LAYER
  2
12
 70
     0
 62
    12
  6
CONTINUOUS
  0
LAYER
  2
13
 70
     0
 62
    13
  6
CONTINUOUS
  0
LAYER
  2
14
 70
     0
 62
    14
  6
CONTINUOUS
  0
LAYER
  2
15
 70
     0
 62
    15
  6
CONTINUOUS
  0
LAYER
  2
16
 70
     0
 62
     7
  6
CONTINUOUS
  0
LAYER
  2
17
 70
     0
 62
     2
  6
CONTINUOUS
  0
LAYER
  2
18
 70
     0
 62
     4
  6
CONTINUOUS
  0
LAYER
  2
19
 70
     0
 62
     5
  6
CONTINUOUS
  0
LAYER
  2
20
 70
     0
 62
     4
  6
CONTINUOUS
  0
LAYER
  2
21
 70
     0
 62
     2
  6
CONTINUOUS
  0
LAYER
  2
22
 70
     0
 62
     1
  6
CONTINUOUS
  0
LAYER
  2
23
 70
     0
 62
     7
  6
CONTINUOUS
  0
LAYER
  2
24
 70
     0
 62
     6
  6
CONTINUOUS
  0
LAYER
  2
25
 70
     0
 62
     1
  6
CONTINUOUS
  0
LAYER
  2
26
 70
     0
 62
     3
  6
CONTINUOUS
  0
LAYER
  2
27
 70
     0
 62
     4
  6
CONTINUOUS
  0
LAYER
  2
28
 70
     0
 62
     4
  6
CONTINUOUS
  0
LAYER
  2
30
 70
     0
 62
     4
  6
CONTINUOUS
  0
LAYER
  2
100
 70
     0
 62
     1
  6
CONTINUOUS
  0
LAYER
  2
101
 70
     0
 62
     9
  6
CONTINUOUS
  0
LAYER
  2
102
 70
     0
 62
     7
  6
CONTINUOUS
  0
LAYER
  2
103
 70
     0
 62
     2
  6
CONTINUOUS
  0
LAYER
  2
104
 70
     0
 62
    11
  6
CONTINUOUS
  0
LAYER
  2
105
 70
     0
 62
     3
  6
CONTINUOUS
  0
LAYER
  2
106
 70
     0
 62
     5
  6
CONTINUOUS
  0
LAYER
  2
107
 70
     0
 62
     3
  6
CONTINUOUS
  0
LAYER
  2
108
 70
     0
 62
     5
  6
CONTINUOUS
  0
LAYER
  2
109
 70
     0
 62
     3
  6
CONTINUOUS
  0
LAYER
  2
197
 70
     0
 62
     3
  6
CONTINUOUS
  0
LAYER
  2
198
 70
     0
 62
     2
  6
CONTINUOUS
  0
LAYER
  2
199
 70
     0
 62
     6
  6
CONTINUOUS
  0
LAYER
  2
200
 70
     0
 62
     7
  6
ESTILO_TQS_0002
  0
LAYER
  2
201
 70
     0
 62
     7
  6
ESTILO_TQS_0001
  0
LAYER
  2
202
 70
     0
 62
     7
  6
CONTINUOUS
  0
LAYER
  2
203
 70
     0
 62
     7
  6
ESTILO_TQS_0001
  0
LAYER
  2
204
 70
     0
 62
     7
  6
ESTILO_TQS_0003
  0
LAYER
  2
205
 70
     0
 62
     5
  6
ESTILO_TQS_0004
  0
LAYER
  2
206
 70
     0
 62
    15
  6
CONTINUOUS
  0
LAYER
  2
207
 70
     0
 62
     2
  6
CONTINUOUS
  0
LAYER
  2
208
 70
     0
 62
     5
  6
CONTINUOUS
  0
LAYER
  2
210
 70
     0
 62
    15
  6
ESTILO_TQS_0002
  0
LAYER
  2
211
 70
     0
 62
     7
  6
ESTILO_TQS_0001
  0
LAYER
  2
214
 70
     0
 62
    15
  6
CONTINUOUS
  0
LAYER
  2
215
 70
     0
 62
     2
  6
CONTINUOUS
  0
LAYER
  2
216
 70
     0
 62
     3
  6
CONTINUOUS
  0
LAYER
  2
217
 70
     0
 62
     3
  6
CONTINUOUS
  0
LAYER
  2
218
 70
     0
 62
     2
  6
CONTINUOUS
  0
LAYER
  2
219
 70
     0
 62
    15
  6
CONTINUOUS
  0
LAYER
  2
220
 70
     0
 62
    10
  6
CONTINUOUS
  0
LAYER
  2
221
 70
     0
 62
    11
  6
CONTINUOUS
  0
LAYER
  2
222
 70
     0
 62
    12
  6
CONTINUOUS
  0
LAYER
  2
223
 70
     0
 62
     6
  6
CONTINUOUS
  0
LAYER
  2
224
 70
     0
 62
     1
  6
CONTINUOUS
  0
LAYER
  2
225
 70
     0
 62
    15
  6
CONTINUOUS
  0
LAYER
  2
226
 70
     0
 62
     2
  6
CONTINUOUS
  0
LAYER
  2
227
 70
     0
 62
    10
  6
CONTINUOUS
  0
LAYER
  2
228
 70
     0
 62
    11
  6
CONTINUOUS
  0
LAYER
  2
229
 70
     0
 62
    12
  6
CONTINUOUS
  0
LAYER
  2
230
 70
     0
 62
     6
  6
CONTINUOUS
  0
LAYER
  2
231
 70
     0
 62
     3
  6
CONTINUOUS
  0
LAYER
  2
232
 70
     0
 62
    12
  6
CONTINUOUS
  0
LAYER
  2
233
 70
     0
 62
     4
  6
CONTINUOUS
  0
LAYER
  2
234
 70
     0
 62
    13
  6
CONTINUOUS
  0
LAYER
  2
235
 70
     0
 62
     5
  6
CONTINUOUS
  0
LAYER
  2
236
 70
     0
 62
     2
  6
CONTINUOUS
  0
LAYER
  2
237
 70
     0
 62
     6
  6
CONTINUOUS
  0
LAYER
  2
238
 70
     0
 62
    12
  6
CONTINUOUS
  0
LAYER
  2
239
 70
     0
 62
    11
  6
CONTINUOUS
  0
LAYER
  2
240
 70
     0
 62
    11
  6
CONTINUOUS
  0
LAYER
  2
241
 70
     0
 62
    12
  6
CONTINUOUS
  0
ENDTAB
  0
TABLE
  2
STYLE
 70
     1
  0
STYLE
  2
STANDARD
 70
    64
 40
0.000000
 41
1.000000
 50
0.000000
 71
     0
 42
0.200000
  3
ROMANS.SHX
  4

  0
STYLE
  2
TQS_CALIBRI
 70
     0
 40
0.000000
 41
1.000000
 50
0.000000
 71
     0
 42
0.200000
  3
calibri.ttf
  0
STYLE
  2
TQS_CALIBRI_U
 70
     0
 40
0.000000
 41
1.000000
 50
0.000000
 71
     0
 42
0.200000
  3
calibri.ttf
  0
STYLE
  2
TQS_CALIBRI_I
 70
     0
 40
0.000000
 41
1.000000
 50
0.000000
 71
     0
 42
0.200000
  3
calibri.ttf
  0
STYLE
  2
TQS_CALIBRI_I_U
 70
     0
 40
0.000000
 41
1.000000
 50
0.000000
 71
     0
 42
0.200000
  3
calibri.ttf
  0
STYLE
  2
TQS_CALIBRI_B
 70
     0
 40
0.000000
 41
1.000000
 50
0.000000
 71
     0
 42
0.200000
  3
calibri.ttf
  0
STYLE
  2
TQS_CALIBRI_B_U
 70
     0
 40
0.000000
 41
1.000000
 50
0.000000
 71
     0
 42
0.200000
  3
calibri.ttf
  0
STYLE
  2
TQS_CALIBRI_B_I
 70
     0
 40
0.000000
 41
1.000000
 50
0.000000
 71
     0
 42
0.200000
  3
calibri.ttf
  0
STYLE
  2
TQS_CALIBRI_B_I_U
 70
     0
 40
0.000000
 41
1.000000
 50
0.000000
 71
     0
 42
0.200000
  3
calibri.ttf
  0
ENDTAB
  0
TABLE
  2
VIEW
 70
     0
  0
ENDTAB
  0
ENDSEC
  0
SECTION
  2
BLOCKS
  0
BLOCK
  8
0
  2
_PLWTQS
 70
    64
 10
0.000000
 20
0.000000
  0
TEXT
  8
0
  6
CONTINUOUS
 10
0.000000
 20
0.000000
 40
0.200000
  1
$PLWDWGGlBMVwAAAAAAAChABAAAAJtVrVYJlcE9zUwb2UXb6ysRktvc9DEX2ZMJaEiKF5IsI7Fp7zoaKKp2YHi5bzHES/y4+6jASsG3+VS2merxra7NQr9GXdKmq0QXXExWCYdLyAcjHvyZriwcNt+q0+yQMuEfua/xbQ1zh+KraMJCE88=
  7
TQS_CALIBRI
  0
TEXT
  8
0
  6
CONTINUOUS
 10
0.000000
 20
-0.250000
 40
0.200000
  1
$PLWDWG9+bH69O2fe/sn748Y/syC8kGf0KDpD98e/Qr2Y73eCn3Zg/35BDurw0K8dCa+w/yX/xlePxMAnCdgnww0YqycH2HKgbgUFJLkyQoe06agiI7LCgpF8OAzGI8V7z2zdWrJ3fNSqEKOu6uG8Yz/ZqlKTjQeHM0dytuwBf46RdP0P4=
  7
TQS_CALIBRI
  0
TEXT
  8
0
  6
CONTINUOUS
 10
0.000000
 20
-0.500000
 40
0.200000
  1
$PLWDWG5ErgzI3rqotAjHHgkrqvLLHpexzJm+5F+ahsFrh0tP9v50pxIKmHKx0HC6uPxJ/e4eMxkhcUge2nrZH49lFiEE3yA6ErnVXH0S7cmKmAjEgPie94+25WwZKOCS5eKjjnR28jdU0zjWzLfyNJwurvG771daFhMaSuP3XZJ9LsYRk=
  7
TQS_CALIBRI
  0
TEXT
  8
0
  6
CONTINUOUS
 10
0.000000
 20
-0.750000
 40
0.200000
  1
$PLWDWGI7MVvPWNhD56Q6bNpmLLvEn0zYpbZZDlP6FYhbHgTsH4WLZlY0aOQnQbdSkyM5/lSYGbjsPNADnnNWbWzfeAQqbfhbMcV3U9gOSXCru2hbdiJgi/HR1eswiqej3yJ66q2VIB4b8E/zji2AAqCEYRMGGxyM0ymxyyNnPKdrjQEhY=
  7
TQS_CALIBRI
  0
TEXT
  8
0
  6
CONTINUOUS
 10
0.000000
 20
-1.000000
 40
0.200000
  1
$PLWDWGav/C1fWavIIYh66Ofd9ma5U79jf89ANk1xsRAWX1c/dJbg60aMjL5rnHqW1JOE08rlJh8zkytyaj7Xg+QUBatJqqE8x4Qf/Jg0tR1/9sNj25Ngxid5FFbiEzkmxQ+yezuMAcc0Bot9JpN4wOYNQrVxWMrkSWnQM9qNmU77BTqgM=
  7
TQS_CALIBRI
  0
TEXT
  8
0
  6
CONTINUOUS
 10
0.000000
 20
-1.250000
 40
0.200000
  1
$PLWDWGhOCOWJs8ngxal90iBS9aDUHmXenlEtSsk8bVZiEXyMr08q7wkw7RrMUHj2RmgLFtUCRq1sylKHrKiOW8Np2/U+46tpozb/MwkrNhF9oHvX/BwiAry+7ifmOEOINOOEGlxlZ6dywhw5+lRAOcjKCmbuCpLeiw4ZXdaihTBZ7bXGY=
  7
TQS_CALIBRI
  0
TEXT
  8
0
  6
CONTINUOUS
 10
0.000000
 20
-1.500000
 40
0.200000
  1
$PLWDWGWOiPl6l5biOkJpcXej1FsOCP2n98nSQ+yfNHKG4RmBihsZLjgdvnHcxcziwxs4L/Soj6rj6r5Zx70Imoc4UWqiDkZBvk5IEaC8251JuHvB6thm/VXGwelIpyhHkjmb9nOx6BhmXiP99liNT+EvxNOaPOmV9+Tsa3JTCw+vVp7Zw=
  7
TQS_CALIBRI
  0
TEXT
  8
0
  6
CONTINUOUS
 10
0.000000
 20
-1.750000
 40
0.200000
  1
$PLWDWGvXzFPIFRR5o+9FwNa1nG1+jjc9ThVvUnBNc1Nddq89+pxJuhcrkQqLonqzlvTSQ8msHNUkysCTcAAAAAxTYDHbzbDz8/kpCptxIZ15rBzVJMrAk3AAAAAA==
  7
TQS_CALIBRI
  0
ENDBLK
  8
0
  0
ENDSEC
  0
SECTION
  2
ENTITIES
  0
SOLID
  8
13
  6
CONTINUOUS
 10
102.095046
 20
10.244446
 11
102.095046
 21
9.498246
 12
101.971546
 22
9.498246
 13
101.971546
 23
9.498246
  0
SOLID
  8
13
  6
CONTINUOUS
 10
102.095046
 20
10.244446
 11
101.971546
 21
9.498246
 12
101.971546
 22
11.162246
 13
101.971546
 23
11.162246
  0
SOLID
  8
13
  6
CONTINUOUS
 10
102.095046
 20
10.244446
 11
101.971546
 21
11.162246
 12
102.095046
 22
11.162246
 13
102.095046
 23
11.162246
  0
SOLID
  8
13
  6
CONTINUOUS
 10
102.095046
 20
10.244446
 11
102.095046
 21
11.162246
 12
102.095046
 22
10.244446
 13
102.095046
 23
10.244446
  0
SOLID
  8
13
  6
CONTINUOUS
 10
102.522746
 20
10.230979
 11
102.522746
 21
9.498246
 12
102.095046
 22
9.498246
 13
102.095046
 23
9.498246
  0
SOLID
  8
13
  6
CONTINUOUS
 10
102.522746
 20
10.230979
 11
102.095046
 21
9.498246
 12
102.095046
 22
10.244446
 13
102.095046
 23
10.244446
  0
SOLID
  8
13
  6
CONTINUOUS
 10
102.522746
 20
10.230979
 11
102.095046
 21
10.244446
 12
102.143544
 22
10.248642
 13
102.143544
 23
10.248642
  0
SOLID
  8
13
  6
CONTINUOUS
 10
102.522746
 20
10.230979
 11
102.143544
 21
10.248642
 12
102.211078
 22
10.252071
 13
102.211078
 23
10.252071
  0
SOLID
  8
13
  6
CONTINUOUS
 10
102.522746
 20
10.230979
 11
102.211078
 21
10.252071
 12
102.259959
 22
10.252484
 13
102.259959
 23
10.252484
  0
SOLID
  8
13
  6
CONTINUOUS
 10
102.522746
 20
10.230979
 11
102.259959
 21
10.252484
 12
102.290321
 22
10.252141
 13
102.290321
 23
10.252141
  0
SOLID
  8
13
  6
CONTINUOUS
 10
102.522746
 20
10.230979
 11
102.290321
 21
10.252141
 12
102.334203
 22
10.250668
 13
102.334203
 23
10.250668
  0
SOLID
  8
13
  6
CONTINUOUS
 10
102.522746
 20
10.230979
 11
102.334203
 21
10.250668
 12
102.394518
 22
10.246747
 13
102.394518
 23
10.246747
  0
SOLID
  8
13
  6
CONTINUOUS
 10
102.522746
 20
10.230979
 11
102.394518
 21
10.246747
 12
102.446340
 22
10.241621
 13
102.446340
 23
10.241621
  0
SOLID
  8
13
  6
CONTINUOUS
 10
102.522746
 20
10.230979
 11
102.446340
 21
10.241621
 12
102.490083
 22
10.235974
 13
102.490083
 23
10.235974
  0
SOLID
  8
13
  6
CONTINUOUS
 10
102.522746
 20
10.230979
 11
102.490083
 21
10.235974
 12
102.522746
 22
10.230979
 13
102.522746
 23
10.230979
  0
SOLID
  8
13
  6
CONTINUOUS
 10
102.594246
 20
10.217654
 11
102.594246
 21
9.498246
 12
103.021946
 22
9.498246
 13
103.021946
 23
9.498246
  0
SOLID
  8
13
  6
CONTINUOUS
 10
102.594246
 20
10.217654
 11
103.021946
 21
9.498246
 12
103.021946
 22
10.064184
 13
103.021946
 23
10.064184
  0
SOLID
  8
13
  6
CONTINUOUS
 10
102.594246
 20
10.217654
 11
103.021946
 21
10.064184
 12
103.003898
 22
10.073542
 13
103.003898
 23
10.073542
  0
SOLID
  8
13
  6
CONTINUOUS
 10
102.594246
 20
10.217654
 11
103.003898
 21
10.073542
 12
102.981716
 22
10.084501
 13
102.981716
 23
10.084501
  0
SOLID
  8
13
  6
CONTINUOUS
 10
102.594246
 20
10.217654
 11
102.981716
 21
10.084501
 12
102.953307
 22
10.098271
 13
102.953307
 23
10.098271
  0
SOLID
  8
13
  6
CONTINUOUS
 10
102.594246
 20
10.217654
 11
102.953307
 21
10.098271
 12
102.912865
 22
10.116383
 13
102.912865
 23
10.116383
  0
SOLID
  8
13
  6
CONTINUOUS
 10
102.594246
 20
10.217654
 11
102.912865
 21
10.116383
 12
102.885024
 22
10.128001
 13
102.885024
 23
10.128001
  0
SOLID
  8
13
  6
CONTINUOUS
 10
102.594246
 20
10.217654
 11
102.885024
 21
10.128001
 12
102.844071
 22
10.144755
 13
102.844071
 23
10.144755
  0
SOLID
  8
13
  6
CONTINUOUS
 10
102.594246
 20
10.217654
 11
102.844071
 21
10.144755
 12
102.813490
 22
10.155923
 13
102.813490
 23
10.155923
  0
SOLID
  8
13
  6
CONTINUOUS
 10
102.594246
 20
10.217654
 11
102.813490
 21
10.155923
 12
102.778388
 22
10.168156
 13
102.778388
 23
10.168156
  0
SOLID
  8
13
  6
CONTINUOUS
 10
102.594246
 20
10.217654
 11
102.778388
 21
10.168156
 12
102.744083
 22
10.178793
 13
102.744083
 23
10.178793
  0
SOLID
  8
13
  6
CONTINUOUS
 10
102.594246
 20
10.217654
 11
102.744083
 21
10.178793
 12
102.703465
 22
10.191172
 13
102.703465
 23
10.191172
  0
SOLID
  8
13
  6
CONTINUOUS
 10
102.594246
 20
10.217654
 11
102.703465
 21
10.191172
 12
102.665141
 22
10.201162
 13
102.665141
 23
10.201162
  0
SOLID
  8
13
  6
CONTINUOUS
 10
102.594246
 20
10.217654
 11
102.665141
 21
10.201162
 12
102.624819
 22
10.210970
 13
102.624819
 23
10.210970
  0
SOLID
  8
13
  6
CONTINUOUS
 10
102.594246
 20
10.217654
 11
102.624819
 21
10.210970
 12
102.594246
 22
10.217654
 13
102.594246
 23
10.217654
  0
SOLID
  8
13
  6
CONTINUOUS
 10
103.093446
 20
10.024343
 11
103.093446
 21
9.498246
 12
103.521146
 22
9.498246
 13
103.521146
 23
9.498246
  0
SOLID
  8
13
  6
CONTINUOUS
 10
103.093446
 20
10.024343
 11
103.521146
 21
9.498246
 12
103.521146
 22
9.661030
 13
103.521146
 23
9.661030
  0
SOLID
  8
13
  6
CONTINUOUS
 10
103.093446
 20
10.024343
 11
103.521146
 21
9.661030
 12
103.507797
 22
9.676793
 13
103.507797
 23
9.676793
  0
SOLID
  8
13
  6
CONTINUOUS
 10
103.093446
 20
10.024343
 11
103.507797
 21
9.676793
 12
103.495964
 22
9.690528
 13
103.495964
 23
9.690528
  0
SOLID
  8
13
  6
CONTINUOUS
 10
103.093446
 20
10.024343
 11
103.495964
 21
9.690528
 12
103.473877
 22
9.715277
 13
103.473877
 23
9.715277
  0
SOLID
  8
13
  6
CONTINUOUS
 10
103.093446
 20
10.024343
 11
103.473877
 21
9.715277
 12
103.454164
 22
9.736530
 13
103.454164
 23
9.736530
  0
SOLID
  8
13
  6
CONTINUOUS
 10
103.093446
 20
10.024343
 11
103.454164
 21
9.736530
 12
103.434048
 22
9.757502
 13
103.434048
 23
9.757502
  0
SOLID
  8
13
  6
CONTINUOUS
 10
103.093446
 20
10.024343
 11
103.434048
 21
9.757502
 12
103.410015
 22
9.781535
 13
103.410015
 23
9.781535
  0
SOLID
  8
13
  6
CONTINUOUS
 10
103.093446
 20
10.024343
 11
103.410015
 21
9.781535
 12
103.399294
 22
9.791943
 13
103.399294
 23
9.791943
  0
SOLID
  8
13
  6
CONTINUOUS
 10
103.093446
 20
10.024343
 11
103.399294
 21
9.791943
 12
103.388429
 22
9.802406
 13
103.388429
 23
9.802406
  0
SOLID
  8
13
  6
CONTINUOUS
 10
103.093446
 20
10.024343
 11
103.388429
 21
9.802406
 12
103.359952
 22
9.828752
 13
103.359952
 23
9.828752
  0
SOLID
  8
13
  6
CONTINUOUS
 10
103.093446
 20
10.024343
 11
103.359952
 21
9.828752
 12
103.325139
 22
9.859181
 13
103.325139
 23
9.859181
  0
SOLID
  8
13
  6
CONTINUOUS
 10
103.093446
 20
10.024343
 11
103.325139
 21
9.859181
 12
103.286846
 22
9.890826
 13
103.286846
 23
9.890826
  0
SOLID
  8
13
  6
CONTINUOUS
 10
103.093446
 20
10.024343
 11
103.286846
 21
9.890826
 12
103.251036
 22
9.918745
 13
103.251036
 23
9.918745
  0
SOLID
  8
13
  6
CONTINUOUS
 10
103.093446
 20
10.024343
 11
103.251036
 21
9.918745
 12
103.200839
 22
9.955427
 13
103.200839
 23
9.955427
  0
SOLID
  8
13
  6
CONTINUOUS
 10
103.093446
 20
10.024343
 11
103.200839
 21
9.955427
 12
103.134352
 22
9.999676
 13
103.134352
 23
9.999676
  0
SOLID
  8
13
  6
CONTINUOUS
 10
103.093446
 20
10.024343
 11
103.134352
 21
9.999676
 12
103.093446
 22
10.024343
 13
103.093446
 23
10.024343
  0
SOLID
  8
13
  6
CONTINUOUS
 10
102.522746
 20
10.635283
 11
102.522746
 21
11.162246
 12
102.095046
 22
11.162246
 13
102.095046
 23
11.162246
  0
SOLID
  8
13
  6
CONTINUOUS
 10
102.522746
 20
10.635283
 11
102.095046
 21
11.162246
 12
102.095046
 22
10.995122
 13
102.095046
 23
10.995122
  0
SOLID
  8
13
  6
CONTINUOUS
 10
102.522746
 20
10.635283
 11
102.095046
 21
10.995122
 12
102.153689
 22
10.929235
 13
102.153689
 23
10.929235
  0
SOLID
  8
13
  6
CONTINUOUS
 10
102.522746
 20
10.635283
 11
102.153689
 21
10.929235
 12
102.237359
 22
10.846559
 13
102.237359
 23
10.846559
  0
SOLID
  8
13
  6
CONTINUOUS
 10
102.522746
 20
10.635283
 11
102.237359
 21
10.846559
 12
102.308389
 22
10.784730
 13
102.308389
 23
10.784730
  0
SOLID
  8
13
  6
CONTINUOUS
 10
102.522746
 20
10.635283
 11
102.308389
 21
10.784730
 12
102.366624
 22
10.739274
 13
102.366624
 23
10.739274
  0
SOLID
  8
13
  6
CONTINUOUS
 10
102.522746
 20
10.635283
 11
102.366624
 21
10.739274
 12
102.406322
 22
10.710064
 13
102.406322
 23
10.710064
  0
SOLID
  8
13
  6
CONTINUOUS
 10
102.522746
 20
10.635283
 11
102.406322
 21
10.710064
 12
102.455827
 22
10.676682
 13
102.455827
 23
10.676682
  0
SOLID
  8
13
  6
CONTINUOUS
 10
102.522746
 20
10.635283
 11
102.455827
 21
10.676682
 12
102.493954
 22
10.652515
 13
102.493954
 23
10.652515
  0
SOLID
  8
13
  6
CONTINUOUS
 10
102.522746
 20
10.635283
 11
102.493954
 21
10.652515
 12
102.522746
 22
10.635283
 13
102.522746
 23
10.635283
  0
SOLID
  8
13
  6
CONTINUOUS
 10
103.021946
 20
10.443678
 11
103.021946
 21
11.162246
 12
102.594246
 22
11.162246
 13
102.594246
 23
11.162246
  0
SOLID
  8
13
  6
CONTINUOUS
 10
103.021946
 20
10.443678
 11
102.594246
 21
11.162246
 12
102.594246
 22
10.595859
 13
102.594246
 23
10.595859
  0
SOLID
  8
13
  6
CONTINUOUS
 10
103.021946
 20
10.443678
 11
102.594246
 21
10.595859
 12
102.663800
 22
10.561766
 13
102.663800
 23
10.561766
  0
SOLID
  8
13
  6
CONTINUOUS
 10
103.021946
 20
10.443678
 11
102.663800
 21
10.561766
 12
102.744359
 22
10.527375
 13
102.744359
 23
10.527375
  0
SOLID
  8
13
  6
CONTINUOUS
 10
103.021946
 20
10.443678
 11
102.744359
 21
10.527375
 12
102.812197
 22
10.501464
 13
102.812197
 23
10.501464
  0
SOLID
  8
13
  6
CONTINUOUS
 10
103.021946
 20
10.443678
 11
102.812197
 21
10.501464
 12
102.889458
 22
10.476967
 13
102.889458
 23
10.476967
  0
SOLID
  8
13
  6
CONTINUOUS
 10
103.021946
 20
10.443678
 11
102.889458
 21
10.476967
 12
102.950702
 22
10.460007
 13
102.950702
 23
10.460007
  0
SOLID
  8
13
  6
CONTINUOUS
 10
103.021946
 20
10.443678
 11
102.950702
 21
10.460007
 12
103.021946
 22
10.443678
 13
103.021946
 23
10.443678
  0
SOLID
  8
13
  6
CONTINUOUS
 10
103.093446
 20
10.430307
 11
103.093446
 21
11.162246
 12
103.521146
 22
11.162246
 13
103.521146
 23
11.162246
  0
SOLID
  8
13
  6
CONTINUOUS
 10
103.093446
 20
10.430307
 11
103.521146
 21
11.162246
 12
103.521146
 22
10.417580
 13
103.521146
 23
10.417580
  0
SOLID
  8
13
  6
CONTINUOUS
 10
103.093446
 20
10.430307
 11
103.521146
 21
10.417580
 12
103.476372
 22
10.413637
 13
103.476372
 23
10.413637
  0
SOLID
  8
13
  6
CONTINUOUS
 10
103.093446
 20
10.430307
 11
103.476372
 21
10.413637
 12
103.416577
 22
10.410480
 13
103.416577
 23
10.410480
  0
SOLID
  8
13
  6
CONTINUOUS
 10
103.093446
 20
10.430307
 11
103.416577
 21
10.410480
 12
103.366788
 22
10.409453
 13
103.366788
 23
10.409453
  0
SOLID
  8
13
  6
CONTINUOUS
 10
103.093446
 20
10.430307
 11
103.366788
 21
10.409453
 12
103.336830
 22
10.409453
 13
103.336830
 23
10.409453
  0
SOLID
  8
13
  6
CONTINUOUS
 10
103.093446
 20
10.430307
 11
103.336830
 21
10.409453
 12
103.286182
 22
10.410821
 13
103.286182
 23
10.410821
  0
SOLID
  8
13
  6
CONTINUOUS
 10
103.093446
 20
10.430307
 11
103.286182
 21
10.410821
 12
103.241261
 22
10.413321
 13
103.241261
 23
10.413321
  0
SOLID
  8
13
  6
CONTINUOUS
 10
103.093446
 20
10.430307
 11
103.241261
 21
10.413321
 12
103.205545
 22
10.416539
 13
103.205545
 23
10.416539
  0
SOLID
  8
13
  6
CONTINUOUS
 10
103.093446
 20
10.430307
 11
103.205545
 21
10.416539
 12
103.155349
 22
10.421044
 13
103.155349
 23
10.421044
  0
SOLID
  8
13
  6
CONTINUOUS
 10
103.093446
 20
10.430307
 11
103.155349
 21
10.421044
 12
103.093446
 22
10.430307
 13
103.093446
 23
10.430307
  0
SOLID
  8
13
  6
CONTINUOUS
 10
102.594246
 20
9.498246
 11
102.594246
 21
11.162246
 12
102.522746
 22
11.162246
 13
102.522746
 23
11.162246
  0
SOLID
  8
13
  6
CONTINUOUS
 10
102.594246
 20
9.498246
 11
102.522746
 21
11.162246
 12
102.522746
 22
9.498246
 13
102.522746
 23
9.498246
  0
SOLID
  8
13
  6
CONTINUOUS
 10
102.594246
 20
9.498246
 11
102.522746
 21
9.498246
 12
102.522746
 22
9.498246
 13
102.522746
 23
9.498246
  0
SOLID
  8
13
  6
CONTINUOUS
 10
103.021946
 20
11.162246
 11
103.093446
 21
11.162246
 12
103.093446
 22
9.498246
 13
103.093446
 23
9.498246
  0
SOLID
  8
13
  6
CONTINUOUS
 10
103.021946
 20
11.162246
 11
103.093446
 21
9.498246
 12
103.021946
 22
9.498246
 13
103.021946
 23
9.498246
  0
SOLID
  8
13
  6
CONTINUOUS
 10
103.021946
 20
11.162246
 11
103.021946
 21
9.498246
 12
103.021946
 22
11.162246
 13
103.021946
 23
11.162246
  0
SOLID
  8
13
  6
CONTINUOUS
 10
103.521146
 20
9.498246
 11
103.635546
 21
9.498246
 12
103.635546
 22
11.162246
 13
103.635546
 23
11.162246
  0
SOLID
  8
13
  6
CONTINUOUS
 10
103.521146
 20
9.498246
 11
103.635546
 21
11.162246
 12
103.521146
 22
11.162246
 13
103.521146
 23
11.162246
  0
SOLID
  8
13
  6
CONTINUOUS
 10
103.521146
 20
9.498246
 11
103.521146
 21
11.162246
 12
103.521146
 22
9.498246
 13
103.521146
 23
9.498246
  0
POLYLINE
  8
1
  6
CONTINUOUS
 66
     1
  0
VERTEX
  8
1
  6
CONTINUOUS
 10
92.962384
 20
6.512664
  0
VERTEX
  8
1
  6
CONTINUOUS
 10
92.667465
 20
3.021050
  0
SEQEND
  8
1
  6
CONTINUOUS
  0
POLYLINE
  8
1
  6
CONTINUOUS
 66
     1
  0
VERTEX
  8
1
  6
CONTINUOUS
 10
93.165683
 20
2.978872
  0
VERTEX
  8
1
  6
CONTINUOUS
 10
93.460610
 20
6.470581
  0
SEQEND
  8
1
  6
CONTINUOUS
  0
POLYLINE
  8
1
  6
CONTINUOUS
 66
     1
  0
VERTEX
  8
1
  6
CONTINUOUS
 10
93.253176
 20
9.955427
  0
VERTEX
  8
1
  6
CONTINUOUS
 10
93.004466
 20
7.010890
  0
SEQEND
  8
1
  6
CONTINUOUS
  0
POLYLINE
  8
1
  6
CONTINUOUS
 66
     1
  0
VERTEX
  8
1
  6
CONTINUOUS
 10
93.502692
 20
6.968807
  0
VERTEX
  8
1
  6
CONTINUOUS
 10
93.751402
 20
9.913344
  0
SEQEND
  8
1
  6
CONTINUOUS
  0
POLYLINE
  8
1
  6
CONTINUOUS
 66
     1
  0
VERTEX
  8
1
  6
CONTINUOUS
 10
93.540744
 20
13.360014
  0
VERTEX
  8
1
  6
CONTINUOUS
 10
93.295259
 20
10.453652
  0
SEQEND
  8
1
  6
CONTINUOUS
  0
POLYLINE
  8
1
  6
CONTINUOUS
 66
     1
  0
VERTEX
  8
1
  6
CONTINUOUS
 10
93.793485
 20
10.411570
  0
VERTEX
  8
1
  6
CONTINUOUS
 10
94.038963
 20
13.317844
  0
SEQEND
  8
1
  6
CONTINUOUS
  0
POLYLINE
  8
1
  6
CONTINUOUS
 66
     1
  0
VERTEX
  8
1
  6
CONTINUOUS
 10
93.842336
 20
16.930633
  0
VERTEX
  8
1
  6
CONTINUOUS
 10
93.596854
 20
14.024315
  0
SEQEND
  8
1
  6
CONTINUOUS
  0
POLYLINE
  8
1
  6
CONTINUOUS
 66
     1
  0
VERTEX
  8
1
  6
CONTINUOUS
 10
94.095073
 20
13.982146
  0
VERTEX
  8
1
  6
CONTINUOUS
 10
94.340562
 20
16.888550
  0
SEQEND
  8
1
  6
CONTINUOUS
  0
POLYLINE
  8
1
  6
CONTINUOUS
 66
     1
  0
VERTEX
  8
1
  6
CONTINUOUS
 10
94.122825
 20
20.251408
  0
VERTEX
  8
1
  6
CONTINUOUS
 10
93.884419
 20
17.428859
  0
SEQEND
  8
1
  6
CONTINUOUS
  0
POLYLINE
  8
1
  6
CONTINUOUS
 66
     1
  0
VERTEX
  8
1
  6
CONTINUOUS
 10
94.382645
 20
17.386776
  0
VERTEX
  8
1
  6
CONTINUOUS
 10
94.621051
 20
20.209325
  0
SEQEND
  8
1
  6
CONTINUOUS
  0
POLYLINE
  8
1
  6
CONTINUOUS
 66
     1
  0
VERTEX
  8
1
  6
CONTINUOUS
 10
94.410389
 20
23.655952
  0
VERTEX
  8
1
  6
CONTINUOUS
 10
94.164908
 20
20.749634
  0
SEQEND
  8
1
  6
CONTINUOUS
  0
POLYLINE
  8
1
  6
CONTINUOUS
 66
     1
  0
VERTEX
  8
1
  6
CONTINUOUS
 10
94.663134
 20
20.707551
  0
VERTEX
  8
1
  6
CONTINUOUS
 10
94.908608
 20
23.613782
  0
SEQEND
  8
1
  6
CONTINUOUS
  0
POLYLINE
  8
1
  6
CONTINUOUS
 66
     1
  0
VERTEX
  8
1
  6
CONTINUOUS
 10
94.711981
 20
27.226571
  0
VERTEX
  8
1
  6
CONTINUOUS
 10
94.466500
 20
24.320253
  0
SEQEND
  8
1
  6
CONTINUOUS
  0
POLYLINE
  8
1
  6
CONTINUOUS
 66
     1
  0
VERTEX
  8
1
  6
CONTINUOUS
 10
94.964718
 20
24.278084
  0
VERTEX
  8
1
  6
CONTINUOUS
 10
95.210207
 20
27.184488
  0
SEQEND
  8
1
  6
CONTINUOUS
  0
POLYLINE
  8
1
  6
CONTINUOUS
 66
     1
  0
VERTEX
  8
1
  6
CONTINUOUS
 10
94.992532
 20
30.548075
  0
VERTEX
  8
1
  6
CONTINUOUS
 10
94.754064
 20
27.724796
  0
SEQEND
  8
1
  6
CONTINUOUS
  0
POLYLINE
  8
1
  6
CONTINUOUS
 66
     1
  0
VERTEX
  8
1
  6
CONTINUOUS
 10
95.252290
 20
27.682714
  0
VERTEX
  8
1
  6
CONTINUOUS
 10
95.490758
 20
30.505992
  0
SEQEND
  8
1
  6
CONTINUOUS
  0
POLYLINE
  8
1
  6
CONTINUOUS
 66
     1
  0
VERTEX
  8
1
  6
CONTINUOUS
 10
95.280096
 20
33.952619
  0
VERTEX
  8
1
  6
CONTINUOUS
 10
95.034614
 20
31.046300
  0
SEQEND
  8
1
  6
CONTINUOUS
  0
POLYLINE
  8
1
  6
CONTINUOUS
 66
     1
  0
VERTEX
  8
1
  6
CONTINUOUS
 10
95.532840
 20
31.004218
  0
VERTEX
  8
1
  6
CONTINUOUS
 10
95.778315
 20
33.910450
  0
SEQEND
  8
1
  6
CONTINUOUS
  0
POLYLINE
  8
1
  6
CONTINUOUS
 66
     1
  0
VERTEX
  8
1
  6
CONTINUOUS
 10
95.581688
 20
37.523237
  0
VERTEX
  8
1
  6
CONTINUOUS
 10
95.336206
 20
34.616920
  0
SEQEND
  8
1
  6
CONTINUOUS
  0
POLYLINE
  8
1
  6
CONTINUOUS
 66
     1
  0
VERTEX
  8
1
  6
CONTINUOUS
 10
95.834425
 20
34.574751
  0
VERTEX
  8
1
  6
CONTINUOUS
 10
96.079914
 20
37.481155
  0
SEQEND
  8
1
  6
CONTINUOUS
  0
POLYLINE
  8
1
  6
CONTINUOUS
 66
     1
  0
VERTEX
  8
1
  6
CONTINUOUS
 10
95.873493
 20
40.977983
  0
VERTEX
  8
1
  6
CONTINUOUS
 10
95.623771
 20
38.021463
  0
SEQEND
  8
1
  6
CONTINUOUS
  0
POLYLINE
  8
1
  6
CONTINUOUS
 66
     1
  0
VERTEX
  8
1
  6
CONTINUOUS
 10
96.121997
 20
37.979381
  0
VERTEX
  8
1
  6
CONTINUOUS
 10
96.371719
 20
40.935901
  0
SEQEND
  8
1
  6
CONTINUOUS
  0
POLYLINE
  8
1
  6
CONTINUOUS
 66
     1
  0
VERTEX
  8
1
  6
CONTINUOUS
 10
96.209447
 20
44.955421
  0
VERTEX
  8
1
  6
CONTINUOUS
 10
95.915575
 20
41.476209
  0
SEQEND
  8
1
  6
CONTINUOUS
  0
POLYLINE
  8
1
  6
CONTINUOUS
 66
     1
  0
VERTEX
  8
1
  6
CONTINUOUS
 10
96.413801
 20
41.434127
  0
VERTEX
  8
1
  6
CONTINUOUS
 10
96.707672
 20
44.913338
  0
SEQEND
  8
1
  6
CONTINUOUS
  0
POLYLINE
  8
1
  6
CONTINUOUS
 66
     1
  0
VERTEX
  8
1
  6
CONTINUOUS
 10
44.687082
 20
6.581045
  0
VERTEX
  8
1
  6
CONTINUOUS
 10
48.975820
 20
6.218083
  0
SEQEND
  8
1
  6
CONTINUOUS
  0
POLYLINE
  8
1
  6
CONTINUOUS
 66
     1
  0
VERTEX
  8
1
  6
CONTINUOUS
 10
49.017990
 20
6.716302
  0
VERTEX
  8
1
  6
CONTINUOUS
 10
44.729251
 20
7.079263
  0
SEQEND
  8
1
  6
CONTINUOUS
  0
POLYLINE
  8
1
  6
CONTINUOUS
 66
     1
  0
VERTEX
  8
1
  6
CONTINUOUS
 10
40.099423
 20
6.969304
  0
VERTEX
  8
1
  6
CONTINUOUS
 10
44.188863
 20
6.623210
  0
SEQEND
  8
1
  6
CONTINUOUS
  0
POLYLINE
  8
1
  6
CONTINUOUS
 66
     1
  0
VERTEX
  8
1
  6
CONTINUOUS
 10
44.231032
 20
7.121428
  0
VERTEX
  8
1
  6
CONTINUOUS
 10
40.141593
 20
7.467523
  0
SEQEND
  8
1
  6
CONTINUOUS
  0
POLYLINE
  8
1
  6
CONTINUOUS
 66
     1
  0
VERTEX
  8
1
  6
CONTINUOUS
 10
39.567990
 20
7.014280
  0
VERTEX
  8
1
  6
CONTINUOUS
 10
39.601204
 20
7.011469
  0
SEQEND
  8
1
  6
CONTINUOUS
  0
POLYLINE
  8
1
  6
CONTINUOUS
 66
     1
  0
VERTEX
  8
1
  6
CONTINUOUS
 10
39.643374
 20
7.509688
  0
VERTEX
  8
1
  6
CONTINUOUS
 10
39.610159
 20
7.512499
  0
SEQEND
  8
1
  6
CONTINUOUS
  0
POLYLINE
  8
1
  6
CONTINUOUS
 66
     1
  0
VERTEX
  8
1
  6
CONTINUOUS
 10
34.809015
 20
7.417038
  0
VERTEX
  8
1
  6
CONTINUOUS
 10
38.737625
 20
7.084555
  0
SEQEND
  8
1
  6
CONTINUOUS
  0
POLYLINE
  8
1
  6
CONTINUOUS
 66
     1
  0
VERTEX
  8
1
  6
CONTINUOUS
 10
38.779794
 20
7.582774
  0
VERTEX
  8
1
  6
CONTINUOUS
 10
34.851185
 20
7.915257
  0
SEQEND
  8
1
  6
CONTINUOUS
  0
POLYLINE
  8
1
  6
CONTINUOUS
 66
     1
  0
VERTEX
  8
1
  6
CONTINUOUS
 10
29.800969
 20
7.840876
  0
VERTEX
  8
1
  6
CONTINUOUS
 10
34.310796
 20
7.459203
  0
SEQEND
  8
1
  6
CONTINUOUS
  0
POLYLINE
  8
1
  6
CONTINUOUS
 66
     1
  0
VERTEX
  8
1
  6
CONTINUOUS
 10
34.352966
 20
7.957422
  0
VERTEX
  8
1
  6
CONTINUOUS
 10
29.843138
 20
8.339094
  0
SEQEND
  8
1
  6
CONTINUOUS
  0
POLYLINE
  8
1
  6
CONTINUOUS
 66
     1
  0
VERTEX
  8
1
  6
CONTINUOUS
 10
25.259819
 20
8.225199
  0
VERTEX
  8
1
  6
CONTINUOUS
 10
29.302750
 20
7.883041
  0
SEQEND
  8
1
  6
CONTINUOUS
  0
POLYLINE
  8
1
  6
CONTINUOUS
 66
     1
  0
VERTEX
  8
1
  6
CONTINUOUS
 10
29.344920
 20
8.381259
  0
VERTEX
  8
1
  6
CONTINUOUS
 10
25.301988
 20
8.723418
  0
SEQEND
  8
1
  6
CONTINUOUS
  0
POLYLINE
  8
1
  6
CONTINUOUS
 66
     1
  0
VERTEX
  8
1
  6
CONTINUOUS
 10
20.469596
 20
8.630602
  0
VERTEX
  8
1
  6
CONTINUOUS
 10
24.761600
 20
8.267364
  0
SEQEND
  8
1
  6
CONTINUOUS
  0
POLYLINE
  8
1
  6
CONTINUOUS
 66
     1
  0
VERTEX
  8
1
  6
CONTINUOUS
 10
24.803769
 20
8.765583
  0
VERTEX
  8
1
  6
CONTINUOUS
 10
20.511765
 20
9.128820
  0
SEQEND
  8
1
  6
CONTINUOUS
  0
POLYLINE
  8
1
  6
CONTINUOUS
 66
     1
  0
VERTEX
  8
1
  6
CONTINUOUS
 10
16.712194
 20
8.948596
  0
VERTEX
  8
1
  6
CONTINUOUS
 10
19.971377
 20
8.672767
  0
SEQEND
  8
1
  6
CONTINUOUS
  0
POLYLINE
  8
1
  6
CONTINUOUS
 66
     1
  0
VERTEX
  8
1
  6
CONTINUOUS
 10
20.013546
 20
9.170985
  0
VERTEX
  8
1
  6
CONTINUOUS
 10
16.754364
 20
9.446814
  0
SEQEND
  8
1
  6
CONTINUOUS
  0
POLYLINE
  8
1
  6
CONTINUOUS
 66
     1
  0
VERTEX
  8
1
  6
CONTINUOUS
 10
12.954793
 20
9.266589
  0
VERTEX
  8
1
  6
CONTINUOUS
 10
16.213975
 20
8.990761
  0
SEQEND
  8
1
  6
CONTINUOUS
  0
POLYLINE
  8
1
  6
CONTINUOUS
 66
     1
  0
VERTEX
  8
1
  6
CONTINUOUS
 10
16.256145
 20
9.488979
  0
VERTEX
  8
1
  6
CONTINUOUS
 10
12.996962
 20
9.764808
  0
SEQEND
  8
1
  6
CONTINUOUS
  0
POLYLINE
  8
1
  6
CONTINUOUS
 66
     1
  0
VERTEX
  8
1
  6
CONTINUOUS
 10
8.810791
 20
9.617301
  0
VERTEX
  8
1
  6
CONTINUOUS
 10
12.456574
 20
9.308754
  0
SEQEND
  8
1
  6
CONTINUOUS
  0
POLYLINE
  8
1
  6
CONTINUOUS
 66
     1
  0
VERTEX
  8
1
  6
CONTINUOUS
 10
12.498743
 20
9.806973
  0
VERTEX
  8
1
  6
CONTINUOUS
 10
8.810791
 20
10.119089
  0
SEQEND
  8
1
  6
CONTINUOUS
  0
POLYLINE
  8
1
  6
CONTINUOUS
 66
     1
  0
VERTEX
  8
1
  6
CONTINUOUS
 10
92.306798
 20
45.285766
  0
VERTEX
  8
1
  6
CONTINUOUS
 10
95.550864
 20
45.011204
  0
SEQEND
  8
1
  6
CONTINUOUS
  0
POLYLINE
  8
1
  6
CONTINUOUS
 66
     1
  0
VERTEX
  8
1
  6
CONTINUOUS
 10
95.592946
 20
45.509430
  0
VERTEX
  8
1
  6
CONTINUOUS
 10
92.348880
 20
45.783992
  0
SEQEND
  8
1
  6
CONTINUOUS
  0
POLYLINE
  8
1
  6
CONTINUOUS
 66
     1
  0
VERTEX
  8
1
  6
CONTINUOUS
 10
86.882008
 20
45.744895
  0
VERTEX
  8
1
  6
CONTINUOUS
 10
91.808579
 20
45.327933
  0
SEQEND
  8
1
  6
CONTINUOUS
  0
POLYLINE
  8
1
  6
CONTINUOUS
 66
     1
  0
VERTEX
  8
1
  6
CONTINUOUS
 10
91.850662
 20
45.826159
  0
VERTEX
  8
1
  6
CONTINUOUS
 10
86.924091
 20
46.243121
  0
SEQEND
  8
1
  6
CONTINUOUS
  0
POLYLINE
  8
1
  6
CONTINUOUS
 66
     1
  0
VERTEX
  8
1
  6
CONTINUOUS
 10
83.178148
 20
46.058372
  0
VERTEX
  8
1
  6
CONTINUOUS
 10
86.383790
 20
45.787062
  0
SEQEND
  8
1
  6
CONTINUOUS
  0
POLYLINE
  8
1
  6
CONTINUOUS
 66
     1
  0
VERTEX
  8
1
  6
CONTINUOUS
 10
86.425872
 20
46.285288
  0
VERTEX
  8
1
  6
CONTINUOUS
 10
83.220230
 20
46.556598
  0
SEQEND
  8
1
  6
CONTINUOUS
  0
POLYLINE
  8
1
  6
CONTINUOUS
 66
     1
  0
VERTEX
  8
1
  6
CONTINUOUS
 10
76.087268
 20
46.658511
  0
VERTEX
  8
1
  6
CONTINUOUS
 10
82.679929
 20
46.100539
  0
SEQEND
  8
1
  6
CONTINUOUS
  0
POLYLINE
  8
1
  6
CONTINUOUS
 66
     1
  0
VERTEX
  8
1
  6
CONTINUOUS
 10
82.722011
 20
46.598765
  0
VERTEX
  8
1
  6
CONTINUOUS
 10
76.129351
 20
47.156737
  0
SEQEND
  8
1
  6
CONTINUOUS
  0
POLYLINE
  8
1
  6
CONTINUOUS
 66
     1
  0
VERTEX
  8
1
  6
CONTINUOUS
 10
70.772931
 20
47.108291
  0
VERTEX
  8
1
  6
CONTINUOUS
 10
75.589050
 20
46.700678
  0
SEQEND
  8
1
  6
CONTINUOUS
  0
POLYLINE
  8
1
  6
CONTINUOUS
 66
     1
  0
VERTEX
  8
1
  6
CONTINUOUS
 10
75.631132
 20
47.198904
  0
VERTEX
  8
1
  6
CONTINUOUS
 10
70.815014
 20
47.606517
  0
SEQEND
  8
1
  6
CONTINUOUS
  0
POLYLINE
  8
1
  6
CONTINUOUS
 66
     1
  0
VERTEX
  8
1
  6
CONTINUOUS
 10
66.953258
 20
47.431571
  0
VERTEX
  8
1
  6
CONTINUOUS
 10
70.274713
 20
47.150458
  0
SEQEND
  8
1
  6
CONTINUOUS
  0
POLYLINE
  8
1
  6
CONTINUOUS
 66
     1
  0
VERTEX
  8
1
  6
CONTINUOUS
 10
70.316795
 20
47.648684
  0
VERTEX
  8
1
  6
CONTINUOUS
 10
66.995340
 20
47.929797
  0
SEQEND
  8
1
  6
CONTINUOUS
  0
POLYLINE
  8
1
  6
CONTINUOUS
 66
     1
  0
VERTEX
  8
1
  6
CONTINUOUS
 10
62.635361
 20
47.797017
  0
VERTEX
  8
1
  6
CONTINUOUS
 10
66.455039
 20
47.473738
  0
SEQEND
  8
1
  6
CONTINUOUS
  0
POLYLINE
  8
1
  6
CONTINUOUS
 66
     1
  0
VERTEX
  8
1
  6
CONTINUOUS
 10
66.497121
 20
47.971964
  0
VERTEX
  8
1
  6
CONTINUOUS
 10
62.677444
 20
48.295243
  0
SEQEND
  8
1
  6
CONTINUOUS
  0
POLYLINE
  8
1
  6
CONTINUOUS
 66
     1
  0
VERTEX
  8
1
  6
CONTINUOUS
 10
59.024504
 20
48.102623
  0
VERTEX
  8
1
  6
CONTINUOUS
 10
62.137143
 20
47.839184
  0
SEQEND
  8
1
  6
CONTINUOUS
  0
POLYLINE
  8
1
  6
CONTINUOUS
 66
     1
  0
VERTEX
  8
1
  6
CONTINUOUS
 10
62.179225
 20
48.337410
  0
VERTEX
  8
1
  6
CONTINUOUS
 10
59.066586
 20
48.600849
  0
SEQEND
  8
1
  6
CONTINUOUS
  0
POLYLINE
  8
1
  6
CONTINUOUS
 66
     1
  0
VERTEX
  8
1
  6
CONTINUOUS
 10
53.335278
 20
48.584133
  0
VERTEX
  8
1
  6
CONTINUOUS
 10
57.861993
 20
48.201013
  0
SEQEND
  8
1
  6
CONTINUOUS
  0
POLYLINE
  8
1
  6
CONTINUOUS
 66
     1
  0
VERTEX
  8
1
  6
CONTINUOUS
 10
57.904076
 20
48.699239
  0
VERTEX
  8
1
  6
CONTINUOUS
 10
53.377360
 20
49.082359
  0
SEQEND
  8
1
  6
CONTINUOUS
  0
POLYLINE
  8
1
  6
CONTINUOUS
 66
     1
  0
VERTEX
  8
1
  6
CONTINUOUS
 10
50.345965
 20
48.837134
  0
VERTEX
  8
1
  6
CONTINUOUS
 10
52.837059
 20
48.626299
  0
SEQEND
  8
1
  6
CONTINUOUS
  0
POLYLINE
  8
1
  6
CONTINUOUS
 66
     1
  0
VERTEX
  8
1
  6
CONTINUOUS
 10
52.879141
 20
49.124525
  0
VERTEX
  8
1
  6
CONTINUOUS
 10
50.388047
 20
49.335360
  0
SEQEND
  8
1
  6
CONTINUOUS
  0
POLYLINE
  8
1
  6
CONTINUOUS
 66
     1
  0
VERTEX
  8
1
  6
CONTINUOUS
 10
46.642104
 20
49.150611
  0
VERTEX
  8
1
  6
CONTINUOUS
 10
49.847746
 20
48.879301
  0
SEQEND
  8
1
  6
CONTINUOUS
  0
POLYLINE
  8
1
  6
CONTINUOUS
 66
     1
  0
VERTEX
  8
1
  6
CONTINUOUS
 10
49.889829
 20
49.377527
  0
VERTEX
  8
1
  6
CONTINUOUS
 10
46.684186
 20
49.648837
  0
SEQEND
  8
1
  6
CONTINUOUS
  0
POLYLINE
  8
1
  6
CONTINUOUS
 66
     1
  0
VERTEX
  8
1
  6
CONTINUOUS
 10
5.324931
 20
10.896998
  0
VERTEX
  8
1
  6
CONTINUOUS
 10
5.325537
 20
11.206900
  0
SEQEND
  8
1
  6
CONTINUOUS
  0
POLYLINE
  8
1
  6
CONTINUOUS
 66
     1
  0
VERTEX
  8
1
  6
CONTINUOUS
 10
4.835656
 20
16.380087
  0
VERTEX
  8
1
  6
CONTINUOUS
 10
4.826516
 20
11.707876
  0
SEQEND
  8
1
  6
CONTINUOUS
  0
POLYLINE
  8
1
  6
CONTINUOUS
 66
     1
  0
VERTEX
  8
1
  6
CONTINUOUS
 10
5.326515
 20
11.706899
  0
VERTEX
  8
1
  6
CONTINUOUS
 10
5.335655
 20
16.379109
  0
SEQEND
  8
1
  6
CONTINUOUS
  0
POLYLINE
  8
1
  6
CONTINUOUS
 66
     1
  0
VERTEX
  8
1
  6
CONTINUOUS
 10
4.843496
 20
20.388331
  0
VERTEX
  8
1
  6
CONTINUOUS
 10
4.836634
 20
16.880086
  0
SEQEND
  8
1
  6
CONTINUOUS
  0
POLYLINE
  8
1
  6
CONTINUOUS
 66
     1
  0
VERTEX
  8
1
  6
CONTINUOUS
 10
5.336633
 20
16.879108
  0
VERTEX
  8
1
  6
CONTINUOUS
 10
5.343495
 20
20.387353
  0
SEQEND
  8
1
  6
CONTINUOUS
  0
POLYLINE
  8
1
  6
CONTINUOUS
 66
     1
  0
VERTEX
  8
1
  6
CONTINUOUS
 10
4.853146
 20
25.321667
  0
VERTEX
  8
1
  6
CONTINUOUS
 10
4.844474
 20
20.888330
  0
SEQEND
  8
1
  6
CONTINUOUS
  0
POLYLINE
  8
1
  6
CONTINUOUS
 66
     1
  0
VERTEX
  8
1
  6
CONTINUOUS
 10
5.344473
 20
20.887352
  0
VERTEX
  8
1
  6
CONTINUOUS
 10
5.353145
 20
25.320689
  0
SEQEND
  8
1
  6
CONTINUOUS
  0
POLYLINE
  8
1
  6
CONTINUOUS
 66
     1
  0
VERTEX
  8
1
  6
CONTINUOUS
 10
4.862796
 20
30.254978
  0
VERTEX
  8
1
  6
CONTINUOUS
 10
4.854124
 20
25.821666
  0
SEQEND
  8
1
  6
CONTINUOUS
  0
POLYLINE
  8
1
  6
CONTINUOUS
 66
     1
  0
VERTEX
  8
1
  6
CONTINUOUS
 10
5.354123
 20
25.820688
  0
VERTEX
  8
1
  6
CONTINUOUS
 10
5.362795
 20
30.254001
  0
SEQEND
  8
1
  6
CONTINUOUS
  0
POLYLINE
  8
1
  6
CONTINUOUS
 66
     1
  0
VERTEX
  8
1
  6
CONTINUOUS
 10
4.863840
 20
30.788311
  0
VERTEX
  8
1
  6
CONTINUOUS
 10
4.863774
 20
30.754978
  0
SEQEND
  8
1
  6
CONTINUOUS
  0
POLYLINE
  8
1
  6
CONTINUOUS
 66
     1
  0
VERTEX
  8
1
  6
CONTINUOUS
 10
5.363774
 20
30.754000
  0
VERTEX
  8
1
  6
CONTINUOUS
 10
5.363839
 20
30.787333
  0
SEQEND
  8
1
  6
CONTINUOUS
  0
POLYLINE
  8
1
  6
CONTINUOUS
 66
     1
  0
VERTEX
  8
1
  6
CONTINUOUS
 10
4.870947
 20
34.421637
  0
VERTEX
  8
1
  6
CONTINUOUS
 10
4.864818
 20
31.288310
  0
SEQEND
  8
1
  6
CONTINUOUS
  0
POLYLINE
  8
1
  6
CONTINUOUS
 66
     1
  0
VERTEX
  8
1
  6
CONTINUOUS
 10
5.364817
 20
31.287332
  0
VERTEX
  8
1
  6
CONTINUOUS
 10
5.370946
 20
34.420660
  0
SEQEND
  8
1
  6
CONTINUOUS
  0
POLYLINE
  8
1
  6
CONTINUOUS
 66
     1
  0
VERTEX
  8
1
  6
CONTINUOUS
 10
4.879097
 20
38.588296
  0
VERTEX
  8
1
  6
CONTINUOUS
 10
4.871925
 20
34.921636
  0
SEQEND
  8
1
  6
CONTINUOUS
  0
POLYLINE
  8
1
  6
CONTINUOUS
 66
     1
  0
VERTEX
  8
1
  6
CONTINUOUS
 10
5.371924
 20
34.920659
  0
VERTEX
  8
1
  6
CONTINUOUS
 10
5.379096
 20
38.587319
  0
SEQEND
  8
1
  6
CONTINUOUS
  0
POLYLINE
  8
1
  6
CONTINUOUS
 66
     1
  0
VERTEX
  8
1
  6
CONTINUOUS
 10
4.887248
 20
42.754955
  0
VERTEX
  8
1
  6
CONTINUOUS
 10
4.880075
 20
39.088295
  0
SEQEND
  8
1
  6
CONTINUOUS
  0
POLYLINE
  8
1
  6
CONTINUOUS
 66
     1
  0
VERTEX
  8
1
  6
CONTINUOUS
 10
5.380074
 20
39.087318
  0
VERTEX
  8
1
  6
CONTINUOUS
 10
5.387247
 20
42.753977
  0
SEQEND
  8
1
  6
CONTINUOUS
  0
POLYLINE
  8
1
  6
CONTINUOUS
 66
     1
  0
VERTEX
  8
1
  6
CONTINUOUS
 10
4.895235
 20
46.838280
  0
VERTEX
  8
1
  6
CONTINUOUS
 10
4.888226
 20
43.254954
  0
SEQEND
  8
1
  6
CONTINUOUS
  0
POLYLINE
  8
1
  6
CONTINUOUS
 66
     1
  0
VERTEX
  8
1
  6
CONTINUOUS
 10
5.388225
 20
43.253976
  0
VERTEX
  8
1
  6
CONTINUOUS
 10
5.395234
 20
46.837303
  0
SEQEND
  8
1
  6
CONTINUOUS
  0
POLYLINE
  8
1
  6
CONTINUOUS
 66
     1
  0
VERTEX
  8
1
  6
CONTINUOUS
 10
4.903385
 20
51.004939
  0
VERTEX
  8
1
  6
CONTINUOUS
 10
4.896213
 20
47.338279
  0
SEQEND
  8
1
  6
CONTINUOUS
  0
POLYLINE
  8
1
  6
CONTINUOUS
 66
     1
  0
VERTEX
  8
1
  6
CONTINUOUS
 10
5.396212
 20
47.337302
  0
VERTEX
  8
1
  6
CONTINUOUS
 10
5.403385
 20
51.003961
  0
SEQEND
  8
1
  6
CONTINUOUS
  0
POLYLINE
  8
1
  6
CONTINUOUS
 66
     1
  0
VERTEX
  8
1
  6
CONTINUOUS
 10
4.907649
 20
53.184587
  0
VERTEX
  8
1
  6
CONTINUOUS
 10
4.904364
 20
51.504938
  0
SEQEND
  8
1
  6
CONTINUOUS
  0
POLYLINE
  8
1
  6
CONTINUOUS
 66
     1
  0
VERTEX
  8
1
  6
CONTINUOUS
 10
5.404363
 20
51.503960
  0
VERTEX
  8
1
  6
CONTINUOUS
 10
5.406586
 20
52.640572
  0
SEQEND
  8
1
  6
CONTINUOUS
  0
POLYLINE
  8
1
  6
CONTINUOUS
 66
     1
  0
VERTEX
  8
1
  6
CONTINUOUS
 10
86.673414
 20
3.026706
  0
VERTEX
  8
1
  6
CONTINUOUS
 10
92.623280
 20
2.523002
  0
SEQEND
  8
1
  6
CONTINUOUS
  0
POLYLINE
  8
1
  6
CONTINUOUS
 66
     1
  0
VERTEX
  8
1
  6
CONTINUOUS
 10
92.665458
 20
3.021220
  0
VERTEX
  8
1
  6
CONTINUOUS
 10
86.715592
 20
3.524923
  0
SEQEND
  8
1
  6
CONTINUOUS
  0
POLYLINE
  8
1
  6
CONTINUOUS
 66
     1
  0
VERTEX
  8
1
  6
CONTINUOUS
 10
80.225330
 20
3.572587
  0
VERTEX
  8
1
  6
CONTINUOUS
 10
86.175196
 20
3.068884
  0
SEQEND
  8
1
  6
CONTINUOUS
  0
POLYLINE
  8
1
  6
CONTINUOUS
 66
     1
  0
VERTEX
  8
1
  6
CONTINUOUS
 10
86.217374
 20
3.567102
  0
VERTEX
  8
1
  6
CONTINUOUS
 10
80.267508
 20
4.070805
  0
SEQEND
  8
1
  6
CONTINUOUS
  0
POLYLINE
  8
1
  6
CONTINUOUS
 66
     1
  0
VERTEX
  8
1
  6
CONTINUOUS
 10
75.243151
 20
3.994368
  0
VERTEX
  8
1
  6
CONTINUOUS
 10
79.727112
 20
3.614765
  0
SEQEND
  8
1
  6
CONTINUOUS
  0
POLYLINE
  8
1
  6
CONTINUOUS
 66
     1
  0
VERTEX
  8
1
  6
CONTINUOUS
 10
79.769290
 20
4.112983
  0
VERTEX
  8
1
  6
CONTINUOUS
 10
75.285329
 20
4.492586
  0
SEQEND
  8
1
  6
CONTINUOUS
  0
POLYLINE
  8
1
  6
CONTINUOUS
 66
     1
  0
VERTEX
  8
1
  6
CONTINUOUS
 10
70.260973
 20
4.416150
  0
VERTEX
  8
1
  6
CONTINUOUS
 10
74.744934
 20
4.036547
  0
SEQEND
  8
1
  6
CONTINUOUS
  0
POLYLINE
  8
1
  6
CONTINUOUS
 66
     1
  0
VERTEX
  8
1
  6
CONTINUOUS
 10
74.787112
 20
4.534764
  0
VERTEX
  8
1
  6
CONTINUOUS
 10
70.303151
 20
4.914367
  0
SEQEND
  8
1
  6
CONTINUOUS
  0
POLYLINE
  8
1
  6
CONTINUOUS
 66
     1
  0
VERTEX
  8
1
  6
CONTINUOUS
 10
64.707000
 20
4.886338
  0
VERTEX
  8
1
  6
CONTINUOUS
 10
69.762755
 20
4.458328
  0
SEQEND
  8
1
  6
CONTINUOUS
  0
POLYLINE
  8
1
  6
CONTINUOUS
 66
     1
  0
VERTEX
  8
1
  6
CONTINUOUS
 10
69.804933
 20
4.956545
  0
VERTEX
  8
1
  6
CONTINUOUS
 10
64.749178
 20
5.384555
  0
SEQEND
  8
1
  6
CONTINUOUS
  0
POLYLINE
  8
1
  6
CONTINUOUS
 66
     1
  0
VERTEX
  8
1
  6
CONTINUOUS
 10
59.670996
 20
5.312676
  0
VERTEX
  8
1
  6
CONTINUOUS
 10
64.208782
 20
4.928516
  0
SEQEND
  8
1
  6
CONTINUOUS
  0
POLYLINE
  8
1
  6
CONTINUOUS
 66
     1
  0
VERTEX
  8
1
  6
CONTINUOUS
 10
64.250960
 20
5.426734
  0
VERTEX
  8
1
  6
CONTINUOUS
 10
59.713165
 20
5.810894
  0
SEQEND
  8
1
  6
CONTINUOUS
  0
POLYLINE
  8
1
  6
CONTINUOUS
 66
     1
  0
VERTEX
  8
1
  6
CONTINUOUS
 10
49.806185
 20
6.147801
  0
VERTEX
  8
1
  6
CONTINUOUS
 10
59.172778
 20
5.354851
  0
SEQEND
  8
1
  6
CONTINUOUS
  0
POLYLINE
  8
1
  6
ESTILO_TQS_0001
 66
     1
  0
VERTEX
  8
1
  6
ESTILO_TQS_0001
 10
59.214947
 20
5.853070
  0
VERTEX
  8
1
  6
ESTILO_TQS_0001
 10
49.848354
 20
6.646020
  0
SEQEND
  8
1
  6
ESTILO_TQS_0001
  0
POLYLINE
  8
1
  6
CONTINUOUS
 66
     1
  0
VERTEX
  8
1
  6
CONTINUOUS
 10
43.703048
 20
49.399358
  0
VERTEX
  8
1
  6
CONTINUOUS
 10
46.143885
 20
49.192778
  0
SEQEND
  8
1
  6
CONTINUOUS
  0
POLYLINE
  8
1
  6
CONTINUOUS
 66
     1
  0
VERTEX
  8
1
  6
CONTINUOUS
 10
46.185967
 20
49.691004
  0
VERTEX
  8
1
  6
CONTINUOUS
 10
43.745130
 20
49.897584
  0
SEQEND
  8
1
  6
CONTINUOUS
  0
POLYLINE
  8
1
  6
CONTINUOUS
 66
     1
  0
VERTEX
  8
1
  6
CONTINUOUS
 10
39.975731
 20
49.714819
  0
VERTEX
  8
1
  6
CONTINUOUS
 10
43.204829
 20
49.441525
  0
SEQEND
  8
1
  6
CONTINUOUS
  0
POLYLINE
  8
1
  6
CONTINUOUS
 66
     1
  0
VERTEX
  8
1
  6
CONTINUOUS
 10
43.246912
 20
49.939751
  0
VERTEX
  8
1
  6
CONTINUOUS
 10
40.017813
 20
50.213045
  0
SEQEND
  8
1
  6
CONTINUOUS
  0
POLYLINE
  8
1
  6
CONTINUOUS
 66
     1
  0
VERTEX
  8
1
  6
CONTINUOUS
 10
35.501952
 20
50.093456
  0
VERTEX
  8
1
  6
CONTINUOUS
 10
39.477512
 20
49.756985
  0
SEQEND
  8
1
  6
CONTINUOUS
  0
POLYLINE
  8
1
  6
CONTINUOUS
 66
     1
  0
VERTEX
  8
1
  6
CONTINUOUS
 10
39.519594
 20
50.255211
  0
VERTEX
  8
1
  6
CONTINUOUS
 10
35.544035
 20
50.591682
  0
SEQEND
  8
1
  6
CONTINUOUS
  0
POLYLINE
  8
1
  6
CONTINUOUS
 66
     1
  0
VERTEX
  8
1
  6
CONTINUOUS
 10
32.092357
 20
50.382027
  0
VERTEX
  8
1
  6
CONTINUOUS
 10
34.339442
 20
50.191845
  0
SEQEND
  8
1
  6
CONTINUOUS
  0
POLYLINE
  8
1
  6
CONTINUOUS
 66
     1
  0
VERTEX
  8
1
  6
CONTINUOUS
 10
34.381524
 20
50.690071
  0
VERTEX
  8
1
  6
CONTINUOUS
 10
32.134439
 20
50.880253
  0
SEQEND
  8
1
  6
CONTINUOUS
  0
POLYLINE
  8
1
  6
CONTINUOUS
 66
     1
  0
VERTEX
  8
1
  6
CONTINUOUS
 10
26.035795
 20
50.894623
  0
VERTEX
  8
1
  6
CONTINUOUS
 10
31.594138
 20
50.424193
  0
SEQEND
  8
1
  6
CONTINUOUS
  0
POLYLINE
  8
1
  6
CONTINUOUS
 66
     1
  0
VERTEX
  8
1
  6
CONTINUOUS
 10
31.636220
 20
50.922419
  0
VERTEX
  8
1
  6
CONTINUOUS
 10
26.077877
 20
51.392848
  0
SEQEND
  8
1
  6
CONTINUOUS
  0
POLYLINE
  8
1
  6
CONTINUOUS
 66
     1
  0
VERTEX
  8
1
  6
CONTINUOUS
 10
20.817766
 20
51.336249
  0
VERTEX
  8
1
  6
CONTINUOUS
 10
25.537576
 20
50.936789
  0
SEQEND
  8
1
  6
CONTINUOUS
  0
POLYLINE
  8
1
  6
CONTINUOUS
 66
     1
  0
VERTEX
  8
1
  6
CONTINUOUS
 10
25.579659
 20
51.435015
  0
VERTEX
  8
1
  6
CONTINUOUS
 10
20.859848
 20
51.834475
  0
SEQEND
  8
1
  6
CONTINUOUS
  0
POLYLINE
  8
1
  6
CONTINUOUS
 66
     1
  0
VERTEX
  8
1
  6
CONTINUOUS
 10
16.451100
 20
51.705821
  0
VERTEX
  8
1
  6
CONTINUOUS
 10
20.319547
 20
51.378416
  0
SEQEND
  8
1
  6
CONTINUOUS
  0
POLYLINE
  8
1
  6
CONTINUOUS
 66
     1
  0
VERTEX
  8
1
  6
CONTINUOUS
 10
20.361629
 20
51.876642
  0
VERTEX
  8
1
  6
CONTINUOUS
 10
16.493183
 20
52.204047
  0
SEQEND
  8
1
  6
CONTINUOUS
  0
POLYLINE
  8
1
  6
CONTINUOUS
 66
     1
  0
VERTEX
  8
1
  6
CONTINUOUS
 10
12.473343
 20
52.042478
  0
VERTEX
  8
1
  6
CONTINUOUS
 10
15.952881
 20
51.747988
  0
SEQEND
  8
1
  6
CONTINUOUS
  0
POLYLINE
  8
1
  6
CONTINUOUS
 66
     1
  0
VERTEX
  8
1
  6
CONTINUOUS
 10
15.994964
 20
52.246214
  0
VERTEX
  8
1
  6
CONTINUOUS
 10
12.515426
 20
52.540704
  0
SEQEND
  8
1
  6
CONTINUOUS
  0
POLYLINE
  8
1
  6
CONTINUOUS
 66
     1
  0
VERTEX
  8
1
  6
CONTINUOUS
 10
7.649235
 20
52.450766
  0
VERTEX
  8
1
  6
CONTINUOUS
 10
11.975124
 20
52.084645
  0
SEQEND
  8
1
  6
CONTINUOUS
  0
POLYLINE
  8
1
  6
CONTINUOUS
 66
     1
  0
VERTEX
  8
1
  6
CONTINUOUS
 10
12.017207
 20
52.582871
  0
VERTEX
  8
1
  6
CONTINUOUS
 10
7.691317
 20
52.948992
  0
SEQEND
  8
1
  6
CONTINUOUS
  0
POLYLINE
  8
1
  6
CONTINUOUS
 66
     1
  0
VERTEX
  8
1
  6
CONTINUOUS
 10
5.406586
 20
52.640572
  0
VERTEX
  8
1
  6
CONTINUOUS
 10
6.486724
 20
52.549154
  0
SEQEND
  8
1
  6
CONTINUOUS
  0
POLYLINE
  8
1
  6
CONTINUOUS
 66
     1
  0
VERTEX
  8
1
  6
CONTINUOUS
 10
6.528806
 20
53.047380
  0
VERTEX
  8
1
  6
CONTINUOUS
 10
4.907649
 20
53.184587
  0
SEQEND
  8
1
  6
CONTINUOUS
  0
POLYLINE
  8
1
  6
ESTILO_TQS_0001
 66
     1
  0
VERTEX
  8
1
  6
ESTILO_TQS_0001
 10
8.310792
 20
10.644221
  0
VERTEX
  8
1
  6
ESTILO_TQS_0001
 10
5.324931
 20
10.896998
  0
SEQEND
  8
1
  6
ESTILO_TQS_0001
  0
POLYLINE
  8
1
  6
CONTINUOUS
 66
     1
  0
VERTEX
  8
1
  6
CONTINUOUS
 10
5.324931
 20
10.896998
  0
VERTEX
  8
1
  6
CONTINUOUS
 10
5.324015
 20
10.428739
  0
SEQEND
  8
1
  6
CONTINUOUS
  0
LINE
  8
1
  6
CONTINUOUS
 10
93.232349
 20
6.740751
 11
93.232349
 21
6.740751
  0
POLYLINE
  8
1
  6
CONTINUOUS
 66
     1
  0
VERTEX
  8
1
  6
CONTINUOUS
 10
93.460421
 20
6.470597
  0
VERTEX
  8
1
  6
CONTINUOUS
 10
93.502503
 20
6.968823
  0
VERTEX
  8
1
  6
CONTINUOUS
 10
93.004277
 20
7.010906
  0
VERTEX
  8
1
  6
CONTINUOUS
 10
92.962195
 20
6.512680
  0
VERTEX
  8
1
  6
CONTINUOUS
 10
93.460421
 20
6.470597
  0
SEQEND
  8
1
  6
CONTINUOUS
  0
LINE
  8
1
  6
CONTINUOUS
 10
94.392369
 20
20.479531
 11
94.392369
 21
20.479531
  0
POLYLINE
  8
1
  6
CONTINUOUS
 66
     1
  0
VERTEX
  8
1
  6
CONTINUOUS
 10
94.620441
 20
20.209377
  0
VERTEX
  8
1
  6
CONTINUOUS
 10
94.662523
 20
20.707603
  0
VERTEX
  8
1
  6
CONTINUOUS
 10
94.164297
 20
20.749685
  0
VERTEX
  8
1
  6
CONTINUOUS
 10
94.122215
 20
20.251459
  0
VERTEX
  8
1
  6
CONTINUOUS
 10
94.620441
 20
20.209377
  0
SEQEND
  8
1
  6
CONTINUOUS
  0
LINE
  8
1
  6
CONTINUOUS
 10
94.981901
 20
27.454662
 11
94.981901
 21
27.454662
  0
POLYLINE
  8
1
  6
CONTINUOUS
 66
     1
  0
VERTEX
  8
1
  6
CONTINUOUS
 10
95.209972
 20
27.184508
  0
VERTEX
  8
1
  6
CONTINUOUS
 10
95.252055
 20
27.682734
  0
VERTEX
  8
1
  6
CONTINUOUS
 10
94.753829
 20
27.724816
  0
VERTEX
  8
1
  6
CONTINUOUS
 10
94.711746
 20
27.226590
  0
VERTEX
  8
1
  6
CONTINUOUS
 10
95.209972
 20
27.184508
  0
SEQEND
  8
1
  6
CONTINUOUS
  0
LINE
  8
1
  6
CONTINUOUS
 10
95.262143
 20
30.776192
 11
95.262143
 21
30.776192
  0
POLYLINE
  8
1
  6
CONTINUOUS
 66
     1
  0
VERTEX
  8
1
  6
CONTINUOUS
 10
95.490215
 20
30.506038
  0
VERTEX
  8
1
  6
CONTINUOUS
 10
95.532297
 20
31.004264
  0
VERTEX
  8
1
  6
CONTINUOUS
 10
95.034071
 20
31.046346
  0
VERTEX
  8
1
  6
CONTINUOUS
 10
94.991989
 20
30.548120
  0
VERTEX
  8
1
  6
CONTINUOUS
 10
95.490215
 20
30.506038
  0
SEQEND
  8
1
  6
CONTINUOUS
  0
LINE
  8
1
  6
CONTINUOUS
 10
95.851646
 20
37.751326
 11
95.851646
 21
37.751326
  0
POLYLINE
  8
1
  6
CONTINUOUS
 66
     1
  0
VERTEX
  8
1
  6
CONTINUOUS
 10
96.079718
 20
37.481171
  0
VERTEX
  8
1
  6
CONTINUOUS
 10
96.121800
 20
37.979397
  0
VERTEX
  8
1
  6
CONTINUOUS
 10
95.623574
 20
38.021480
  0
VERTEX
  8
1
  6
CONTINUOUS
 10
95.581492
 20
37.523254
  0
VERTEX
  8
1
  6
CONTINUOUS
 10
96.079718
 20
37.481171
  0
SEQEND
  8
1
  6
CONTINUOUS
  0
LINE
  8
1
  6
CONTINUOUS
 10
96.143227
 20
41.206090
 11
96.143227
 21
41.206090
  0
POLYLINE
  8
1
  6
CONTINUOUS
 66
     1
  0
VERTEX
  8
1
  6
CONTINUOUS
 10
96.371299
 20
40.935936
  0
VERTEX
  8
1
  6
CONTINUOUS
 10
96.413381
 20
41.434162
  0
VERTEX
  8
1
  6
CONTINUOUS
 10
95.915155
 20
41.476244
  0
VERTEX
  8
1
  6
CONTINUOUS
 10
95.873073
 20
40.978019
  0
VERTEX
  8
1
  6
CONTINUOUS
 10
96.371299
 20
40.935936
  0
SEQEND
  8
1
  6
CONTINUOUS
  0
LINE
  8
1
  6
CONTINUOUS
 10
92.078733
 20
45.556004
 11
92.078733
 21
45.556004
  0
POLYLINE
  8
1
  6
CONTINUOUS
 66
     1
  0
VERTEX
  8
1
  6
CONTINUOUS
 10
92.306805
 20
45.285850
  0
VERTEX
  8
1
  6
CONTINUOUS
 10
92.348887
 20
45.784076
  0
VERTEX
  8
1
  6
CONTINUOUS
 10
91.850661
 20
45.826158
  0
VERTEX
  8
1
  6
CONTINUOUS
 10
91.808579
 20
45.327932
  0
VERTEX
  8
1
  6
CONTINUOUS
 10
92.306805
 20
45.285850
  0
SEQEND
  8
1
  6
CONTINUOUS
  0
LINE
  8
1
  6
CONTINUOUS
 10
82.950083
 20
46.328604
 11
82.950083
 21
46.328604
  0
POLYLINE
  8
1
  6
CONTINUOUS
 66
     1
  0
VERTEX
  8
1
  6
CONTINUOUS
 10
83.178154
 20
46.058450
  0
VERTEX
  8
1
  6
CONTINUOUS
 10
83.220237
 20
46.556676
  0
VERTEX
  8
1
  6
CONTINUOUS
 10
82.722011
 20
46.598759
  0
VERTEX
  8
1
  6
CONTINUOUS
 10
82.679928
 20
46.100533
  0
VERTEX
  8
1
  6
CONTINUOUS
 10
83.178154
 20
46.058450
  0
SEQEND
  8
1
  6
CONTINUOUS
  0
LINE
  8
1
  6
CONTINUOUS
 10
70.544866
 20
47.378524
 11
70.544866
 21
47.378524
  0
POLYLINE
  8
1
  6
CONTINUOUS
 66
     1
  0
VERTEX
  8
1
  6
CONTINUOUS
 10
70.772938
 20
47.108370
  0
VERTEX
  8
1
  6
CONTINUOUS
 10
70.815020
 20
47.606596
  0
VERTEX
  8
1
  6
CONTINUOUS
 10
70.316794
 20
47.648679
  0
VERTEX
  8
1
  6
CONTINUOUS
 10
70.274712
 20
47.150453
  0
VERTEX
  8
1
  6
CONTINUOUS
 10
70.772938
 20
47.108370
  0
SEQEND
  8
1
  6
CONTINUOUS
  0
LINE
  8
1
  6
CONTINUOUS
 10
53.107212
 20
48.854353
 11
53.107212
 21
48.854353
  0
POLYLINE
  8
1
  6
CONTINUOUS
 66
     1
  0
VERTEX
  8
1
  6
CONTINUOUS
 10
53.335283
 20
48.584199
  0
VERTEX
  8
1
  6
CONTINUOUS
 10
53.377366
 20
49.082425
  0
VERTEX
  8
1
  6
CONTINUOUS
 10
52.879140
 20
49.124507
  0
VERTEX
  8
1
  6
CONTINUOUS
 10
52.837057
 20
48.626282
  0
VERTEX
  8
1
  6
CONTINUOUS
 10
53.335283
 20
48.584199
  0
SEQEND
  8
1
  6
CONTINUOUS
  0
LINE
  8
1
  6
CONTINUOUS
 10
46.414038
 20
49.420841
 11
46.414038
 21
49.420841
  0
POLYLINE
  8
1
  6
CONTINUOUS
 66
     1
  0
VERTEX
  8
1
  6
CONTINUOUS
 10
46.642110
 20
49.150687
  0
VERTEX
  8
1
  6
CONTINUOUS
 10
46.684193
 20
49.648913
  0
VERTEX
  8
1
  6
CONTINUOUS
 10
46.185967
 20
49.690995
  0
VERTEX
  8
1
  6
CONTINUOUS
 10
46.143884
 20
49.192769
  0
VERTEX
  8
1
  6
CONTINUOUS
 10
46.642110
 20
49.150687
  0
SEQEND
  8
1
  6
CONTINUOUS
  0
LINE
  8
1
  6
CONTINUOUS
 10
39.747666
 20
49.985050
 11
39.747666
 21
49.985050
  0
POLYLINE
  8
1
  6
CONTINUOUS
 66
     1
  0
VERTEX
  8
1
  6
CONTINUOUS
 10
39.975737
 20
49.714896
  0
VERTEX
  8
1
  6
CONTINUOUS
 10
40.017820
 20
50.213122
  0
VERTEX
  8
1
  6
CONTINUOUS
 10
39.519594
 20
50.255204
  0
VERTEX
  8
1
  6
CONTINUOUS
 10
39.477511
 20
49.756978
  0
VERTEX
  8
1
  6
CONTINUOUS
 10
39.975737
 20
49.714896
  0
SEQEND
  8
1
  6
CONTINUOUS
  0
LINE
  8
1
  6
CONTINUOUS
 10
31.864291
 20
50.652255
 11
31.864291
 21
50.652255
  0
POLYLINE
  8
1
  6
CONTINUOUS
 66
     1
  0
VERTEX
  8
1
  6
CONTINUOUS
 10
32.092363
 20
50.382101
  0
VERTEX
  8
1
  6
CONTINUOUS
 10
32.134446
 20
50.880327
  0
VERTEX
  8
1
  6
CONTINUOUS
 10
31.636220
 20
50.922409
  0
VERTEX
  8
1
  6
CONTINUOUS
 10
31.594137
 20
50.424184
  0
VERTEX
  8
1
  6
CONTINUOUS
 10
32.092363
 20
50.382101
  0
SEQEND
  8
1
  6
CONTINUOUS
  0
LINE
  8
1
  6
CONTINUOUS
 10
20.589701
 20
51.606482
 11
20.589701
 21
51.606482
  0
POLYLINE
  8
1
  6
CONTINUOUS
 66
     1
  0
VERTEX
  8
1
  6
CONTINUOUS
 10
20.817772
 20
51.336328
  0
VERTEX
  8
1
  6
CONTINUOUS
 10
20.859855
 20
51.834554
  0
VERTEX
  8
1
  6
CONTINUOUS
 10
20.361629
 20
51.876636
  0
VERTEX
  8
1
  6
CONTINUOUS
 10
20.319546
 20
51.378410
  0
VERTEX
  8
1
  6
CONTINUOUS
 10
20.817772
 20
51.336328
  0
SEQEND
  8
1
  6
CONTINUOUS
  0
LINE
  8
1
  6
CONTINUOUS
 10
12.245276
 20
52.312690
 11
12.245276
 21
52.312690
  0
POLYLINE
  8
1
  6
CONTINUOUS
 66
     1
  0
VERTEX
  8
1
  6
CONTINUOUS
 10
12.473348
 20
52.042536
  0
VERTEX
  8
1
  6
CONTINUOUS
 10
12.515430
 20
52.540762
  0
VERTEX
  8
1
  6
CONTINUOUS
 10
12.017204
 20
52.582844
  0
VERTEX
  8
1
  6
CONTINUOUS
 10
11.975122
 20
52.084618
  0
VERTEX
  8
1
  6
CONTINUOUS
 10
12.473348
 20
52.042536
  0
SEQEND
  8
1
  6
CONTINUOUS
  0
LINE
  8
1
  6
CONTINUOUS
 10
86.445426
 20
3.297289
 11
86.445426
 21
3.297289
  0
POLYLINE
  8
1
  6
CONTINUOUS
 66
     1
  0
VERTEX
  8
1
  6
CONTINUOUS
 10
86.715624
 20
3.525309
  0
VERTEX
  8
1
  6
CONTINUOUS
 10
86.217406
 20
3.567487
  0
VERTEX
  8
1
  6
CONTINUOUS
 10
86.175228
 20
3.069269
  0
VERTEX
  8
1
  6
CONTINUOUS
 10
86.673446
 20
3.027091
  0
VERTEX
  8
1
  6
CONTINUOUS
 10
86.715624
 20
3.525309
  0
SEQEND
  8
1
  6
CONTINUOUS
  0
LINE
  8
1
  6
CONTINUOUS
 10
75.015116
 20
4.264384
 11
75.015116
 21
4.264384
  0
POLYLINE
  8
1
  6
CONTINUOUS
 66
     1
  0
VERTEX
  8
1
  6
CONTINUOUS
 10
75.285314
 20
4.492404
  0
VERTEX
  8
1
  6
CONTINUOUS
 10
74.787096
 20
4.534582
  0
VERTEX
  8
1
  6
CONTINUOUS
 10
74.744918
 20
4.036364
  0
VERTEX
  8
1
  6
CONTINUOUS
 10
75.243136
 20
3.994186
  0
VERTEX
  8
1
  6
CONTINUOUS
 10
75.285314
 20
4.492404
  0
SEQEND
  8
1
  6
CONTINUOUS
  0
LINE
  8
1
  6
CONTINUOUS
 10
64.478956
 20
5.156255
 11
64.478956
 21
5.156255
  0
POLYLINE
  8
1
  6
CONTINUOUS
 66
     1
  0
VERTEX
  8
1
  6
CONTINUOUS
 10
64.749154
 20
5.384275
  0
VERTEX
  8
1
  6
CONTINUOUS
 10
64.250936
 20
5.426453
  0
VERTEX
  8
1
  6
CONTINUOUS
 10
64.208758
 20
4.928236
  0
VERTEX
  8
1
  6
CONTINUOUS
 10
64.706976
 20
4.886058
  0
VERTEX
  8
1
  6
CONTINUOUS
 10
64.749154
 20
5.384275
  0
SEQEND
  8
1
  6
CONTINUOUS
  0
LINE
  8
1
  6
CONTINUOUS
 10
44.459038
 20
6.851019
 11
44.459038
 21
6.851019
  0
POLYLINE
  8
1
  6
CONTINUOUS
 66
     1
  0
VERTEX
  8
1
  6
CONTINUOUS
 10
44.729232
 20
7.079044
  0
VERTEX
  8
1
  6
CONTINUOUS
 10
44.231014
 20
7.121213
  0
VERTEX
  8
1
  6
CONTINUOUS
 10
44.188844
 20
6.622994
  0
VERTEX
  8
1
  6
CONTINUOUS
 10
44.687063
 20
6.580825
  0
VERTEX
  8
1
  6
CONTINUOUS
 10
44.729232
 20
7.079044
  0
SEQEND
  8
1
  6
CONTINUOUS
  0
LINE
  8
1
  6
CONTINUOUS
 10
34.580977
 20
7.687073
 11
34.580977
 21
7.687073
  0
POLYLINE
  8
1
  6
CONTINUOUS
 66
     1
  0
VERTEX
  8
1
  6
CONTINUOUS
 10
34.851171
 20
7.915097
  0
VERTEX
  8
1
  6
CONTINUOUS
 10
34.352953
 20
7.957267
  0
VERTEX
  8
1
  6
CONTINUOUS
 10
34.310783
 20
7.459048
  0
VERTEX
  8
1
  6
CONTINUOUS
 10
34.809002
 20
7.416879
  0
VERTEX
  8
1
  6
CONTINUOUS
 10
34.851171
 20
7.915097
  0
SEQEND
  8
1
  6
CONTINUOUS
  0
LINE
  8
1
  6
CONTINUOUS
 10
25.031786
 20
8.495292
 11
25.031786
 21
8.495292
  0
POLYLINE
  8
1
  6
CONTINUOUS
 66
     1
  0
VERTEX
  8
1
  6
CONTINUOUS
 10
25.301980
 20
8.723316
  0
VERTEX
  8
1
  6
CONTINUOUS
 10
24.803761
 20
8.765486
  0
VERTEX
  8
1
  6
CONTINUOUS
 10
24.761592
 20
8.267267
  0
VERTEX
  8
1
  6
CONTINUOUS
 10
25.259810
 20
8.225098
  0
VERTEX
  8
1
  6
CONTINUOUS
 10
25.301980
 20
8.723316
  0
SEQEND
  8
1
  6
CONTINUOUS
  0
LINE
  8
1
  6
CONTINUOUS
 10
16.484166
 20
9.218740
 11
16.484166
 21
9.218740
  0
POLYLINE
  8
1
  6
CONTINUOUS
 66
     1
  0
VERTEX
  8
1
  6
CONTINUOUS
 10
16.754360
 20
9.446765
  0
VERTEX
  8
1
  6
CONTINUOUS
 10
16.256141
 20
9.488934
  0
VERTEX
  8
1
  6
CONTINUOUS
 10
16.213972
 20
8.990716
  0
VERTEX
  8
1
  6
CONTINUOUS
 10
16.712190
 20
8.948546
  0
VERTEX
  8
1
  6
CONTINUOUS
 10
16.754360
 20
9.446765
  0
SEQEND
  8
1
  6
CONTINUOUS
  0
LINE
  8
1
  6
CONTINUOUS
 10
5.086144
 20
16.629597
 11
5.086144
 21
16.629597
  0
POLYLINE
  8
1
  6
CONTINUOUS
 66
     1
  0
VERTEX
  8
1
  6
CONTINUOUS
 10
5.335655
 20
16.379109
  0
VERTEX
  8
1
  6
CONTINUOUS
 10
5.336632
 20
16.879108
  0
VERTEX
  8
1
  6
CONTINUOUS
 10
4.836633
 20
16.880086
  0
VERTEX
  8
1
  6
CONTINUOUS
 10
4.835656
 20
16.380087
  0
VERTEX
  8
1
  6
CONTINUOUS
 10
5.335655
 20
16.379109
  0
SEQEND
  8
1
  6
CONTINUOUS
  0
LINE
  8
1
  6
CONTINUOUS
 10
5.103634
 20
25.571178
 11
5.103634
 21
25.571178
  0
POLYLINE
  8
1
  6
CONTINUOUS
 66
     1
  0
VERTEX
  8
1
  6
CONTINUOUS
 10
5.353145
 20
25.320689
  0
VERTEX
  8
1
  6
CONTINUOUS
 10
5.354122
 20
25.820688
  0
VERTEX
  8
1
  6
CONTINUOUS
 10
4.854123
 20
25.821666
  0
VERTEX
  8
1
  6
CONTINUOUS
 10
4.853146
 20
25.321667
  0
VERTEX
  8
1
  6
CONTINUOUS
 10
5.353145
 20
25.320689
  0
SEQEND
  8
1
  6
CONTINUOUS
  0
LINE
  8
1
  6
CONTINUOUS
 10
5.121435
 20
34.671148
 11
5.121435
 21
34.671148
  0
POLYLINE
  8
1
  6
CONTINUOUS
 66
     1
  0
VERTEX
  8
1
  6
CONTINUOUS
 10
5.370946
 20
34.420660
  0
VERTEX
  8
1
  6
CONTINUOUS
 10
5.371923
 20
34.920659
  0
VERTEX
  8
1
  6
CONTINUOUS
 10
4.871924
 20
34.921636
  0
VERTEX
  8
1
  6
CONTINUOUS
 10
4.870947
 20
34.421637
  0
VERTEX
  8
1
  6
CONTINUOUS
 10
5.370946
 20
34.420660
  0
SEQEND
  8
1
  6
CONTINUOUS
  0
LINE
  8
1
  6
CONTINUOUS
 10
5.137736
 20
43.004465
 11
5.137736
 21
43.004465
  0
POLYLINE
  8
1
  6
CONTINUOUS
 66
     1
  0
VERTEX
  8
1
  6
CONTINUOUS
 10
5.387247
 20
42.753977
  0
VERTEX
  8
1
  6
CONTINUOUS
 10
5.388224
 20
43.253976
  0
VERTEX
  8
1
  6
CONTINUOUS
 10
4.888225
 20
43.254954
  0
VERTEX
  8
1
  6
CONTINUOUS
 10
4.887248
 20
42.754955
  0
VERTEX
  8
1
  6
CONTINUOUS
 10
5.387247
 20
42.753977
  0
SEQEND
  8
1
  6
CONTINUOUS
  0
LINE
  8
1
  6
CONTINUOUS
 10
5.145723
 20
47.087791
 11
5.145723
 21
47.087791
  0
POLYLINE
  8
1
  6
CONTINUOUS
 66
     1
  0
VERTEX
  8
1
  6
CONTINUOUS
 10
5.395234
 20
46.837303
  0
VERTEX
  8
1
  6
CONTINUOUS
 10
5.396211
 20
47.337302
  0
VERTEX
  8
1
  6
CONTINUOUS
 10
4.896212
 20
47.338279
  0
VERTEX
  8
1
  6
CONTINUOUS
 10
4.895235
 20
46.838280
  0
VERTEX
  8
1
  6
CONTINUOUS
 10
5.395234
 20
46.837303
  0
SEQEND
  8
1
  6
CONTINUOUS
  0
LINE
  8
1
  6
CONTINUOUS
 10
76.770721
 20
14.820593
 11
76.770721
 21
14.820593
  0
POLYLINE
  8
1
  6
CONTINUOUS
 66
     1
  0
VERTEX
  8
1
  6
CONTINUOUS
 10
77.150762
 20
14.370269
  0
VERTEX
  8
1
  6
CONTINUOUS
 10
77.221044
 20
15.200634
  0
VERTEX
  8
1
  6
CONTINUOUS
 10
76.390680
 20
15.270916
  0
VERTEX
  8
1
  6
CONTINUOUS
 10
76.320398
 20
14.440552
  0
VERTEX
  8
1
  6
CONTINUOUS
 10
77.150762
 20
14.370269
  0
SEQEND
  8
1
  6
CONTINUOUS
  0
LINE
  8
1
  6
CONTINUOUS
 10
77.686696
 20
25.641552
 11
77.686696
 21
25.641552
  0
POLYLINE
  8
1
  6
CONTINUOUS
 66
     1
  0
VERTEX
  8
1
  6
CONTINUOUS
 10
78.066737
 20
25.191229
  0
VERTEX
  8
1
  6
CONTINUOUS
 10
78.137019
 20
26.021593
  0
VERTEX
  8
1
  6
CONTINUOUS
 10
77.306655
 20
26.091875
  0
VERTEX
  8
1
  6
CONTINUOUS
 10
77.236373
 20
25.261511
  0
VERTEX
  8
1
  6
CONTINUOUS
 10
78.066737
 20
25.191229
  0
SEQEND
  8
1
  6
CONTINUOUS
  0
LINE
  8
1
  6
CONTINUOUS
 10
78.563124
 20
35.995302
 11
78.563124
 21
35.995302
  0
POLYLINE
  8
1
  6
CONTINUOUS
 66
     1
  0
VERTEX
  8
1
  6
CONTINUOUS
 10
78.943165
 20
35.544979
  0
VERTEX
  8
1
  6
CONTINUOUS
 10
79.013447
 20
36.375343
  0
VERTEX
  8
1
  6
CONTINUOUS
 10
78.183083
 20
36.445626
  0
VERTEX
  8
1
  6
CONTINUOUS
 10
78.112801
 20
35.615261
  0
VERTEX
  8
1
  6
CONTINUOUS
 10
78.943165
 20
35.544979
  0
SEQEND
  8
1
  6
CONTINUOUS
  0
LINE
  8
1
  6
CONTINUOUS
 10
60.163446
 20
16.226365
 11
60.163446
 21
16.226365
  0
POLYLINE
  8
1
  6
CONTINUOUS
 66
     1
  0
VERTEX
  8
1
  6
CONTINUOUS
 10
60.543487
 20
15.776042
  0
VERTEX
  8
1
  6
CONTINUOUS
 10
60.613769
 20
16.606406
  0
VERTEX
  8
1
  6
CONTINUOUS
 10
59.783405
 20
16.676689
  0
VERTEX
  8
1
  6
CONTINUOUS
 10
59.713123
 20
15.846324
  0
VERTEX
  8
1
  6
CONTINUOUS
 10
60.543487
 20
15.776042
  0
SEQEND
  8
1
  6
CONTINUOUS
  0
LINE
  8
1
  6
CONTINUOUS
 10
61.252522
 20
27.116305
 11
61.252522
 21
27.116305
  0
POLYLINE
  8
1
  6
CONTINUOUS
 66
     1
  0
VERTEX
  8
1
  6
CONTINUOUS
 10
61.632563
 20
26.665981
  0
VERTEX
  8
1
  6
CONTINUOUS
 10
61.702845
 20
27.496346
  0
VERTEX
  8
1
  6
CONTINUOUS
 10
60.872481
 20
27.566628
  0
VERTEX
  8
1
  6
CONTINUOUS
 10
60.802199
 20
26.736264
  0
VERTEX
  8
1
  6
CONTINUOUS
 10
61.632563
 20
26.665981
  0
SEQEND
  8
1
  6
CONTINUOUS
  0
LINE
  8
1
  6
CONTINUOUS
 10
62.121922
 20
37.387019
 11
62.121922
 21
37.387019
  0
POLYLINE
  8
1
  6
CONTINUOUS
 66
     1
  0
VERTEX
  8
1
  6
CONTINUOUS
 10
62.501963
 20
36.936695
  0
VERTEX
  8
1
  6
CONTINUOUS
 10
62.572245
 20
37.767060
  0
VERTEX
  8
1
  6
CONTINUOUS
 10
61.741881
 20
37.837342
  0
VERTEX
  8
1
  6
CONTINUOUS
 10
61.671599
 20
37.006978
  0
VERTEX
  8
1
  6
CONTINUOUS
 10
62.501963
 20
36.936695
  0
SEQEND
  8
1
  6
CONTINUOUS
  0
LINE
  8
1
  6
CONTINUOUS
 10
43.680074
 20
17.119863
 11
43.680074
 21
17.119863
  0
POLYLINE
  8
1
  6
CONTINUOUS
 66
     1
  0
VERTEX
  8
1
  6
CONTINUOUS
 10
43.879986
 20
16.517523
  0
VERTEX
  8
1
  6
CONTINUOUS
 10
43.978381
 20
17.680033
  0
VERTEX
  8
1
  6
CONTINUOUS
 10
43.480163
 20
17.722203
  0
VERTEX
  8
1
  6
CONTINUOUS
 10
43.381768
 20
16.559693
  0
VERTEX
  8
1
  6
CONTINUOUS
 10
43.879986
 20
16.517523
  0
SEQEND
  8
1
  6
CONTINUOUS
  0
LINE
  8
1
  6
CONTINUOUS
 10
44.680388
 20
28.937260
 11
44.680388
 21
28.937260
  0
POLYLINE
  8
1
  6
CONTINUOUS
 66
     1
  0
VERTEX
  8
1
  6
CONTINUOUS
 10
44.880300
 20
28.334920
  0
VERTEX
  8
1
  6
CONTINUOUS
 10
44.978695
 20
29.497430
  0
VERTEX
  8
1
  6
CONTINUOUS
 10
44.480477
 20
29.539599
  0
VERTEX
  8
1
  6
CONTINUOUS
 10
44.382082
 20
28.377089
  0
VERTEX
  8
1
  6
CONTINUOUS
 10
44.880300
 20
28.334920
  0
SEQEND
  8
1
  6
CONTINUOUS
  0
LINE
  8
1
  6
CONTINUOUS
 10
45.556817
 20
39.291010
 11
45.556817
 21
39.291010
  0
POLYLINE
  8
1
  6
CONTINUOUS
 66
     1
  0
VERTEX
  8
1
  6
CONTINUOUS
 10
45.756728
 20
38.688670
  0
VERTEX
  8
1
  6
CONTINUOUS
 10
45.855123
 20
39.851180
  0
VERTEX
  8
1
  6
CONTINUOUS
 10
45.356905
 20
39.893349
  0
VERTEX
  8
1
  6
CONTINUOUS
 10
45.258510
 20
38.730839
  0
VERTEX
  8
1
  6
CONTINUOUS
 10
45.756728
 20
38.688670
  0
SEQEND
  8
1
  6
CONTINUOUS
  0
LINE
  8
1
  6
CONTINUOUS
 10
14.703010
 20
19.572689
 11
14.703010
 21
19.572689
  0
POLYLINE
  8
1
  6
CONTINUOUS
 66
     1
  0
VERTEX
  8
1
  6
CONTINUOUS
 10
14.902922
 20
18.970350
  0
VERTEX
  8
1
  6
CONTINUOUS
 10
15.001317
 20
20.132860
  0
VERTEX
  8
1
  6
CONTINUOUS
 10
14.503098
 20
20.175029
  0
VERTEX
  8
1
  6
CONTINUOUS
 10
14.404703
 20
19.012519
  0
VERTEX
  8
1
  6
CONTINUOUS
 10
14.902922
 20
18.970350
  0
SEQEND
  8
1
  6
CONTINUOUS
  0
LINE
  8
1
  6
CONTINUOUS
 10
15.703324
 20
31.390086
 11
15.703324
 21
31.390086
  0
POLYLINE
  8
1
  6
CONTINUOUS
 66
     1
  0
VERTEX
  8
1
  6
CONTINUOUS
 10
15.903236
 20
30.787746
  0
VERTEX
  8
1
  6
CONTINUOUS
 10
16.001631
 20
31.950256
  0
VERTEX
  8
1
  6
CONTINUOUS
 10
15.503412
 20
31.992426
  0
VERTEX
  8
1
  6
CONTINUOUS
 10
15.405017
 20
30.829916
  0
VERTEX
  8
1
  6
CONTINUOUS
 10
15.903236
 20
30.787746
  0
SEQEND
  8
1
  6
CONTINUOUS
  0
LINE
  8
1
  6
CONTINUOUS
 10
93.734806
 20
13.678113
 11
93.734806
 21
13.678113
  0
POLYLINE
  8
1
  6
CONTINUOUS
 66
     1
  0
VERTEX
  8
1
  6
CONTINUOUS
 10
94.038839
 20
13.317855
  0
VERTEX
  8
1
  6
CONTINUOUS
 10
94.095065
 20
13.982146
  0
VERTEX
  8
1
  6
CONTINUOUS
 10
93.430773
 20
14.038372
  0
VERTEX
  8
1
  6
CONTINUOUS
 10
93.374547
 20
13.374081
  0
VERTEX
  8
1
  6
CONTINUOUS
 10
94.038839
 20
13.317855
  0
SEQEND
  8
1
  6
CONTINUOUS
  0
LINE
  8
1
  6
CONTINUOUS
 10
94.606242
 20
23.973900
 11
94.606242
 21
23.973900
  0
POLYLINE
  8
1
  6
CONTINUOUS
 66
     1
  0
VERTEX
  8
1
  6
CONTINUOUS
 10
94.910275
 20
23.613641
  0
VERTEX
  8
1
  6
CONTINUOUS
 10
94.966500
 20
24.277933
  0
VERTEX
  8
1
  6
CONTINUOUS
 10
94.302209
 20
24.334159
  0
VERTEX
  8
1
  6
CONTINUOUS
 10
94.245983
 20
23.669867
  0
VERTEX
  8
1
  6
CONTINUOUS
 10
94.910275
 20
23.613641
  0
SEQEND
  8
1
  6
CONTINUOUS
  0
LINE
  8
1
  6
CONTINUOUS
 10
95.477739
 20
34.270415
 11
95.477739
 21
34.270415
  0
POLYLINE
  8
1
  6
CONTINUOUS
 66
     1
  0
VERTEX
  8
1
  6
CONTINUOUS
 10
95.781772
 20
33.910157
  0
VERTEX
  8
1
  6
CONTINUOUS
 10
95.837998
 20
34.574448
  0
VERTEX
  8
1
  6
CONTINUOUS
 10
95.173707
 20
34.630674
  0
VERTEX
  8
1
  6
CONTINUOUS
 10
95.117481
 20
33.966383
  0
VERTEX
  8
1
  6
CONTINUOUS
 10
95.781772
 20
33.910157
  0
SEQEND
  8
1
  6
CONTINUOUS
  0
LINE
  8
1
  6
CONTINUOUS
 10
12.747851
 20
9.785865
 11
12.747851
 21
9.785865
  0
POLYLINE
  8
1
  6
CONTINUOUS
 66
     1
  0
VERTEX
  8
1
  6
CONTINUOUS
 10
13.039129
 20
10.262999
  0
VERTEX
  8
1
  6
CONTINUOUS
 10
12.540911
 20
10.305168
  0
VERTEX
  8
1
  6
CONTINUOUS
 10
12.456572
 20
9.308731
  0
VERTEX
  8
1
  6
CONTINUOUS
 10
12.954791
 20
9.266562
  0
VERTEX
  8
1
  6
CONTINUOUS
 10
13.039129
 20
10.262999
  0
SEQEND
  8
1
  6
CONTINUOUS
  0
LINE
  8
1
  6
CONTINUOUS
 10
96.153155
 20
45.211066
 11
96.153155
 21
45.211066
  0
POLYLINE
  8
1
  6
CONTINUOUS
 66
     1
  0
VERTEX
  8
1
  6
CONTINUOUS
 10
96.713378
 20
44.912857
  0
VERTEX
  8
1
  6
CONTINUOUS
 10
96.755460
 20
45.411082
  0
VERTEX
  8
1
  6
CONTINUOUS
 10
95.592933
 20
45.509275
  0
VERTEX
  8
1
  6
CONTINUOUS
 10
95.550851
 20
45.011049
  0
VERTEX
  8
1
  6
CONTINUOUS
 10
96.713378
 20
44.912857
  0
SEQEND
  8
1
  6
CONTINUOUS
  0
LINE
  8
1
  6
CONTINUOUS
 10
86.653943
 20
46.015126
 11
86.653943
 21
46.015126
  0
POLYLINE
  8
1
  6
CONTINUOUS
 66
     1
  0
VERTEX
  8
1
  6
CONTINUOUS
 10
86.882015
 20
45.744972
  0
VERTEX
  8
1
  6
CONTINUOUS
 10
86.924097
 20
46.243198
  0
VERTEX
  8
1
  6
CONTINUOUS
 10
86.425871
 20
46.285280
  0
VERTEX
  8
1
  6
CONTINUOUS
 10
86.383789
 20
45.787054
  0
VERTEX
  8
1
  6
CONTINUOUS
 10
86.882015
 20
45.744972
  0
SEQEND
  8
1
  6
CONTINUOUS
  0
LINE
  8
1
  6
CONTINUOUS
 10
75.859203
 20
46.928741
 11
75.859203
 21
46.928741
  0
POLYLINE
  8
1
  6
CONTINUOUS
 66
     1
  0
VERTEX
  8
1
  6
CONTINUOUS
 10
76.087275
 20
46.658587
  0
VERTEX
  8
1
  6
CONTINUOUS
 10
76.129357
 20
47.156813
  0
VERTEX
  8
1
  6
CONTINUOUS
 10
75.631131
 20
47.198895
  0
VERTEX
  8
1
  6
CONTINUOUS
 10
75.589049
 20
46.700669
  0
VERTEX
  8
1
  6
CONTINUOUS
 10
76.087275
 20
46.658587
  0
SEQEND
  8
1
  6
CONTINUOUS
  0
LINE
  8
1
  6
CONTINUOUS
 10
66.725192
 20
47.701800
 11
66.725192
 21
47.701800
  0
POLYLINE
  8
1
  6
CONTINUOUS
 66
     1
  0
VERTEX
  8
1
  6
CONTINUOUS
 10
66.953264
 20
47.431646
  0
VERTEX
  8
1
  6
CONTINUOUS
 10
66.995346
 20
47.929872
  0
VERTEX
  8
1
  6
CONTINUOUS
 10
66.497120
 20
47.971954
  0
VERTEX
  8
1
  6
CONTINUOUS
 10
66.455038
 20
47.473728
  0
VERTEX
  8
1
  6
CONTINUOUS
 10
66.953264
 20
47.431646
  0
SEQEND
  8
1
  6
CONTINUOUS
  0
LINE
  8
1
  6
CONTINUOUS
 10
50.117900
 20
49.107367
 11
50.117900
 21
49.107367
  0
POLYLINE
  8
1
  6
CONTINUOUS
 66
     1
  0
VERTEX
  8
1
  6
CONTINUOUS
 10
50.345972
 20
48.837213
  0
VERTEX
  8
1
  6
CONTINUOUS
 10
50.388054
 20
49.335439
  0
VERTEX
  8
1
  6
CONTINUOUS
 10
49.889828
 20
49.377521
  0
VERTEX
  8
1
  6
CONTINUOUS
 10
49.847746
 20
48.879295
  0
VERTEX
  8
1
  6
CONTINUOUS
 10
50.345972
 20
48.837213
  0
SEQEND
  8
1
  6
CONTINUOUS
  0
LINE
  8
1
  6
CONTINUOUS
 10
43.474982
 20
49.669586
 11
43.474982
 21
49.669586
  0
POLYLINE
  8
1
  6
CONTINUOUS
 66
     1
  0
VERTEX
  8
1
  6
CONTINUOUS
 10
43.703054
 20
49.399432
  0
VERTEX
  8
1
  6
CONTINUOUS
 10
43.745137
 20
49.897658
  0
VERTEX
  8
1
  6
CONTINUOUS
 10
43.246911
 20
49.939740
  0
VERTEX
  8
1
  6
CONTINUOUS
 10
43.204828
 20
49.441514
  0
VERTEX
  8
1
  6
CONTINUOUS
 10
43.703054
 20
49.399432
  0
SEQEND
  8
1
  6
CONTINUOUS
  0
LINE
  8
1
  6
CONTINUOUS
 10
25.807731
 20
51.164871
 11
25.807731
 21
51.164871
  0
POLYLINE
  8
1
  6
CONTINUOUS
 66
     1
  0
VERTEX
  8
1
  6
CONTINUOUS
 10
26.035803
 20
50.894717
  0
VERTEX
  8
1
  6
CONTINUOUS
 10
26.077885
 20
51.392943
  0
VERTEX
  8
1
  6
CONTINUOUS
 10
25.579660
 20
51.435026
  0
VERTEX
  8
1
  6
CONTINUOUS
 10
25.537577
 20
50.936800
  0
VERTEX
  8
1
  6
CONTINUOUS
 10
26.035803
 20
50.894717
  0
SEQEND
  8
1
  6
CONTINUOUS
  0
LINE
  8
1
  6
CONTINUOUS
 10
16.223036
 20
51.976071
 11
16.223036
 21
51.976071
  0
POLYLINE
  8
1
  6
CONTINUOUS
 66
     1
  0
VERTEX
  8
1
  6
CONTINUOUS
 10
16.451108
 20
51.705917
  0
VERTEX
  8
1
  6
CONTINUOUS
 10
16.493191
 20
52.204143
  0
VERTEX
  8
1
  6
CONTINUOUS
 10
15.994965
 20
52.246225
  0
VERTEX
  8
1
  6
CONTINUOUS
 10
15.952882
 20
51.747999
  0
VERTEX
  8
1
  6
CONTINUOUS
 10
16.451108
 20
51.705917
  0
SEQEND
  8
1
  6
CONTINUOUS
  0
LINE
  8
1
  6
CONTINUOUS
 10
7.089029
 20
52.749173
 11
7.089029
 21
52.749173
  0
POLYLINE
  8
1
  6
CONTINUOUS
 66
     1
  0
VERTEX
  8
1
  6
CONTINUOUS
 10
7.649251
 20
52.450964
  0
VERTEX
  8
1
  6
CONTINUOUS
 10
7.691334
 20
52.949190
  0
VERTEX
  8
1
  6
CONTINUOUS
 10
6.528807
 20
53.047382
  0
VERTEX
  8
1
  6
CONTINUOUS
 10
6.486724
 20
52.549156
  0
VERTEX
  8
1
  6
CONTINUOUS
 10
7.649251
 20
52.450964
  0
SEQEND
  8
1
  6
CONTINUOUS
  0
LINE
  8
1
  6
CONTINUOUS
 10
5.343984
 20
20.637353
 11
5.343984
 21
20.637353
  0
POLYLINE
  8
1
  6
CONTINUOUS
 66
     1
  0
VERTEX
  8
1
  6
CONTINUOUS
 10
5.843494
 20
20.386376
  0
VERTEX
  8
1
  6
CONTINUOUS
 10
5.844472
 20
20.886375
  0
VERTEX
  8
1
  6
CONTINUOUS
 10
4.844474
 20
20.888330
  0
VERTEX
  8
1
  6
CONTINUOUS
 10
4.843496
 20
20.388331
  0
VERTEX
  8
1
  6
CONTINUOUS
 10
5.843494
 20
20.386376
  0
SEQEND
  8
1
  6
CONTINUOUS
  0
LINE
  8
1
  6
CONTINUOUS
 10
5.363284
 20
30.504001
 11
5.363284
 21
30.504001
  0
POLYLINE
  8
1
  6
CONTINUOUS
 66
     1
  0
VERTEX
  8
1
  6
CONTINUOUS
 10
5.862794
 20
30.253024
  0
VERTEX
  8
1
  6
CONTINUOUS
 10
5.863772
 20
30.753023
  0
VERTEX
  8
1
  6
CONTINUOUS
 10
4.863774
 20
30.754978
  0
VERTEX
  8
1
  6
CONTINUOUS
 10
4.862796
 20
30.254978
  0
VERTEX
  8
1
  6
CONTINUOUS
 10
5.862794
 20
30.253024
  0
SEQEND
  8
1
  6
CONTINUOUS
  0
LINE
  8
1
  6
CONTINUOUS
 10
5.129585
 20
38.837807
 11
5.129585
 21
38.837807
  0
POLYLINE
  8
1
  6
CONTINUOUS
 66
     1
  0
VERTEX
  8
1
  6
CONTINUOUS
 10
5.379096
 20
38.587319
  0
VERTEX
  8
1
  6
CONTINUOUS
 10
5.380074
 20
39.087318
  0
VERTEX
  8
1
  6
CONTINUOUS
 10
4.880075
 20
39.088295
  0
VERTEX
  8
1
  6
CONTINUOUS
 10
4.879097
 20
38.588296
  0
VERTEX
  8
1
  6
CONTINUOUS
 10
5.379096
 20
38.587319
  0
SEQEND
  8
1
  6
CONTINUOUS
  0
LINE
  8
1
  6
CONTINUOUS
 10
5.153874
 20
51.254450
 11
5.153874
 21
51.254450
  0
POLYLINE
  8
1
  6
CONTINUOUS
 66
     1
  0
VERTEX
  8
1
  6
CONTINUOUS
 10
5.403385
 20
51.003961
  0
VERTEX
  8
1
  6
CONTINUOUS
 10
5.404362
 20
51.503960
  0
VERTEX
  8
1
  6
CONTINUOUS
 10
4.904363
 20
51.504938
  0
VERTEX
  8
1
  6
CONTINUOUS
 10
4.903385
 20
51.004939
  0
VERTEX
  8
1
  6
CONTINUOUS
 10
5.403385
 20
51.003961
  0
SEQEND
  8
1
  6
CONTINUOUS
  0
LINE
  8
1
  6
CONTINUOUS
 10
58.464298
 20
48.401026
 11
58.464298
 21
48.401026
  0
POLYLINE
  8
1
  6
CONTINUOUS
 66
     1
  0
VERTEX
  8
1
  6
CONTINUOUS
 10
59.024520
 20
48.102817
  0
VERTEX
  8
1
  6
CONTINUOUS
 10
59.066603
 20
48.601043
  0
VERTEX
  8
1
  6
CONTINUOUS
 10
57.904075
 20
48.699236
  0
VERTEX
  8
1
  6
CONTINUOUS
 10
57.861993
 20
48.201010
  0
VERTEX
  8
1
  6
CONTINUOUS
 10
59.024520
 20
48.102817
  0
SEQEND
  8
1
  6
CONTINUOUS
  0
LINE
  8
1
  6
CONTINUOUS
 10
20.262650
 20
9.149832
 11
20.262650
 21
9.149832
  0
POLYLINE
  8
1
  6
CONTINUOUS
 66
     1
  0
VERTEX
  8
1
  6
CONTINUOUS
 10
20.553928
 20
9.626966
  0
VERTEX
  8
1
  6
CONTINUOUS
 10
20.055710
 20
9.669135
  0
VERTEX
  8
1
  6
CONTINUOUS
 10
19.971371
 20
8.672698
  0
VERTEX
  8
1
  6
CONTINUOUS
 10
20.469590
 20
8.630529
  0
VERTEX
  8
1
  6
CONTINUOUS
 10
20.553928
 20
9.626966
  0
SEQEND
  8
1
  6
CONTINUOUS
  0
LINE
  8
1
  6
CONTINUOUS
 10
70.032934
 20
4.686117
 11
70.032934
 21
4.686117
  0
POLYLINE
  8
1
  6
CONTINUOUS
 66
     1
  0
VERTEX
  8
1
  6
CONTINUOUS
 10
70.303132
 20
4.914137
  0
VERTEX
  8
1
  6
CONTINUOUS
 10
69.804914
 20
4.956315
  0
VERTEX
  8
1
  6
CONTINUOUS
 10
69.762736
 20
4.458097
  0
VERTEX
  8
1
  6
CONTINUOUS
 10
70.260954
 20
4.415919
  0
VERTEX
  8
1
  6
CONTINUOUS
 10
70.303132
 20
4.914137
  0
SEQEND
  8
1
  6
CONTINUOUS
  0
LINE
  8
1
  6
CONTINUOUS
 10
79.997310
 20
3.842784
 11
79.997310
 21
3.842784
  0
POLYLINE
  8
1
  6
CONTINUOUS
 66
     1
  0
VERTEX
  8
1
  6
CONTINUOUS
 10
80.267508
 20
4.070804
  0
VERTEX
  8
1
  6
CONTINUOUS
 10
79.769290
 20
4.112982
  0
VERTEX
  8
1
  6
CONTINUOUS
 10
79.727112
 20
3.614764
  0
VERTEX
  8
1
  6
CONTINUOUS
 10
80.225329
 20
3.572586
  0
VERTEX
  8
1
  6
CONTINUOUS
 10
80.267508
 20
4.070804
  0
SEQEND
  8
1
  6
CONTINUOUS
  0
LINE
  8
1
  6
CONTINUOUS
 10
92.893478
 20
2.751022
 11
92.893478
 21
2.751022
  0
POLYLINE
  8
1
  6
CONTINUOUS
 66
     1
  0
VERTEX
  8
1
  6
CONTINUOUS
 10
93.163676
 20
2.979042
  0
VERTEX
  8
1
  6
CONTINUOUS
 10
92.665458
 20
3.021220
  0
VERTEX
  8
1
  6
CONTINUOUS
 10
92.623280
 20
2.523002
  0
VERTEX
  8
1
  6
CONTINUOUS
 10
93.121498
 20
2.480824
  0
VERTEX
  8
1
  6
CONTINUOUS
 10
93.163676
 20
2.979042
  0
SEQEND
  8
1
  6
CONTINUOUS
  0
LINE
  8
1
  6
CONTINUOUS
 10
93.523330
 20
10.183498
 11
93.523330
 21
10.183498
  0
POLYLINE
  8
1
  6
CONTINUOUS
 66
     1
  0
VERTEX
  8
1
  6
CONTINUOUS
 10
93.751402
 20
9.913344
  0
VERTEX
  8
1
  6
CONTINUOUS
 10
93.793484
 20
10.411570
  0
VERTEX
  8
1
  6
CONTINUOUS
 10
93.295258
 20
10.453652
  0
VERTEX
  8
1
  6
CONTINUOUS
 10
93.253176
 20
9.955427
  0
VERTEX
  8
1
  6
CONTINUOUS
 10
93.751402
 20
9.913344
  0
SEQEND
  8
1
  6
CONTINUOUS
  0
LINE
  8
1
  6
CONTINUOUS
 10
94.112049
 20
17.158742
 11
94.112049
 21
17.158742
  0
POLYLINE
  8
1
  6
CONTINUOUS
 66
     1
  0
VERTEX
  8
1
  6
CONTINUOUS
 10
94.340120
 20
16.888588
  0
VERTEX
  8
1
  6
CONTINUOUS
 10
94.382203
 20
17.386814
  0
VERTEX
  8
1
  6
CONTINUOUS
 10
93.883977
 20
17.428896
  0
VERTEX
  8
1
  6
CONTINUOUS
 10
93.841894
 20
16.930670
  0
VERTEX
  8
1
  6
CONTINUOUS
 10
94.340120
 20
16.888588
  0
SEQEND
  8
1
  6
CONTINUOUS
  0
LINE
  8
1
  6
CONTINUOUS
 10
34.941735
 20
50.391726
 11
34.941735
 21
50.391726
  0
POLYLINE
  8
1
  6
CONTINUOUS
 66
     1
  0
VERTEX
  8
1
  6
CONTINUOUS
 10
35.501957
 20
50.093517
  0
VERTEX
  8
1
  6
CONTINUOUS
 10
35.544040
 20
50.591742
  0
VERTEX
  8
1
  6
CONTINUOUS
 10
34.381513
 20
50.689935
  0
VERTEX
  8
1
  6
CONTINUOUS
 10
34.339430
 20
50.191709
  0
VERTEX
  8
1
  6
CONTINUOUS
 10
35.501957
 20
50.093517
  0
SEQEND
  8
1
  6
CONTINUOUS
  0
LINE
  8
1
  6
CONTINUOUS
 10
49.433151
 20
6.680918
 11
49.433151
 21
6.680918
  0
POLYLINE
  8
1
  6
CONTINUOUS
 66
     1
  0
VERTEX
  8
1
  6
CONTINUOUS
 10
49.890503
 20
7.143995
  0
VERTEX
  8
1
  6
CONTINUOUS
 10
49.060139
 20
7.214277
  0
VERTEX
  8
1
  6
CONTINUOUS
 10
48.975800
 20
6.217840
  0
VERTEX
  8
1
  6
CONTINUOUS
 10
49.806164
 20
6.147558
  0
VERTEX
  8
1
  6
CONTINUOUS
 10
49.890503
 20
7.143995
  0
SEQEND
  8
1
  6
CONTINUOUS
  0
LINE
  8
1
  6
CONTINUOUS
 10
30.297120
 20
18.142062
 11
30.297120
 21
18.142062
  0
POLYLINE
  8
1
  6
CONTINUOUS
 66
     1
  0
VERTEX
  8
1
  6
CONTINUOUS
 10
30.497031
 20
17.539722
  0
VERTEX
  8
1
  6
CONTINUOUS
 10
30.595426
 20
18.702232
  0
VERTEX
  8
1
  6
CONTINUOUS
 10
30.097208
 20
18.744401
  0
VERTEX
  8
1
  6
CONTINUOUS
 10
29.998813
 20
17.581891
  0
VERTEX
  8
1
  6
CONTINUOUS
 10
30.497031
 20
17.539722
  0
SEQEND
  8
1
  6
CONTINUOUS
  0
LINE
  8
1
  6
CONTINUOUS
 10
31.297283
 20
29.959471
 11
31.297283
 21
29.959471
  0
POLYLINE
  8
1
  6
CONTINUOUS
 66
     1
  0
VERTEX
  8
1
  6
CONTINUOUS
 10
31.497194
 20
29.357131
  0
VERTEX
  8
1
  6
CONTINUOUS
 10
31.595589
 20
30.519641
  0
VERTEX
  8
1
  6
CONTINUOUS
 10
31.097371
 20
30.561811
  0
VERTEX
  8
1
  6
CONTINUOUS
 10
30.998976
 20
29.399301
  0
VERTEX
  8
1
  6
CONTINUOUS
 10
31.497194
 20
29.357131
  0
SEQEND
  8
1
  6
CONTINUOUS
  0
LINE
  8
1
  6
CONTINUOUS
 10
31.929898
 20
37.434207
 11
31.929898
 21
37.434207
  0
POLYLINE
  8
1
  6
CONTINUOUS
 66
     1
  0
VERTEX
  8
1
  6
CONTINUOUS
 10
32.129809
 20
36.831868
  0
VERTEX
  8
1
  6
CONTINUOUS
 10
32.228205
 20
37.994378
  0
VERTEX
  8
1
  6
CONTINUOUS
 10
31.729986
 20
38.036547
  0
VERTEX
  8
1
  6
CONTINUOUS
 10
31.631591
 20
36.874037
  0
VERTEX
  8
1
  6
CONTINUOUS
 10
32.129809
 20
36.831868
  0
SEQEND
  8
1
  6
CONTINUOUS
  0
LINE
  8
1
  6
CONTINUOUS
 10
16.537585
 20
41.245640
 11
16.537585
 21
41.245640
  0
POLYLINE
  8
1
  6
CONTINUOUS
 66
     1
  0
VERTEX
  8
1
  6
CONTINUOUS
 10
16.737497
 20
40.643301
  0
VERTEX
  8
1
  6
CONTINUOUS
 10
16.835892
 20
41.805811
  0
VERTEX
  8
1
  6
CONTINUOUS
 10
16.337674
 20
41.847980
  0
VERTEX
  8
1
  6
CONTINUOUS
 10
16.239279
 20
40.685470
  0
VERTEX
  8
1
  6
CONTINUOUS
 10
16.737497
 20
40.643301
  0
SEQEND
  8
1
  6
CONTINUOUS
  0
LINE
  8
1
  6
CONTINUOUS
 10
8.560792
 20
10.140660
 11
8.560792
 21
10.140660
  0
POLYLINE
  8
1
  6
CONTINUOUS
 66
     1
  0
VERTEX
  8
1
  6
CONTINUOUS
 10
8.810792
 20
10.620415
  0
VERTEX
  8
1
  6
CONTINUOUS
 10
8.310792
 20
10.662736
  0
VERTEX
  8
1
  6
CONTINUOUS
 10
8.310792
 20
9.660904
  0
VERTEX
  8
1
  6
CONTINUOUS
 10
8.810791
 20
9.618585
  0
VERTEX
  8
1
  6
CONTINUOUS
 10
8.810792
 20
10.620415
  0
SEQEND
  8
1
  6
CONTINUOUS
  0
LINE
  8
1
  6
CONTINUOUS
 10
39.871401
 20
7.239524
 11
39.871401
 21
7.239524
  0
POLYLINE
  8
1
  6
CONTINUOUS
 66
     1
  0
VERTEX
  8
1
  6
CONTINUOUS
 10
40.141595
 20
7.467548
  0
VERTEX
  8
1
  6
CONTINUOUS
 10
39.643376
 20
7.509718
  0
VERTEX
  8
1
  6
CONTINUOUS
 10
39.601207
 20
7.011499
  0
VERTEX
  8
1
  6
CONTINUOUS
 10
40.099425
 20
6.969330
  0
VERTEX
  8
1
  6
CONTINUOUS
 10
40.141595
 20
7.467548
  0
SEQEND
  8
1
  6
CONTINUOUS
  0
LINE
  8
5
  6
CONTINUOUS
 10
39.643376
 20
7.509718
 11
39.491360
 21
7.689847
  0
LINE
  8
5
  6
CONTINUOUS
 10
39.601207
 20
7.011499
 11
39.421077
 21
6.859483
  0
LINE
  8
5
  6
CONTINUOUS
 10
40.099425
 20
6.969330
 11
40.251442
 21
6.789200
  0
LINE
  8
5
  6
CONTINUOUS
 10
40.141595
 20
7.467548
 11
40.321724
 21
7.619565
  0
LINE
  8
1
  6
CONTINUOUS
 10
5.114327
 20
31.037822
 11
5.114327
 21
31.037822
  0
POLYLINE
  8
1
  6
CONTINUOUS
 66
     1
  0
VERTEX
  8
1
  6
CONTINUOUS
 10
5.363838
 20
30.787333
  0
VERTEX
  8
1
  6
CONTINUOUS
 10
5.364815
 20
31.287332
  0
VERTEX
  8
1
  6
CONTINUOUS
 10
4.864816
 20
31.288310
  0
VERTEX
  8
1
  6
CONTINUOUS
 10
4.863839
 20
30.788311
  0
VERTEX
  8
1
  6
CONTINUOUS
 10
5.363838
 20
30.787333
  0
SEQEND
  8
1
  6
CONTINUOUS
  0
LINE
  8
5
  6
CONTINUOUS
 10
5.364815
 20
31.287332
 11
5.531808
 21
31.453673
  0
LINE
  8
5
  6
CONTINUOUS
 10
4.864816
 20
31.288310
 11
4.698476
 21
31.455302
  0
LINE
  8
5
  6
CONTINUOUS
 10
4.863839
 20
30.788311
 11
4.696847
 21
30.621970
  0
LINE
  8
5
  6
CONTINUOUS
 10
5.363838
 20
30.787333
 11
5.530179
 21
30.620341
  0
LINE
  8
1
  6
CONTINUOUS
 10
59.464056
 20
5.831984
 11
59.464056
 21
5.831984
  0
POLYLINE
  8
1
  6
CONTINUOUS
 66
     1
  0
VERTEX
  8
1
  6
CONTINUOUS
 10
59.755335
 20
6.309118
  0
VERTEX
  8
1
  6
CONTINUOUS
 10
59.257116
 20
6.351287
  0
VERTEX
  8
1
  6
CONTINUOUS
 10
59.172778
 20
5.354850
  0
VERTEX
  8
1
  6
CONTINUOUS
 10
59.670996
 20
5.312681
  0
VERTEX
  8
1
  6
CONTINUOUS
 10
59.755335
 20
6.309118
  0
SEQEND
  8
1
  6
CONTINUOUS
  0
LINE
  8
1
  6
CONTINUOUS
 10
29.594266
 20
8.362975
 11
29.594266
 21
8.362975
  0
POLYLINE
  8
1
  6
CONTINUOUS
 66
     1
  0
VERTEX
  8
1
  6
CONTINUOUS
 10
29.885544
 20
8.840109
  0
VERTEX
  8
1
  6
CONTINUOUS
 10
29.387326
 20
8.882278
  0
VERTEX
  8
1
  6
CONTINUOUS
 10
29.302987
 20
7.885841
  0
VERTEX
  8
1
  6
CONTINUOUS
 10
29.801206
 20
7.843672
  0
VERTEX
  8
1
  6
CONTINUOUS
 10
29.885544
 20
8.840109
  0
SEQEND
  8
1
  6
CONTINUOUS
  0
LINE
  8
1
  6
CONTINUOUS
 10
5.326026
 20
11.456899
 11
5.326026
 21
11.456899
  0
POLYLINE
  8
1
  6
CONTINUOUS
 66
     1
  0
VERTEX
  8
1
  6
CONTINUOUS
 10
5.825536
 20
11.205922
  0
VERTEX
  8
1
  6
CONTINUOUS
 10
5.826513
 20
11.705921
  0
VERTEX
  8
1
  6
CONTINUOUS
 10
4.826515
 20
11.707876
  0
VERTEX
  8
1
  6
CONTINUOUS
 10
4.825538
 20
11.207877
  0
VERTEX
  8
1
  6
CONTINUOUS
 10
5.825536
 20
11.205922
  0
SEQEND
  8
1
  6
CONTINUOUS
  0
LINE
  8
1
  6
CONTINUOUS
 10
62.407297
 20
48.067257
 11
62.407297
 21
48.067257
  0
POLYLINE
  8
1
  6
CONTINUOUS
 66
     1
  0
VERTEX
  8
1
  6
CONTINUOUS
 10
62.635369
 20
47.797103
  0
VERTEX
  8
1
  6
CONTINUOUS
 10
62.677451
 20
48.295329
  0
VERTEX
  8
1
  6
CONTINUOUS
 10
62.179225
 20
48.337411
  0
VERTEX
  8
1
  6
CONTINUOUS
 10
62.137143
 20
47.839185
  0
VERTEX
  8
1
  6
CONTINUOUS
 10
62.635369
 20
47.797103
  0
SEQEND
  8
1
  6
CONTINUOUS
  0
LINE
  8
1
  6
CONTINUOUS
 10
39.194979
 20
7.547671
 11
39.194979
 21
7.547671
  0
POLYLINE
  8
1
  6
CONTINUOUS
 66
     1
  0
VERTEX
  8
1
  6
CONTINUOUS
 10
39.652331
 20
8.010748
  0
VERTEX
  8
1
  6
CONTINUOUS
 10
38.821967
 20
8.081031
  0
VERTEX
  8
1
  6
CONTINUOUS
 10
38.737628
 20
7.084593
  0
VERTEX
  8
1
  6
CONTINUOUS
 10
39.567992
 20
7.014311
  0
VERTEX
  8
1
  6
CONTINUOUS
 10
39.652331
 20
8.010748
  0
SEQEND
  8
1
  6
CONTINUOUS
  0
LINE
  8
4
  6
CONTINUOUS
 10
13.438699
 20
10.563705
 11
13.354360
 21
9.567268
  0
LINE
  8
4
  6
CONTINUOUS
 10
13.254716
 20
9.575702
 11
13.454004
 21
9.558834
  0
LINE
  8
4
  6
CONTINUOUS
 10
13.256403
 20
9.595631
 11
13.455690
 21
9.578763
  0
LINE
  8
4
  6
CONTINUOUS
 10
13.258090
 20
9.615559
 11
13.457377
 21
9.598692
  0
LINE
  8
4
  6
CONTINUOUS
 10
16.938728
 20
51.915510
 11
17.001982
 21
52.662838
  0
LINE
  8
4
  6
CONTINUOUS
 10
17.082454
 20
52.279686
 11
16.858256
 21
52.298662
  0
LINE
  8
4
  6
CONTINUOUS
 10
17.088780
 20
52.354419
 11
16.864581
 21
52.373395
  0
LINE
  8
4
  6
CONTINUOUS
 10
17.095105
 20
52.429152
 11
16.870907
 21
52.448128
  0
LINE
  8
4
  6
CONTINUOUS
 10
17.101430
 20
52.503884
 11
16.877232
 21
52.522861
  0
LINE
  8
4
  6
CONTINUOUS
 10
17.058032
 20
52.658094
 11
16.945932
 21
52.667582
  0
LINE
  8
4
  6
CONTINUOUS
 10
17.058032
 20
52.658094
 11
17.065236
 21
53.410166
  0
LINE
  8
4
  6
CONTINUOUS
 10
16.945932
 20
52.667582
 11
17.065236
 21
53.410166
  0
POLYLINE
  8
4
  6
CONTINUOUS
 66
     1
  0
VERTEX
  8
4
  6
CONTINUOUS
 10
13.438699
 20
10.563705
  0
VERTEX
  8
4
  6
CONTINUOUS
 10
16.938728
 20
51.915510
  0
SEQEND
  8
4
  6
CONTINUOUS
  0
LINE
  8
4
  6
CONTINUOUS
 10
13.770844
 20
10.535592
 11
13.686506
 21
9.539155
  0
LINE
  8
4
  6
CONTINUOUS
 10
13.586862
 20
9.547589
 11
13.786149
 21
9.530721
  0
LINE
  8
4
  6
CONTINUOUS
 10
13.588549
 20
9.567518
 11
13.787836
 21
9.550650
  0
LINE
  8
4
  6
CONTINUOUS
 10
13.590235
 20
9.587446
 11
13.789523
 21
9.570579
  0
LINE
  8
4
  6
CONTINUOUS
 10
17.270874
 20
51.887397
 11
17.334128
 21
52.634725
  0
LINE
  8
4
  6
CONTINUOUS
 10
17.414600
 20
52.251573
 11
17.190402
 21
52.270549
  0
LINE
  8
4
  6
CONTINUOUS
 10
17.420925
 20
52.326306
 11
17.196727
 21
52.345282
  0
LINE
  8
4
  6
CONTINUOUS
 10
17.427251
 20
52.401039
 11
17.203052
 21
52.420015
  0
LINE
  8
4
  6
CONTINUOUS
 10
17.433576
 20
52.475772
 11
17.209378
 21
52.494748
  0
LINE
  8
4
  6
CONTINUOUS
 10
17.390177
 20
52.629981
 11
17.278078
 21
52.639469
  0
LINE
  8
4
  6
CONTINUOUS
 10
17.390177
 20
52.629981
 11
17.397382
 21
53.382053
  0
LINE
  8
4
  6
CONTINUOUS
 10
17.278078
 20
52.639469
 11
17.397382
 21
53.382053
  0
POLYLINE
  8
4
  6
CONTINUOUS
 66
     1
  0
VERTEX
  8
4
  6
CONTINUOUS
 10
13.770844
 20
10.535592
  0
VERTEX
  8
4
  6
CONTINUOUS
 10
17.270874
 20
51.887397
  0
SEQEND
  8
4
  6
CONTINUOUS
  0
LINE
  8
4
  6
CONTINUOUS
 10
14.102990
 20
10.507479
 11
14.018651
 21
9.511042
  0
LINE
  8
4
  6
CONTINUOUS
 10
13.919008
 20
9.519476
 11
14.118295
 21
9.502608
  0
LINE
  8
4
  6
CONTINUOUS
 10
13.920694
 20
9.539405
 11
14.119982
 21
9.522537
  0
LINE
  8
4
  6
CONTINUOUS
 10
13.922381
 20
9.559333
 11
14.121669
 21
9.542466
  0
LINE
  8
4
  6
CONTINUOUS
 10
17.603019
 20
51.859284
 11
17.666273
 21
52.606612
  0
LINE
  8
4
  6
CONTINUOUS
 10
17.746746
 20
52.223460
 11
17.522547
 21
52.242436
  0
LINE
  8
4
  6
CONTINUOUS
 10
17.753071
 20
52.298193
 11
17.528873
 21
52.317169
  0
LINE
  8
4
  6
CONTINUOUS
 10
17.759396
 20
52.372926
 11
17.535198
 21
52.391902
  0
LINE
  8
4
  6
CONTINUOUS
 10
17.765722
 20
52.447659
 11
17.541523
 21
52.466635
  0
LINE
  8
4
  6
CONTINUOUS
 10
17.722323
 20
52.601868
 11
17.610224
 21
52.611356
  0
LINE
  8
4
  6
CONTINUOUS
 10
17.722323
 20
52.601868
 11
17.729527
 21
53.353940
  0
LINE
  8
4
  6
CONTINUOUS
 10
17.610224
 20
52.611356
 11
17.729527
 21
53.353940
  0
POLYLINE
  8
4
  6
CONTINUOUS
 66
     1
  0
VERTEX
  8
4
  6
CONTINUOUS
 10
14.102990
 20
10.507479
  0
VERTEX
  8
4
  6
CONTINUOUS
 10
17.603019
 20
51.859284
  0
SEQEND
  8
4
  6
CONTINUOUS
  0
LINE
  8
4
  6
CONTINUOUS
 10
14.435136
 20
10.479366
 11
14.350797
 21
9.482929
  0
LINE
  8
4
  6
CONTINUOUS
 10
14.251153
 20
9.491363
 11
14.450441
 21
9.474495
  0
LINE
  8
4
  6
CONTINUOUS
 10
14.252840
 20
9.511292
 11
14.452128
 21
9.494424
  0
LINE
  8
4
  6
CONTINUOUS
 10
14.254527
 20
9.531221
 11
14.453814
 21
9.514353
  0
LINE
  8
4
  6
CONTINUOUS
 10
17.935165
 20
51.831172
 11
17.998419
 21
52.578499
  0
LINE
  8
4
  6
CONTINUOUS
 10
18.078891
 20
52.195347
 11
17.854693
 21
52.214324
  0
LINE
  8
4
  6
CONTINUOUS
 10
18.085217
 20
52.270080
 11
17.861018
 21
52.289056
  0
LINE
  8
4
  6
CONTINUOUS
 10
18.091542
 20
52.344813
 11
17.867344
 21
52.363789
  0
LINE
  8
4
  6
CONTINUOUS
 10
18.097868
 20
52.419546
 11
17.873669
 21
52.438522
  0
LINE
  8
4
  6
CONTINUOUS
 10
18.054469
 20
52.573755
 11
17.942370
 21
52.583243
  0
LINE
  8
4
  6
CONTINUOUS
 10
18.054469
 20
52.573755
 11
18.061673
 21
53.325827
  0
LINE
  8
4
  6
CONTINUOUS
 10
17.942370
 20
52.583243
 11
18.061673
 21
53.325827
  0
POLYLINE
  8
4
  6
CONTINUOUS
 66
     1
  0
VERTEX
  8
4
  6
CONTINUOUS
 10
14.435136
 20
10.479366
  0
VERTEX
  8
4
  6
CONTINUOUS
 10
17.935165
 20
51.831172
  0
SEQEND
  8
4
  6
CONTINUOUS
  0
LINE
  8
4
  6
CONTINUOUS
 10
29.042077
 20
9.243163
 11
28.957738
 21
8.246726
  0
LINE
  8
4
  6
CONTINUOUS
 10
28.858094
 20
8.255160
 11
29.057382
 21
8.238292
  0
LINE
  8
4
  6
CONTINUOUS
 10
28.859781
 20
8.275089
 11
29.059068
 21
8.258221
  0
LINE
  8
4
  6
CONTINUOUS
 10
28.861468
 20
8.295017
 11
29.060755
 21
8.278150
  0
LINE
  8
4
  6
CONTINUOUS
 10
32.542095
 20
50.594837
 11
32.605349
 21
51.342165
  0
LINE
  8
4
  6
CONTINUOUS
 10
32.685821
 20
50.959013
 11
32.461623
 21
50.977989
  0
LINE
  8
4
  6
CONTINUOUS
 10
32.692147
 20
51.033745
 11
32.467948
 21
51.052722
  0
LINE
  8
4
  6
CONTINUOUS
 10
32.698472
 20
51.108478
 11
32.474274
 21
51.127454
  0
LINE
  8
4
  6
CONTINUOUS
 10
32.704797
 20
51.183211
 11
32.480599
 21
51.202187
  0
LINE
  8
4
  6
CONTINUOUS
 10
32.661399
 20
51.337421
 11
32.549299
 21
51.346909
  0
LINE
  8
4
  6
CONTINUOUS
 10
32.661399
 20
51.337421
 11
32.668603
 21
52.089493
  0
LINE
  8
4
  6
CONTINUOUS
 10
32.549299
 20
51.346909
 11
32.668603
 21
52.089493
  0
POLYLINE
  8
4
  6
CONTINUOUS
 66
     1
  0
VERTEX
  8
4
  6
CONTINUOUS
 10
29.042077
 20
9.243163
  0
VERTEX
  8
4
  6
CONTINUOUS
 10
32.542095
 20
50.594837
  0
SEQEND
  8
4
  6
CONTINUOUS
  0
LINE
  8
4
  6
CONTINUOUS
 10
29.374222
 20
9.215050
 11
29.289884
 21
8.218613
  0
LINE
  8
4
  6
CONTINUOUS
 10
29.190240
 20
8.227047
 11
29.389527
 21
8.210179
  0
LINE
  8
4
  6
CONTINUOUS
 10
29.191927
 20
8.246976
 11
29.391214
 21
8.230108
  0
LINE
  8
4
  6
CONTINUOUS
 10
29.193614
 20
8.266904
 11
29.392901
 21
8.250037
  0
LINE
  8
4
  6
CONTINUOUS
 10
32.874241
 20
50.566724
 11
32.937495
 21
51.314052
  0
LINE
  8
4
  6
CONTINUOUS
 10
33.017967
 20
50.930900
 11
32.793768
 21
50.949876
  0
LINE
  8
4
  6
CONTINUOUS
 10
33.024292
 20
51.005633
 11
32.800094
 21
51.024609
  0
LINE
  8
4
  6
CONTINUOUS
 10
33.030618
 20
51.080365
 11
32.806419
 21
51.099342
  0
LINE
  8
4
  6
CONTINUOUS
 10
33.036943
 20
51.155098
 11
32.812745
 21
51.174074
  0
LINE
  8
4
  6
CONTINUOUS
 10
32.993544
 20
51.309308
 11
32.881445
 21
51.318796
  0
LINE
  8
4
  6
CONTINUOUS
 10
32.993544
 20
51.309308
 11
33.000749
 21
52.061380
  0
LINE
  8
4
  6
CONTINUOUS
 10
32.881445
 20
51.318796
 11
33.000749
 21
52.061380
  0
POLYLINE
  8
4
  6
CONTINUOUS
 66
     1
  0
VERTEX
  8
4
  6
CONTINUOUS
 10
29.374222
 20
9.215050
  0
VERTEX
  8
4
  6
CONTINUOUS
 10
32.874241
 20
50.566724
  0
SEQEND
  8
4
  6
CONTINUOUS
  0
LINE
  8
4
  6
CONTINUOUS
 10
29.706368
 20
9.186937
 11
29.622029
 21
8.190500
  0
LINE
  8
4
  6
CONTINUOUS
 10
29.522386
 20
8.198934
 11
29.721673
 21
8.182066
  0
LINE
  8
4
  6
CONTINUOUS
 10
29.524072
 20
8.218863
 11
29.723360
 21
8.201995
  0
LINE
  8
4
  6
CONTINUOUS
 10
29.525759
 20
8.238792
 11
29.725047
 21
8.221924
  0
LINE
  8
4
  6
CONTINUOUS
 10
33.206386
 20
50.538611
 11
33.269640
 21
51.285939
  0
LINE
  8
4
  6
CONTINUOUS
 10
33.350113
 20
50.902787
 11
33.125914
 21
50.921763
  0
LINE
  8
4
  6
CONTINUOUS
 10
33.356438
 20
50.977520
 11
33.132240
 21
50.996496
  0
LINE
  8
4
  6
CONTINUOUS
 10
33.362763
 20
51.052252
 11
33.138565
 21
51.071229
  0
LINE
  8
4
  6
CONTINUOUS
 10
33.369089
 20
51.126985
 11
33.144890
 21
51.145961
  0
LINE
  8
4
  6
CONTINUOUS
 10
33.325690
 20
51.281195
 11
33.213591
 21
51.290683
  0
LINE
  8
4
  6
CONTINUOUS
 10
33.325690
 20
51.281195
 11
33.332894
 21
52.033267
  0
LINE
  8
4
  6
CONTINUOUS
 10
33.213591
 20
51.290683
 11
33.332894
 21
52.033267
  0
POLYLINE
  8
4
  6
CONTINUOUS
 66
     1
  0
VERTEX
  8
4
  6
CONTINUOUS
 10
29.706368
 20
9.186937
  0
VERTEX
  8
4
  6
CONTINUOUS
 10
33.206386
 20
50.538611
  0
SEQEND
  8
4
  6
CONTINUOUS
  0
LINE
  8
4
  6
CONTINUOUS
 10
30.038514
 20
9.158824
 11
29.954175
 21
8.162387
  0
LINE
  8
4
  6
CONTINUOUS
 10
29.854531
 20
8.170821
 11
30.053819
 21
8.153953
  0
LINE
  8
4
  6
CONTINUOUS
 10
29.856218
 20
8.190750
 11
30.055506
 21
8.173882
  0
LINE
  8
4
  6
CONTINUOUS
 10
29.857905
 20
8.210679
 11
30.057192
 21
8.193811
  0
LINE
  8
4
  6
CONTINUOUS
 10
33.538532
 20
50.510498
 11
33.601786
 21
51.257826
  0
LINE
  8
4
  6
CONTINUOUS
 10
33.682258
 20
50.874674
 11
33.458060
 21
50.893650
  0
LINE
  8
4
  6
CONTINUOUS
 10
33.688584
 20
50.949407
 11
33.464385
 21
50.968383
  0
LINE
  8
4
  6
CONTINUOUS
 10
33.694909
 20
51.024139
 11
33.470711
 21
51.043116
  0
LINE
  8
4
  6
CONTINUOUS
 10
33.701234
 20
51.098872
 11
33.477036
 21
51.117849
  0
LINE
  8
4
  6
CONTINUOUS
 10
33.657836
 20
51.253082
 11
33.545737
 21
51.262570
  0
LINE
  8
4
  6
CONTINUOUS
 10
33.657836
 20
51.253082
 11
33.665040
 21
52.005154
  0
LINE
  8
4
  6
CONTINUOUS
 10
33.545737
 20
51.262570
 11
33.665040
 21
52.005154
  0
POLYLINE
  8
4
  6
CONTINUOUS
 66
     1
  0
VERTEX
  8
4
  6
CONTINUOUS
 10
30.038514
 20
9.158824
  0
VERTEX
  8
4
  6
CONTINUOUS
 10
33.538532
 20
50.510498
  0
SEQEND
  8
4
  6
CONTINUOUS
  0
LINE
  8
4
  6
CONTINUOUS
 10
42.415982
 20
8.111309
 11
42.331643
 21
7.114872
  0
LINE
  8
4
  6
CONTINUOUS
 10
42.231999
 20
7.123306
 11
42.431287
 21
7.106438
  0
LINE
  8
4
  6
CONTINUOUS
 10
42.233686
 20
7.143235
 11
42.432973
 21
7.126367
  0
LINE
  8
4
  6
CONTINUOUS
 10
42.235373
 20
7.163164
 11
42.434660
 21
7.146296
  0
LINE
  8
4
  6
CONTINUOUS
 10
45.915989
 20
49.462867
 11
45.979243
 21
50.210194
  0
LINE
  8
4
  6
CONTINUOUS
 10
46.059715
 20
49.827042
 11
45.835517
 21
49.846019
  0
LINE
  8
4
  6
CONTINUOUS
 10
46.066041
 20
49.901775
 11
45.841843
 21
49.920751
  0
LINE
  8
4
  6
CONTINUOUS
 10
46.072366
 20
49.976508
 11
45.848168
 21
49.995484
  0
LINE
  8
4
  6
CONTINUOUS
 10
46.078692
 20
50.051241
 11
45.854493
 21
50.070217
  0
LINE
  8
4
  6
CONTINUOUS
 10
46.035293
 20
50.205450
 11
45.923194
 21
50.214939
  0
LINE
  8
4
  6
CONTINUOUS
 10
46.035293
 20
50.205450
 11
46.042497
 21
50.957522
  0
LINE
  8
4
  6
CONTINUOUS
 10
45.923194
 20
50.214939
 11
46.042497
 21
50.957522
  0
POLYLINE
  8
4
  6
CONTINUOUS
 66
     1
  0
VERTEX
  8
4
  6
CONTINUOUS
 10
42.415982
 20
8.111309
  0
VERTEX
  8
4
  6
CONTINUOUS
 10
45.915989
 20
49.462867
  0
SEQEND
  8
4
  6
CONTINUOUS
  0
LINE
  8
4
  6
CONTINUOUS
 10
42.748127
 20
8.083197
 11
42.663789
 21
7.086759
  0
LINE
  8
4
  6
CONTINUOUS
 10
42.564145
 20
7.095193
 11
42.763432
 21
7.078326
  0
LINE
  8
4
  6
CONTINUOUS
 10
42.565832
 20
7.115122
 11
42.765119
 21
7.098254
  0
LINE
  8
4
  6
CONTINUOUS
 10
42.567518
 20
7.135051
 11
42.766806
 21
7.118183
  0
LINE
  8
4
  6
CONTINUOUS
 10
46.248135
 20
49.434754
 11
46.311389
 21
50.182082
  0
LINE
  8
4
  6
CONTINUOUS
 10
46.391861
 20
49.798930
 11
46.167663
 21
49.817906
  0
LINE
  8
4
  6
CONTINUOUS
 10
46.398187
 20
49.873662
 11
46.173988
 21
49.892639
  0
LINE
  8
4
  6
CONTINUOUS
 10
46.404512
 20
49.948395
 11
46.180314
 21
49.967371
  0
LINE
  8
4
  6
CONTINUOUS
 10
46.410837
 20
50.023128
 11
46.186639
 21
50.042104
  0
LINE
  8
4
  6
CONTINUOUS
 10
46.367439
 20
50.177338
 11
46.255339
 21
50.186826
  0
LINE
  8
4
  6
CONTINUOUS
 10
46.367439
 20
50.177338
 11
46.374643
 21
50.929409
  0
LINE
  8
4
  6
CONTINUOUS
 10
46.255339
 20
50.186826
 11
46.374643
 21
50.929409
  0
POLYLINE
  8
4
  6
CONTINUOUS
 66
     1
  0
VERTEX
  8
4
  6
CONTINUOUS
 10
42.748127
 20
8.083197
  0
VERTEX
  8
4
  6
CONTINUOUS
 10
46.248135
 20
49.434754
  0
SEQEND
  8
4
  6
CONTINUOUS
  0
LINE
  8
4
  6
CONTINUOUS
 10
43.080273
 20
8.055084
 11
42.995934
 21
7.058646
  0
LINE
  8
4
  6
CONTINUOUS
 10
42.896291
 20
7.067080
 11
43.095578
 21
7.050213
  0
LINE
  8
4
  6
CONTINUOUS
 10
42.897977
 20
7.087009
 11
43.097265
 21
7.070141
  0
LINE
  8
4
  6
CONTINUOUS
 10
42.899664
 20
7.106938
 11
43.098952
 21
7.090070
  0
LINE
  8
4
  6
CONTINUOUS
 10
46.580281
 20
49.406641
 11
46.643535
 21
50.153969
  0
LINE
  8
4
  6
CONTINUOUS
 10
46.724007
 20
49.770817
 11
46.499809
 21
49.789793
  0
LINE
  8
4
  6
CONTINUOUS
 10
46.730332
 20
49.845549
 11
46.506134
 21
49.864526
  0
LINE
  8
4
  6
CONTINUOUS
 10
46.736658
 20
49.920282
 11
46.512459
 21
49.939258
  0
LINE
  8
4
  6
CONTINUOUS
 10
46.742983
 20
49.995015
 11
46.518785
 21
50.013991
  0
LINE
  8
4
  6
CONTINUOUS
 10
46.699584
 20
50.149225
 11
46.587485
 21
50.158713
  0
LINE
  8
4
  6
CONTINUOUS
 10
46.699584
 20
50.149225
 11
46.706789
 21
50.901297
  0
LINE
  8
4
  6
CONTINUOUS
 10
46.587485
 20
50.158713
 11
46.706789
 21
50.901297
  0
POLYLINE
  8
4
  6
CONTINUOUS
 66
     1
  0
VERTEX
  8
4
  6
CONTINUOUS
 10
43.080273
 20
8.055084
  0
VERTEX
  8
4
  6
CONTINUOUS
 10
46.580281
 20
49.406641
  0
SEQEND
  8
4
  6
CONTINUOUS
  0
LINE
  8
4
  6
CONTINUOUS
 10
43.412419
 20
8.026971
 11
43.328080
 21
7.030534
  0
LINE
  8
4
  6
CONTINUOUS
 10
43.228436
 20
7.038967
 11
43.427724
 21
7.022100
  0
LINE
  8
4
  6
CONTINUOUS
 10
43.230123
 20
7.058896
 11
43.429411
 21
7.042028
  0
LINE
  8
4
  6
CONTINUOUS
 10
43.231810
 20
7.078825
 11
43.431097
 21
7.061957
  0
LINE
  8
4
  6
CONTINUOUS
 10
46.912426
 20
49.378528
 11
46.975680
 21
50.125856
  0
LINE
  8
4
  6
CONTINUOUS
 10
47.056153
 20
49.742704
 11
46.831954
 21
49.761680
  0
LINE
  8
4
  6
CONTINUOUS
 10
47.062478
 20
49.817436
 11
46.838280
 21
49.836413
  0
LINE
  8
4
  6
CONTINUOUS
 10
47.068803
 20
49.892169
 11
46.844605
 21
49.911145
  0
LINE
  8
4
  6
CONTINUOUS
 10
47.075129
 20
49.966902
 11
46.850930
 21
49.985878
  0
LINE
  8
4
  6
CONTINUOUS
 10
47.031730
 20
50.121112
 11
46.919631
 21
50.130600
  0
LINE
  8
4
  6
CONTINUOUS
 10
47.031730
 20
50.121112
 11
47.038935
 21
50.873184
  0
LINE
  8
4
  6
CONTINUOUS
 10
46.919631
 20
50.130600
 11
47.038935
 21
50.873184
  0
POLYLINE
  8
4
  6
CONTINUOUS
 66
     1
  0
VERTEX
  8
4
  6
CONTINUOUS
 10
43.412419
 20
8.026971
  0
VERTEX
  8
4
  6
CONTINUOUS
 10
46.912426
 20
49.378528
  0
SEQEND
  8
4
  6
CONTINUOUS
  0
LINE
  8
4
  6
CONTINUOUS
 10
58.989952
 20
6.708425
 11
58.905613
 21
5.711988
  0
LINE
  8
4
  6
CONTINUOUS
 10
58.805970
 20
5.720422
 11
59.005257
 21
5.703554
  0
LINE
  8
4
  6
CONTINUOUS
 10
58.807656
 20
5.740351
 11
59.006944
 21
5.723483
  0
LINE
  8
4
  6
CONTINUOUS
 10
58.809343
 20
5.760279
 11
59.008631
 21
5.743412
  0
LINE
  8
4
  6
CONTINUOUS
 10
62.489965
 20
48.060041
 11
62.553219
 21
48.807368
  0
LINE
  8
4
  6
CONTINUOUS
 10
62.633691
 20
48.424216
 11
62.409492
 21
48.443193
  0
LINE
  8
4
  6
CONTINUOUS
 10
62.640016
 20
48.498949
 11
62.415818
 21
48.517925
  0
LINE
  8
4
  6
CONTINUOUS
 10
62.646342
 20
48.573682
 11
62.422143
 21
48.592658
  0
LINE
  8
4
  6
CONTINUOUS
 10
62.652667
 20
48.648415
 11
62.428469
 21
48.667391
  0
LINE
  8
4
  6
CONTINUOUS
 10
62.609268
 20
48.802624
 11
62.497169
 21
48.812113
  0
LINE
  8
4
  6
CONTINUOUS
 10
62.609268
 20
48.802624
 11
62.616473
 21
49.554696
  0
LINE
  8
4
  6
CONTINUOUS
 10
62.497169
 20
48.812113
 11
62.616473
 21
49.554696
  0
POLYLINE
  8
4
  6
CONTINUOUS
 66
     1
  0
VERTEX
  8
4
  6
CONTINUOUS
 10
58.989952
 20
6.708425
  0
VERTEX
  8
4
  6
CONTINUOUS
 10
62.489965
 20
48.060041
  0
SEQEND
  8
4
  6
CONTINUOUS
  0
LINE
  8
4
  6
CONTINUOUS
 10
59.255669
 20
6.685935
 11
59.171330
 21
5.689498
  0
LINE
  8
4
  6
CONTINUOUS
 10
59.071686
 20
5.697932
 11
59.270974
 21
5.681064
  0
LINE
  8
4
  6
CONTINUOUS
 10
59.073373
 20
5.717860
 11
59.272660
 21
5.700993
  0
LINE
  8
4
  6
CONTINUOUS
 10
59.075060
 20
5.737789
 11
59.274347
 21
5.720921
  0
LINE
  8
4
  6
CONTINUOUS
 10
62.755681
 20
48.037550
 11
62.818935
 21
48.784878
  0
LINE
  8
4
  6
CONTINUOUS
 10
62.899407
 20
48.401726
 11
62.675209
 21
48.420702
  0
LINE
  8
4
  6
CONTINUOUS
 10
62.905733
 20
48.476459
 11
62.681534
 21
48.495435
  0
LINE
  8
4
  6
CONTINUOUS
 10
62.912058
 20
48.551192
 11
62.687860
 21
48.570168
  0
LINE
  8
4
  6
CONTINUOUS
 10
62.918384
 20
48.625924
 11
62.694185
 21
48.644901
  0
LINE
  8
4
  6
CONTINUOUS
 10
62.874985
 20
48.780134
 11
62.762886
 21
48.789622
  0
LINE
  8
4
  6
CONTINUOUS
 10
62.874985
 20
48.780134
 11
62.882189
 21
49.532206
  0
LINE
  8
4
  6
CONTINUOUS
 10
62.762886
 20
48.789622
 11
62.882189
 21
49.532206
  0
POLYLINE
  8
4
  6
CONTINUOUS
 66
     1
  0
VERTEX
  8
4
  6
CONTINUOUS
 10
59.255669
 20
6.685935
  0
VERTEX
  8
4
  6
CONTINUOUS
 10
62.755681
 20
48.037550
  0
SEQEND
  8
4
  6
CONTINUOUS
  0
LINE
  8
4
  6
CONTINUOUS
 10
59.521385
 20
6.663445
 11
59.437047
 21
5.667007
  0
LINE
  8
4
  6
CONTINUOUS
 10
59.337403
 20
5.675441
 11
59.536690
 21
5.658574
  0
LINE
  8
4
  6
CONTINUOUS
 10
59.339090
 20
5.695370
 11
59.538377
 21
5.678502
  0
LINE
  8
4
  6
CONTINUOUS
 10
59.340776
 20
5.715299
 11
59.540064
 21
5.698431
  0
LINE
  8
4
  6
CONTINUOUS
 10
63.021398
 20
48.015060
 11
63.084652
 21
48.762388
  0
LINE
  8
4
  6
CONTINUOUS
 10
63.165124
 20
48.379236
 11
62.940926
 21
48.398212
  0
LINE
  8
4
  6
CONTINUOUS
 10
63.171449
 20
48.453969
 11
62.947251
 21
48.472945
  0
LINE
  8
4
  6
CONTINUOUS
 10
63.177775
 20
48.528701
 11
62.953576
 21
48.547678
  0
LINE
  8
4
  6
CONTINUOUS
 10
63.184100
 20
48.603434
 11
62.959902
 21
48.622410
  0
LINE
  8
4
  6
CONTINUOUS
 10
63.140701
 20
48.757644
 11
63.028602
 21
48.767132
  0
LINE
  8
4
  6
CONTINUOUS
 10
63.140701
 20
48.757644
 11
63.147906
 21
49.509716
  0
LINE
  8
4
  6
CONTINUOUS
 10
63.028602
 20
48.767132
 11
63.147906
 21
49.509716
  0
POLYLINE
  8
4
  6
CONTINUOUS
 66
     1
  0
VERTEX
  8
4
  6
CONTINUOUS
 10
59.521385
 20
6.663445
  0
VERTEX
  8
4
  6
CONTINUOUS
 10
63.021398
 20
48.015060
  0
SEQEND
  8
4
  6
CONTINUOUS
  0
LINE
  8
4
  6
CONTINUOUS
 10
59.787102
 20
6.640954
 11
59.702763
 21
5.644517
  0
LINE
  8
4
  6
CONTINUOUS
 10
59.603119
 20
5.652951
 11
59.802407
 21
5.636083
  0
LINE
  8
4
  6
CONTINUOUS
 10
59.604806
 20
5.672880
 11
59.804094
 21
5.656012
  0
LINE
  8
4
  6
CONTINUOUS
 10
59.606493
 20
5.692808
 11
59.805780
 21
5.675941
  0
LINE
  8
4
  6
CONTINUOUS
 10
63.287114
 20
47.992570
 11
63.350368
 21
48.739897
  0
LINE
  8
4
  6
CONTINUOUS
 10
63.430841
 20
48.356745
 11
63.206642
 21
48.375722
  0
LINE
  8
4
  6
CONTINUOUS
 10
63.437166
 20
48.431478
 11
63.212968
 21
48.450454
  0
LINE
  8
4
  6
CONTINUOUS
 10
63.443491
 20
48.506211
 11
63.219293
 21
48.525187
  0
LINE
  8
4
  6
CONTINUOUS
 10
63.449817
 20
48.580944
 11
63.225618
 21
48.599920
  0
LINE
  8
4
  6
CONTINUOUS
 10
63.406418
 20
48.735153
 11
63.294319
 21
48.744642
  0
LINE
  8
4
  6
CONTINUOUS
 10
63.406418
 20
48.735153
 11
63.413622
 21
49.487225
  0
LINE
  8
4
  6
CONTINUOUS
 10
63.294319
 20
48.744642
 11
63.413622
 21
49.487225
  0
POLYLINE
  8
4
  6
CONTINUOUS
 66
     1
  0
VERTEX
  8
4
  6
CONTINUOUS
 10
59.787102
 20
6.640954
  0
VERTEX
  8
4
  6
CONTINUOUS
 10
63.287114
 20
47.992570
  0
SEQEND
  8
4
  6
CONTINUOUS
  0
LINE
  8
4
  6
CONTINUOUS
 10
60.052818
 20
6.618464
 11
59.968480
 21
5.622027
  0
LINE
  8
4
  6
CONTINUOUS
 10
59.868836
 20
5.630461
 11
60.068123
 21
5.613593
  0
LINE
  8
4
  6
CONTINUOUS
 10
59.870523
 20
5.650389
 11
60.069810
 21
5.633522
  0
LINE
  8
4
  6
CONTINUOUS
 10
59.872210
 20
5.670318
 11
60.071497
 21
5.653450
  0
LINE
  8
4
  6
CONTINUOUS
 10
63.552831
 20
47.970079
 11
63.616085
 21
48.717407
  0
LINE
  8
4
  6
CONTINUOUS
 10
63.696557
 20
48.334255
 11
63.472359
 21
48.353231
  0
LINE
  8
4
  6
CONTINUOUS
 10
63.702883
 20
48.408988
 11
63.478684
 21
48.427964
  0
LINE
  8
4
  6
CONTINUOUS
 10
63.709208
 20
48.483721
 11
63.485010
 21
48.502697
  0
LINE
  8
4
  6
CONTINUOUS
 10
63.715533
 20
48.558453
 11
63.491335
 21
48.577430
  0
LINE
  8
4
  6
CONTINUOUS
 10
63.672135
 20
48.712663
 11
63.560035
 21
48.722151
  0
LINE
  8
4
  6
CONTINUOUS
 10
63.672135
 20
48.712663
 11
63.679339
 21
49.464735
  0
LINE
  8
4
  6
CONTINUOUS
 10
63.560035
 20
48.722151
 11
63.679339
 21
49.464735
  0
POLYLINE
  8
4
  6
CONTINUOUS
 66
     1
  0
VERTEX
  8
4
  6
CONTINUOUS
 10
60.052818
 20
6.618464
  0
VERTEX
  8
4
  6
CONTINUOUS
 10
63.552831
 20
47.970079
  0
SEQEND
  8
4
  6
CONTINUOUS
  0
LINE
  8
4
  6
CONTINUOUS
 10
75.431085
 20
5.316843
 11
75.346746
 21
4.320406
  0
LINE
  8
4
  6
CONTINUOUS
 10
75.247103
 20
4.328840
 11
75.446390
 21
4.311972
  0
LINE
  8
4
  6
CONTINUOUS
 10
75.248789
 20
4.348769
 11
75.448077
 21
4.331901
  0
LINE
  8
4
  6
CONTINUOUS
 10
75.250476
 20
4.368697
 11
75.449764
 21
4.351830
  0
LINE
  8
4
  6
CONTINUOUS
 10
78.931098
 20
46.668458
 11
78.994352
 21
47.415786
  0
LINE
  8
4
  6
CONTINUOUS
 10
79.074824
 20
47.032634
 11
78.850626
 21
47.051610
  0
LINE
  8
4
  6
CONTINUOUS
 10
79.081149
 20
47.107367
 11
78.856951
 21
47.126343
  0
LINE
  8
4
  6
CONTINUOUS
 10
79.087475
 20
47.182100
 11
78.863276
 21
47.201076
  0
LINE
  8
4
  6
CONTINUOUS
 10
79.093800
 20
47.256833
 11
78.869602
 21
47.275809
  0
LINE
  8
4
  6
CONTINUOUS
 10
79.050401
 20
47.411042
 11
78.938302
 21
47.420530
  0
LINE
  8
4
  6
CONTINUOUS
 10
79.050401
 20
47.411042
 11
79.057606
 21
48.163114
  0
LINE
  8
4
  6
CONTINUOUS
 10
78.938302
 20
47.420530
 11
79.057606
 21
48.163114
  0
POLYLINE
  8
4
  6
CONTINUOUS
 66
     1
  0
VERTEX
  8
4
  6
CONTINUOUS
 10
75.431085
 20
5.316843
  0
VERTEX
  8
4
  6
CONTINUOUS
 10
78.931098
 20
46.668458
  0
SEQEND
  8
4
  6
CONTINUOUS
  0
LINE
  8
4
  6
CONTINUOUS
 10
75.696802
 20
5.294353
 11
75.612463
 21
4.297916
  0
LINE
  8
4
  6
CONTINUOUS
 10
75.512819
 20
4.306349
 11
75.712107
 21
4.289482
  0
LINE
  8
4
  6
CONTINUOUS
 10
75.514506
 20
4.326278
 11
75.713793
 21
4.309410
  0
LINE
  8
4
  6
CONTINUOUS
 10
75.516193
 20
4.346207
 11
75.715480
 21
4.329339
  0
LINE
  8
4
  6
CONTINUOUS
 10
79.196814
 20
46.645968
 11
79.260068
 21
47.393296
  0
LINE
  8
4
  6
CONTINUOUS
 10
79.340540
 20
47.010144
 11
79.116342
 21
47.029120
  0
LINE
  8
4
  6
CONTINUOUS
 10
79.346866
 20
47.084877
 11
79.122667
 21
47.103853
  0
LINE
  8
4
  6
CONTINUOUS
 10
79.353191
 20
47.159609
 11
79.128993
 21
47.178586
  0
LINE
  8
4
  6
CONTINUOUS
 10
79.359517
 20
47.234342
 11
79.135318
 21
47.253318
  0
LINE
  8
4
  6
CONTINUOUS
 10
79.316118
 20
47.388552
 11
79.204019
 21
47.398040
  0
LINE
  8
4
  6
CONTINUOUS
 10
79.316118
 20
47.388552
 11
79.323322
 21
48.140624
  0
LINE
  8
4
  6
CONTINUOUS
 10
79.204019
 20
47.398040
 11
79.323322
 21
48.140624
  0
POLYLINE
  8
4
  6
CONTINUOUS
 66
     1
  0
VERTEX
  8
4
  6
CONTINUOUS
 10
75.696802
 20
5.294353
  0
VERTEX
  8
4
  6
CONTINUOUS
 10
79.196814
 20
46.645968
  0
SEQEND
  8
4
  6
CONTINUOUS
  0
LINE
  8
4
  6
CONTINUOUS
 10
75.962518
 20
5.271862
 11
75.878180
 21
4.275425
  0
LINE
  8
4
  6
CONTINUOUS
 10
75.778536
 20
4.283859
 11
75.977823
 21
4.266991
  0
LINE
  8
4
  6
CONTINUOUS
 10
75.780223
 20
4.303788
 11
75.979510
 21
4.286920
  0
LINE
  8
4
  6
CONTINUOUS
 10
75.781909
 20
4.323717
 11
75.981197
 21
4.306849
  0
LINE
  8
4
  6
CONTINUOUS
 10
79.462531
 20
46.623478
 11
79.525785
 21
47.370806
  0
LINE
  8
4
  6
CONTINUOUS
 10
79.606257
 20
46.987654
 11
79.382059
 21
47.006630
  0
LINE
  8
4
  6
CONTINUOUS
 10
79.612582
 20
47.062386
 11
79.388384
 21
47.081363
  0
LINE
  8
4
  6
CONTINUOUS
 10
79.618908
 20
47.137119
 11
79.394709
 21
47.156095
  0
LINE
  8
4
  6
CONTINUOUS
 10
79.625233
 20
47.211852
 11
79.401035
 21
47.230828
  0
LINE
  8
4
  6
CONTINUOUS
 10
79.581834
 20
47.366062
 11
79.469735
 21
47.375550
  0
LINE
  8
4
  6
CONTINUOUS
 10
79.581834
 20
47.366062
 11
79.589039
 21
48.118133
  0
LINE
  8
4
  6
CONTINUOUS
 10
79.469735
 20
47.375550
 11
79.589039
 21
48.118133
  0
POLYLINE
  8
4
  6
CONTINUOUS
 66
     1
  0
VERTEX
  8
4
  6
CONTINUOUS
 10
75.962518
 20
5.271862
  0
VERTEX
  8
4
  6
CONTINUOUS
 10
79.462531
 20
46.623478
  0
SEQEND
  8
4
  6
CONTINUOUS
  0
LINE
  8
4
  6
CONTINUOUS
 10
76.228235
 20
5.249372
 11
76.143896
 21
4.252935
  0
LINE
  8
4
  6
CONTINUOUS
 10
76.044252
 20
4.261369
 11
76.243540
 21
4.244501
  0
LINE
  8
4
  6
CONTINUOUS
 10
76.045939
 20
4.281298
 11
76.245227
 21
4.264430
  0
LINE
  8
4
  6
CONTINUOUS
 10
76.047626
 20
4.301226
 11
76.246913
 21
4.284359
  0
LINE
  8
4
  6
CONTINUOUS
 10
79.728247
 20
46.600987
 11
79.791501
 21
47.348315
  0
LINE
  8
4
  6
CONTINUOUS
 10
79.871974
 20
46.965163
 11
79.647775
 21
46.984139
  0
LINE
  8
4
  6
CONTINUOUS
 10
79.878299
 20
47.039896
 11
79.654101
 21
47.058872
  0
LINE
  8
4
  6
CONTINUOUS
 10
79.884624
 20
47.114629
 11
79.660426
 21
47.133605
  0
LINE
  8
4
  6
CONTINUOUS
 10
79.890950
 20
47.189362
 11
79.666751
 21
47.208338
  0
LINE
  8
4
  6
CONTINUOUS
 10
79.847551
 20
47.343571
 11
79.735452
 21
47.353059
  0
LINE
  8
4
  6
CONTINUOUS
 10
79.847551
 20
47.343571
 11
79.854755
 21
48.095643
  0
LINE
  8
4
  6
CONTINUOUS
 10
79.735452
 20
47.353059
 11
79.854755
 21
48.095643
  0
POLYLINE
  8
4
  6
CONTINUOUS
 66
     1
  0
VERTEX
  8
4
  6
CONTINUOUS
 10
76.228235
 20
5.249372
  0
VERTEX
  8
4
  6
CONTINUOUS
 10
79.728247
 20
46.600987
  0
SEQEND
  8
4
  6
CONTINUOUS
  0
LINE
  8
4
  6
CONTINUOUS
 10
76.493951
 20
5.226882
 11
76.409613
 21
4.230445
  0
LINE
  8
4
  6
CONTINUOUS
 10
76.309969
 20
4.238878
 11
76.509256
 21
4.222011
  0
LINE
  8
4
  6
CONTINUOUS
 10
76.311656
 20
4.258807
 11
76.510943
 21
4.241939
  0
LINE
  8
4
  6
CONTINUOUS
 10
76.313343
 20
4.278736
 11
76.512630
 21
4.261868
  0
LINE
  8
4
  6
CONTINUOUS
 10
79.993964
 20
46.578497
 11
80.057218
 21
47.325825
  0
LINE
  8
4
  6
CONTINUOUS
 10
80.137690
 20
46.942673
 11
79.913492
 21
46.961649
  0
LINE
  8
4
  6
CONTINUOUS
 10
80.144016
 20
47.017406
 11
79.919817
 21
47.036382
  0
LINE
  8
4
  6
CONTINUOUS
 10
80.150341
 20
47.092139
 11
79.926143
 21
47.111115
  0
LINE
  8
4
  6
CONTINUOUS
 10
80.156666
 20
47.166871
 11
79.932468
 21
47.185848
  0
LINE
  8
4
  6
CONTINUOUS
 10
80.113268
 20
47.321081
 11
80.001168
 21
47.330569
  0
LINE
  8
4
  6
CONTINUOUS
 10
80.113268
 20
47.321081
 11
80.120472
 21
48.073153
  0
LINE
  8
4
  6
CONTINUOUS
 10
80.001168
 20
47.330569
 11
80.120472
 21
48.073153
  0
POLYLINE
  8
4
  6
CONTINUOUS
 66
     1
  0
VERTEX
  8
4
  6
CONTINUOUS
 10
76.493951
 20
5.226882
  0
VERTEX
  8
4
  6
CONTINUOUS
 10
79.993964
 20
46.578497
  0
SEQEND
  8
4
  6
CONTINUOUS
  0
LINE
  8
4
  6
CONTINUOUS
 10
91.640174
 20
3.944902
 11
91.555835
 21
2.948465
  0
LINE
  8
4
  6
CONTINUOUS
 10
91.456191
 20
2.956899
 11
91.655478
 21
2.940031
  0
LINE
  8
4
  6
CONTINUOUS
 10
91.457878
 20
2.976827
 11
91.657165
 21
2.959960
  0
LINE
  8
4
  6
CONTINUOUS
 10
91.459565
 20
2.996756
 11
91.658852
 21
2.979888
  0
LINE
  8
4
  6
CONTINUOUS
 10
95.140186
 20
45.296517
 11
95.203440
 21
46.043845
  0
LINE
  8
4
  6
CONTINUOUS
 10
95.259490
 20
46.039101
 11
95.147390
 21
46.048589
  0
LINE
  8
4
  6
CONTINUOUS
 10
95.259490
 20
46.039101
 11
95.266694
 21
46.791173
  0
LINE
  8
4
  6
CONTINUOUS
 10
95.147390
 20
46.048589
 11
95.266694
 21
46.791173
  0
LINE
  8
4
  6
CONTINUOUS
 10
95.302888
 20
45.884892
 11
95.078690
 21
45.903868
  0
LINE
  8
4
  6
CONTINUOUS
 10
95.294982
 20
45.791476
 11
95.070783
 21
45.810452
  0
LINE
  8
4
  6
CONTINUOUS
 10
95.287075
 20
45.698060
 11
95.062877
 21
45.717036
  0
POLYLINE
  8
4
  6
CONTINUOUS
 66
     1
  0
VERTEX
  8
4
  6
CONTINUOUS
 10
91.640174
 20
3.944902
  0
VERTEX
  8
4
  6
CONTINUOUS
 10
95.140186
 20
45.296517
  0
SEQEND
  8
4
  6
CONTINUOUS
  0
LINE
  8
4
  6
CONTINUOUS
 10
92.071963
 20
3.908355
 11
91.987624
 21
2.911918
  0
LINE
  8
4
  6
CONTINUOUS
 10
91.887980
 20
2.920352
 11
92.087268
 21
2.903484
  0
LINE
  8
4
  6
CONTINUOUS
 10
91.889667
 20
2.940281
 11
92.088955
 21
2.923413
  0
LINE
  8
4
  6
CONTINUOUS
 10
91.891354
 20
2.960209
 11
92.090641
 21
2.943342
  0
LINE
  8
4
  6
CONTINUOUS
 10
95.571975
 20
45.259971
 11
95.635230
 21
46.007298
  0
LINE
  8
4
  6
CONTINUOUS
 10
95.691279
 20
46.002554
 11
95.579180
 21
46.012042
  0
LINE
  8
4
  6
CONTINUOUS
 10
95.691279
 20
46.002554
 11
95.698484
 21
46.754626
  0
LINE
  8
4
  6
CONTINUOUS
 10
95.579180
 20
46.012042
 11
95.698484
 21
46.754626
  0
LINE
  8
4
  6
CONTINUOUS
 10
95.734678
 20
45.848345
 11
95.510480
 21
45.867321
  0
LINE
  8
4
  6
CONTINUOUS
 10
95.726771
 20
45.754929
 11
95.502573
 21
45.773905
  0
LINE
  8
4
  6
CONTINUOUS
 10
95.718864
 20
45.661513
 11
95.494666
 21
45.680489
  0
POLYLINE
  8
4
  6
CONTINUOUS
 66
     1
  0
VERTEX
  8
4
  6
CONTINUOUS
 10
92.071963
 20
3.908355
  0
VERTEX
  8
4
  6
CONTINUOUS
 10
95.571975
 20
45.259971
  0
SEQEND
  8
4
  6
CONTINUOUS
  0
LINE
  8
4
  6
CONTINUOUS
 10
92.503752
 20
3.871808
 11
92.419414
 21
2.875371
  0
LINE
  8
4
  6
CONTINUOUS
 10
92.319770
 20
2.883805
 11
92.519057
 21
2.866937
  0
LINE
  8
4
  6
CONTINUOUS
 10
92.321457
 20
2.903734
 11
92.520744
 21
2.886866
  0
LINE
  8
4
  6
CONTINUOUS
 10
92.323143
 20
2.923663
 11
92.522431
 21
2.906795
  0
LINE
  8
4
  6
CONTINUOUS
 10
96.003765
 20
45.223424
 11
96.067019
 21
45.970752
  0
LINE
  8
4
  6
CONTINUOUS
 10
96.123069
 20
45.966008
 11
96.010969
 21
45.975496
  0
LINE
  8
4
  6
CONTINUOUS
 10
96.123069
 20
45.966008
 11
96.130273
 21
46.718080
  0
LINE
  8
4
  6
CONTINUOUS
 10
96.010969
 20
45.975496
 11
96.130273
 21
46.718080
  0
LINE
  8
4
  6
CONTINUOUS
 10
96.166467
 20
45.811798
 11
95.942269
 21
45.830774
  0
LINE
  8
4
  6
CONTINUOUS
 10
96.158561
 20
45.718382
 11
95.934362
 21
45.737358
  0
LINE
  8
4
  6
CONTINUOUS
 10
96.150654
 20
45.624966
 11
95.926455
 21
45.643942
  0
POLYLINE
  8
4
  6
CONTINUOUS
 66
     1
  0
VERTEX
  8
4
  6
CONTINUOUS
 10
92.503752
 20
3.871808
  0
VERTEX
  8
4
  6
CONTINUOUS
 10
96.003765
 20
45.223424
  0
SEQEND
  8
4
  6
CONTINUOUS
  0
LINE
  8
4
  6
CONTINUOUS
 10
93.402934
 20
8.761331
 11
94.150262
 21
8.698076
  0
LINE
  8
4
  6
CONTINUOUS
 10
94.145518
 20
8.642027
 11
94.155006
 21
8.754126
  0
LINE
  8
4
  6
CONTINUOUS
 10
94.145518
 20
8.642027
 11
94.897590
 21
8.634821
  0
LINE
  8
4
  6
CONTINUOUS
 10
94.155006
 20
8.754126
 11
94.897590
 21
8.634821
  0
LINE
  8
4
  6
CONTINUOUS
 10
93.991308
 20
8.598628
 11
94.010285
 21
8.822826
  0
LINE
  8
4
  6
CONTINUOUS
 10
93.897892
 20
8.606535
 11
93.916869
 21
8.830733
  0
LINE
  8
4
  6
CONTINUOUS
 10
93.804476
 20
8.614442
 11
93.823453
 21
8.838640
  0
LINE
  8
4
  6
CONTINUOUS
 10
6.316600
 20
16.132475
 11
5.320163
 21
16.216816
  0
LINE
  8
4
  6
CONTINUOUS
 10
5.328597
 20
16.316459
 11
5.311729
 21
16.117172
  0
LINE
  8
4
  6
CONTINUOUS
 10
5.348526
 20
16.314773
 11
5.331658
 21
16.115485
  0
LINE
  8
4
  6
CONTINUOUS
 10
5.368455
 20
16.313086
 11
5.351587
 21
16.113798
  0
POLYLINE
  8
4
  6
CONTINUOUS
 66
     1
  0
VERTEX
  8
4
  6
CONTINUOUS
 10
6.316600
 20
16.132475
  0
VERTEX
  8
4
  6
CONTINUOUS
 10
93.402934
 20
8.761331
  0
SEQEND
  8
4
  6
CONTINUOUS
  0
LINE
  8
4
  6
CONTINUOUS
 10
93.476029
 20
9.624910
 11
94.223357
 21
9.561655
  0
LINE
  8
4
  6
CONTINUOUS
 10
94.218613
 20
9.505605
 11
94.228101
 21
9.617705
  0
LINE
  8
4
  6
CONTINUOUS
 10
94.218613
 20
9.505605
 11
94.970684
 21
9.498400
  0
LINE
  8
4
  6
CONTINUOUS
 10
94.228101
 20
9.617705
 11
94.970684
 21
9.498400
  0
LINE
  8
4
  6
CONTINUOUS
 10
94.064403
 20
9.462207
 11
94.083379
 21
9.686405
  0
LINE
  8
4
  6
CONTINUOUS
 10
93.970987
 20
9.470114
 11
93.989963
 21
9.694312
  0
LINE
  8
4
  6
CONTINUOUS
 10
93.877571
 20
9.478021
 11
93.896547
 21
9.702219
  0
LINE
  8
4
  6
CONTINUOUS
 10
6.389695
 20
16.996054
 11
5.393258
 21
17.080394
  0
LINE
  8
4
  6
CONTINUOUS
 10
5.401692
 20
17.180038
 11
5.384824
 21
16.980751
  0
LINE
  8
4
  6
CONTINUOUS
 10
5.421621
 20
17.178351
 11
5.404753
 21
16.979064
  0
LINE
  8
4
  6
CONTINUOUS
 10
5.441550
 20
17.176665
 11
5.424682
 21
16.977377
  0
POLYLINE
  8
4
  6
CONTINUOUS
 66
     1
  0
VERTEX
  8
4
  6
CONTINUOUS
 10
6.389695
 20
16.996054
  0
VERTEX
  8
4
  6
CONTINUOUS
 10
93.476029
 20
9.624910
  0
SEQEND
  8
4
  6
CONTINUOUS
  0
LINE
  8
4
  6
CONTINUOUS
 10
93.549124
 20
10.488489
 11
94.296452
 21
10.425234
  0
LINE
  8
4
  6
CONTINUOUS
 10
94.291707
 20
10.369184
 11
94.301196
 21
10.481283
  0
LINE
  8
4
  6
CONTINUOUS
 10
94.291707
 20
10.369184
 11
95.043779
 21
10.361979
  0
LINE
  8
4
  6
CONTINUOUS
 10
94.301196
 20
10.481283
 11
95.043779
 21
10.361979
  0
LINE
  8
4
  6
CONTINUOUS
 10
94.137498
 20
10.325786
 11
94.156474
 21
10.549984
  0
LINE
  8
4
  6
CONTINUOUS
 10
94.044082
 20
10.333693
 11
94.063058
 21
10.557891
  0
LINE
  8
4
  6
CONTINUOUS
 10
93.950666
 20
10.341599
 11
93.969642
 21
10.565798
  0
LINE
  8
4
  6
CONTINUOUS
 10
6.462790
 20
17.859633
 11
5.466353
 21
17.943973
  0
LINE
  8
4
  6
CONTINUOUS
 10
5.474787
 20
18.043617
 11
5.457919
 21
17.844330
  0
LINE
  8
4
  6
CONTINUOUS
 10
5.494716
 20
18.041930
 11
5.477848
 21
17.842643
  0
LINE
  8
4
  6
CONTINUOUS
 10
5.514645
 20
18.040243
 11
5.497776
 21
17.840956
  0
POLYLINE
  8
4
  6
CONTINUOUS
 66
     1
  0
VERTEX
  8
4
  6
CONTINUOUS
 10
6.462790
 20
17.859633
  0
VERTEX
  8
4
  6
CONTINUOUS
 10
93.549124
 20
10.488489
  0
SEQEND
  8
4
  6
CONTINUOUS
  0
LINE
  8
4
  6
CONTINUOUS
 10
93.622219
 20
11.352068
 11
94.369546
 21
11.288813
  0
LINE
  8
4
  6
CONTINUOUS
 10
94.364802
 20
11.232763
 11
94.374291
 21
11.344862
  0
LINE
  8
4
  6
CONTINUOUS
 10
94.364802
 20
11.232763
 11
95.116874
 21
11.225557
  0
LINE
  8
4
  6
CONTINUOUS
 10
94.374291
 20
11.344862
 11
95.116874
 21
11.225557
  0
LINE
  8
4
  6
CONTINUOUS
 10
94.210593
 20
11.189364
 11
94.229569
 21
11.413563
  0
LINE
  8
4
  6
CONTINUOUS
 10
94.117177
 20
11.197271
 11
94.136153
 21
11.421470
  0
LINE
  8
4
  6
CONTINUOUS
 10
94.023761
 20
11.205178
 11
94.042737
 21
11.429377
  0
LINE
  8
4
  6
CONTINUOUS
 10
6.535885
 20
18.723212
 11
5.539448
 21
18.807552
  0
LINE
  8
4
  6
CONTINUOUS
 10
5.547882
 20
18.907196
 11
5.531014
 21
18.707908
  0
LINE
  8
4
  6
CONTINUOUS
 10
5.567811
 20
18.905509
 11
5.550943
 21
18.706221
  0
LINE
  8
4
  6
CONTINUOUS
 10
5.587739
 20
18.903822
 11
5.570871
 21
18.704535
  0
POLYLINE
  8
4
  6
CONTINUOUS
 66
     1
  0
VERTEX
  8
4
  6
CONTINUOUS
 10
6.535885
 20
18.723212
  0
VERTEX
  8
4
  6
CONTINUOUS
 10
93.622219
 20
11.352068
  0
SEQEND
  8
4
  6
CONTINUOUS
  0
LINE
  8
4
  6
CONTINUOUS
 10
93.695314
 20
12.215646
 11
94.442641
 21
12.152391
  0
LINE
  8
4
  6
CONTINUOUS
 10
94.437897
 20
12.096342
 11
94.447385
 21
12.208441
  0
LINE
  8
4
  6
CONTINUOUS
 10
94.437897
 20
12.096342
 11
95.189969
 21
12.089136
  0
LINE
  8
4
  6
CONTINUOUS
 10
94.447385
 20
12.208441
 11
95.189969
 21
12.089136
  0
LINE
  8
4
  6
CONTINUOUS
 10
94.283687
 20
12.052943
 11
94.302664
 21
12.277141
  0
LINE
  8
4
  6
CONTINUOUS
 10
94.190271
 20
12.060850
 11
94.209248
 21
12.285048
  0
LINE
  8
4
  6
CONTINUOUS
 10
94.096856
 20
12.068757
 11
94.115832
 21
12.292955
  0
LINE
  8
4
  6
CONTINUOUS
 10
6.608980
 20
19.586790
 11
5.612543
 21
19.671131
  0
LINE
  8
4
  6
CONTINUOUS
 10
5.620977
 20
19.770774
 11
5.604109
 21
19.571487
  0
LINE
  8
4
  6
CONTINUOUS
 10
5.640906
 20
19.769088
 11
5.624037
 21
19.569800
  0
LINE
  8
4
  6
CONTINUOUS
 10
5.660834
 20
19.767401
 11
5.643966
 21
19.568113
  0
POLYLINE
  8
4
  6
CONTINUOUS
 66
     1
  0
VERTEX
  8
4
  6
CONTINUOUS
 10
6.608980
 20
19.586790
  0
VERTEX
  8
4
  6
CONTINUOUS
 10
93.695314
 20
12.215646
  0
SEQEND
  8
4
  6
CONTINUOUS
  0
LINE
  8
4
  6
CONTINUOUS
 10
93.768408
 20
13.079225
 11
94.515736
 21
13.015970
  0
LINE
  8
4
  6
CONTINUOUS
 10
94.510992
 20
12.959920
 11
94.520480
 21
13.072020
  0
LINE
  8
4
  6
CONTINUOUS
 10
94.510992
 20
12.959920
 11
95.263064
 21
12.952715
  0
LINE
  8
4
  6
CONTINUOUS
 10
94.520480
 20
13.072020
 11
95.263064
 21
12.952715
  0
LINE
  8
4
  6
CONTINUOUS
 10
94.356782
 20
12.916522
 11
94.375759
 21
13.140720
  0
LINE
  8
4
  6
CONTINUOUS
 10
94.263366
 20
12.924429
 11
94.282343
 21
13.148627
  0
LINE
  8
4
  6
CONTINUOUS
 10
94.169950
 20
12.932336
 11
94.188927
 21
13.156534
  0
LINE
  8
4
  6
CONTINUOUS
 10
6.682075
 20
20.450369
 11
5.685638
 21
20.534709
  0
LINE
  8
4
  6
CONTINUOUS
 10
5.694072
 20
20.634353
 11
5.677204
 21
20.435066
  0
LINE
  8
4
  6
CONTINUOUS
 10
5.714000
 20
20.632666
 11
5.697132
 21
20.433379
  0
LINE
  8
4
  6
CONTINUOUS
 10
5.733929
 20
20.630980
 11
5.717061
 21
20.431692
  0
POLYLINE
  8
4
  6
CONTINUOUS
 66
     1
  0
VERTEX
  8
4
  6
CONTINUOUS
 10
6.682075
 20
20.450369
  0
VERTEX
  8
4
  6
CONTINUOUS
 10
93.768408
 20
13.079225
  0
SEQEND
  8
4
  6
CONTINUOUS
  0
LINE
  8
4
  6
CONTINUOUS
 10
93.841503
 20
13.942804
 11
94.588831
 21
13.879549
  0
LINE
  8
4
  6
CONTINUOUS
 10
94.584087
 20
13.823499
 11
94.593575
 21
13.935598
  0
LINE
  8
4
  6
CONTINUOUS
 10
94.584087
 20
13.823499
 11
95.336159
 21
13.816294
  0
LINE
  8
4
  6
CONTINUOUS
 10
94.593575
 20
13.935598
 11
95.336159
 21
13.816294
  0
LINE
  8
4
  6
CONTINUOUS
 10
94.429877
 20
13.780101
 11
94.448854
 21
14.004299
  0
LINE
  8
4
  6
CONTINUOUS
 10
94.336461
 20
13.788008
 11
94.355438
 21
14.012206
  0
LINE
  8
4
  6
CONTINUOUS
 10
94.243045
 20
13.795914
 11
94.262022
 21
14.020113
  0
LINE
  8
4
  6
CONTINUOUS
 10
6.755169
 20
21.313948
 11
5.758732
 21
21.398288
  0
LINE
  8
4
  6
CONTINUOUS
 10
5.767166
 20
21.497932
 11
5.750298
 21
21.298645
  0
LINE
  8
4
  6
CONTINUOUS
 10
5.787095
 20
21.496245
 11
5.770227
 21
21.296958
  0
LINE
  8
4
  6
CONTINUOUS
 10
5.807024
 20
21.494558
 11
5.790156
 21
21.295271
  0
POLYLINE
  8
4
  6
CONTINUOUS
 66
     1
  0
VERTEX
  8
4
  6
CONTINUOUS
 10
6.755169
 20
21.313948
  0
VERTEX
  8
4
  6
CONTINUOUS
 10
93.841503
 20
13.942804
  0
SEQEND
  8
4
  6
CONTINUOUS
  0
LINE
  8
4
  6
CONTINUOUS
 10
93.914598
 20
14.806383
 11
94.661926
 21
14.743128
  0
LINE
  8
4
  6
CONTINUOUS
 10
94.657182
 20
14.687078
 11
94.666670
 21
14.799177
  0
LINE
  8
4
  6
CONTINUOUS
 10
94.657182
 20
14.687078
 11
95.409254
 21
14.679872
  0
LINE
  8
4
  6
CONTINUOUS
 10
94.666670
 20
14.799177
 11
95.409254
 21
14.679872
  0
LINE
  8
4
  6
CONTINUOUS
 10
94.502972
 20
14.643679
 11
94.521949
 21
14.867878
  0
LINE
  8
4
  6
CONTINUOUS
 10
94.409556
 20
14.651586
 11
94.428533
 21
14.875785
  0
LINE
  8
4
  6
CONTINUOUS
 10
94.316140
 20
14.659493
 11
94.335117
 21
14.883691
  0
LINE
  8
4
  6
CONTINUOUS
 10
6.828264
 20
22.177527
 11
5.831827
 21
22.261867
  0
LINE
  8
4
  6
CONTINUOUS
 10
5.840261
 20
22.361511
 11
5.823393
 21
22.162223
  0
LINE
  8
4
  6
CONTINUOUS
 10
5.860190
 20
22.359824
 11
5.843322
 21
22.160536
  0
LINE
  8
4
  6
CONTINUOUS
 10
5.880119
 20
22.358137
 11
5.863251
 21
22.158850
  0
POLYLINE
  8
4
  6
CONTINUOUS
 66
     1
  0
VERTEX
  8
4
  6
CONTINUOUS
 10
6.828264
 20
22.177527
  0
VERTEX
  8
4
  6
CONTINUOUS
 10
93.914598
 20
14.806383
  0
SEQEND
  8
4
  6
CONTINUOUS
  0
LINE
  8
4
  6
CONTINUOUS
 10
93.987693
 20
15.669961
 11
94.735021
 21
15.606706
  0
LINE
  8
4
  6
CONTINUOUS
 10
94.730277
 20
15.550657
 11
94.739765
 21
15.662756
  0
LINE
  8
4
  6
CONTINUOUS
 10
94.730277
 20
15.550657
 11
95.482348
 21
15.543451
  0
LINE
  8
4
  6
CONTINUOUS
 10
94.739765
 20
15.662756
 11
95.482348
 21
15.543451
  0
LINE
  8
4
  6
CONTINUOUS
 10
94.576067
 20
15.507258
 11
94.595043
 21
15.731456
  0
LINE
  8
4
  6
CONTINUOUS
 10
94.482651
 20
15.515165
 11
94.501627
 21
15.739363
  0
LINE
  8
4
  6
CONTINUOUS
 10
94.389235
 20
15.523072
 11
94.408212
 21
15.747270
  0
LINE
  8
4
  6
CONTINUOUS
 10
6.901359
 20
23.041105
 11
5.904922
 21
23.125446
  0
LINE
  8
4
  6
CONTINUOUS
 10
5.913356
 20
23.225089
 11
5.896488
 21
23.025802
  0
LINE
  8
4
  6
CONTINUOUS
 10
5.933285
 20
23.223403
 11
5.916417
 21
23.024115
  0
LINE
  8
4
  6
CONTINUOUS
 10
5.953214
 20
23.221716
 11
5.936346
 21
23.022428
  0
POLYLINE
  8
4
  6
CONTINUOUS
 66
     1
  0
VERTEX
  8
4
  6
CONTINUOUS
 10
6.901359
 20
23.041105
  0
VERTEX
  8
4
  6
CONTINUOUS
 10
93.987693
 20
15.669961
  0
SEQEND
  8
4
  6
CONTINUOUS
  0
LINE
  8
4
  6
CONTINUOUS
 10
94.060788
 20
16.533540
 11
94.808116
 21
16.470285
  0
LINE
  8
4
  6
CONTINUOUS
 10
94.803371
 20
16.414235
 11
94.812860
 21
16.526335
  0
LINE
  8
4
  6
CONTINUOUS
 10
94.803371
 20
16.414235
 11
95.555443
 21
16.407030
  0
LINE
  8
4
  6
CONTINUOUS
 10
94.812860
 20
16.526335
 11
95.555443
 21
16.407030
  0
LINE
  8
4
  6
CONTINUOUS
 10
94.649162
 20
16.370837
 11
94.668138
 21
16.595035
  0
LINE
  8
4
  6
CONTINUOUS
 10
94.555746
 20
16.378744
 11
94.574722
 21
16.602942
  0
LINE
  8
4
  6
CONTINUOUS
 10
94.462330
 20
16.386651
 11
94.481306
 21
16.610849
  0
LINE
  8
4
  6
CONTINUOUS
 10
6.974454
 20
23.904684
 11
5.978017
 21
23.989024
  0
LINE
  8
4
  6
CONTINUOUS
 10
5.986451
 20
24.088668
 11
5.969583
 21
23.889381
  0
LINE
  8
4
  6
CONTINUOUS
 10
6.006380
 20
24.086981
 11
5.989512
 21
23.887694
  0
LINE
  8
4
  6
CONTINUOUS
 10
6.026309
 20
24.085295
 11
6.009440
 21
23.886007
  0
POLYLINE
  8
4
  6
CONTINUOUS
 66
     1
  0
VERTEX
  8
4
  6
CONTINUOUS
 10
6.974454
 20
23.904684
  0
VERTEX
  8
4
  6
CONTINUOUS
 10
94.060788
 20
16.533540
  0
SEQEND
  8
4
  6
CONTINUOUS
  0
LINE
  8
4
  6
CONTINUOUS
 10
94.133883
 20
17.397119
 11
94.881210
 21
17.333864
  0
LINE
  8
4
  6
CONTINUOUS
 10
94.876466
 20
17.277814
 11
94.885955
 21
17.389913
  0
LINE
  8
4
  6
CONTINUOUS
 10
94.876466
 20
17.277814
 11
95.628538
 21
17.270609
  0
LINE
  8
4
  6
CONTINUOUS
 10
94.885955
 20
17.389913
 11
95.628538
 21
17.270609
  0
LINE
  8
4
  6
CONTINUOUS
 10
94.722257
 20
17.234416
 11
94.741233
 21
17.458614
  0
LINE
  8
4
  6
CONTINUOUS
 10
94.628841
 20
17.242323
 11
94.647817
 21
17.466521
  0
LINE
  8
4
  6
CONTINUOUS
 10
94.535425
 20
17.250229
 11
94.554401
 21
17.474428
  0
LINE
  8
4
  6
CONTINUOUS
 10
7.047549
 20
24.768263
 11
6.051112
 21
24.852603
  0
LINE
  8
4
  6
CONTINUOUS
 10
6.059546
 20
24.952247
 11
6.042678
 21
24.752959
  0
LINE
  8
4
  6
CONTINUOUS
 10
6.079475
 20
24.950560
 11
6.062607
 21
24.751273
  0
LINE
  8
4
  6
CONTINUOUS
 10
6.099403
 20
24.948873
 11
6.082535
 21
24.749586
  0
POLYLINE
  8
4
  6
CONTINUOUS
 66
     1
  0
VERTEX
  8
4
  6
CONTINUOUS
 10
7.047549
 20
24.768263
  0
VERTEX
  8
4
  6
CONTINUOUS
 10
94.133883
 20
17.397119
  0
SEQEND
  8
4
  6
CONTINUOUS
  0
LINE
  8
4
  6
CONTINUOUS
 10
94.206978
 20
18.260698
 11
94.954305
 21
18.197442
  0
LINE
  8
4
  6
CONTINUOUS
 10
94.949561
 20
18.141393
 11
94.959049
 21
18.253492
  0
LINE
  8
4
  6
CONTINUOUS
 10
94.949561
 20
18.141393
 11
95.701633
 21
18.134187
  0
LINE
  8
4
  6
CONTINUOUS
 10
94.959049
 20
18.253492
 11
95.701633
 21
18.134187
  0
LINE
  8
4
  6
CONTINUOUS
 10
94.795351
 20
18.097994
 11
94.814328
 21
18.322193
  0
LINE
  8
4
  6
CONTINUOUS
 10
94.701936
 20
18.105901
 11
94.720912
 21
18.330100
  0
LINE
  8
4
  6
CONTINUOUS
 10
94.608520
 20
18.113808
 11
94.627496
 21
18.338006
  0
LINE
  8
4
  6
CONTINUOUS
 10
7.120644
 20
25.631842
 11
6.124207
 21
25.716182
  0
LINE
  8
4
  6
CONTINUOUS
 10
6.132641
 20
25.815826
 11
6.115773
 21
25.616538
  0
LINE
  8
4
  6
CONTINUOUS
 10
6.152570
 20
25.814139
 11
6.135701
 21
25.614851
  0
LINE
  8
4
  6
CONTINUOUS
 10
6.172498
 20
25.812452
 11
6.155630
 21
25.613165
  0
POLYLINE
  8
4
  6
CONTINUOUS
 66
     1
  0
VERTEX
  8
4
  6
CONTINUOUS
 10
7.120644
 20
25.631842
  0
VERTEX
  8
4
  6
CONTINUOUS
 10
94.206978
 20
18.260698
  0
SEQEND
  8
4
  6
CONTINUOUS
  0
LINE
  8
4
  6
CONTINUOUS
 10
92.991004
 20
3.888917
 11
93.738332
 21
3.825662
  0
LINE
  8
4
  6
CONTINUOUS
 10
93.733588
 20
3.769613
 11
93.743076
 21
3.881712
  0
LINE
  8
4
  6
CONTINUOUS
 10
93.733588
 20
3.769613
 11
94.485660
 21
3.762407
  0
LINE
  8
4
  6
CONTINUOUS
 10
93.743076
 20
3.881712
 11
94.485660
 21
3.762407
  0
LINE
  8
4
  6
CONTINUOUS
 10
93.566921
 20
3.727268
 11
93.585898
 21
3.951467
  0
LINE
  8
4
  6
CONTINUOUS
 10
93.442367
 20
3.737811
 11
93.461344
 21
3.962009
  0
LINE
  8
4
  6
CONTINUOUS
 10
6.513168
 20
11.208553
 11
5.516731
 21
11.292893
  0
LINE
  8
4
  6
CONTINUOUS
 10
5.525165
 20
11.392537
 11
5.508297
 21
11.193250
  0
LINE
  8
4
  6
CONTINUOUS
 10
5.545093
 20
11.390850
 11
5.528225
 21
11.191563
  0
LINE
  8
4
  6
CONTINUOUS
 10
5.565022
 20
11.389164
 11
5.548154
 21
11.189876
  0
POLYLINE
  8
4
  6
CONTINUOUS
 66
     1
  0
VERTEX
  8
4
  6
CONTINUOUS
 10
6.513168
 20
11.208553
  0
VERTEX
  8
4
  6
CONTINUOUS
 10
92.991004
 20
3.888917
  0
SEQEND
  8
4
  6
CONTINUOUS
  0
LINE
  8
4
  6
CONTINUOUS
 10
93.137194
 20
5.616075
 11
93.884521
 21
5.552820
  0
LINE
  8
4
  6
CONTINUOUS
 10
93.879777
 20
5.496770
 11
93.889266
 21
5.608869
  0
LINE
  8
4
  6
CONTINUOUS
 10
93.879777
 20
5.496770
 11
94.631849
 21
5.489565
  0
LINE
  8
4
  6
CONTINUOUS
 10
93.889266
 20
5.608869
 11
94.631849
 21
5.489565
  0
LINE
  8
4
  6
CONTINUOUS
 10
93.713111
 20
5.454426
 11
93.732088
 21
5.678624
  0
LINE
  8
4
  6
CONTINUOUS
 10
93.588557
 20
5.464968
 11
93.607534
 21
5.689167
  0
LINE
  8
4
  6
CONTINUOUS
 10
6.659357
 20
12.935711
 11
5.662920
 21
13.020051
  0
LINE
  8
4
  6
CONTINUOUS
 10
5.671354
 20
13.119695
 11
5.654486
 21
12.920407
  0
LINE
  8
4
  6
CONTINUOUS
 10
5.691283
 20
13.118008
 11
5.674415
 21
12.918720
  0
LINE
  8
4
  6
CONTINUOUS
 10
5.711212
 20
13.116321
 11
5.694344
 21
12.917034
  0
POLYLINE
  8
4
  6
CONTINUOUS
 66
     1
  0
VERTEX
  8
4
  6
CONTINUOUS
 10
6.659357
 20
12.935711
  0
VERTEX
  8
4
  6
CONTINUOUS
 10
93.137194
 20
5.616075
  0
SEQEND
  8
4
  6
CONTINUOUS
  0
LINE
  8
4
  6
CONTINUOUS
 10
93.283383
 20
7.343232
 11
94.030711
 21
7.279977
  0
LINE
  8
4
  6
CONTINUOUS
 10
94.025967
 20
7.223928
 11
94.035455
 21
7.336027
  0
LINE
  8
4
  6
CONTINUOUS
 10
94.025967
 20
7.223928
 11
94.778039
 21
7.216722
  0
LINE
  8
4
  6
CONTINUOUS
 10
94.035455
 20
7.336027
 11
94.778039
 21
7.216722
  0
LINE
  8
4
  6
CONTINUOUS
 10
93.859301
 20
7.181583
 11
93.878277
 21
7.405782
  0
LINE
  8
4
  6
CONTINUOUS
 10
93.734747
 20
7.192126
 11
93.753723
 21
7.416324
  0
LINE
  8
4
  6
CONTINUOUS
 10
6.805547
 20
14.662868
 11
5.809110
 21
14.747208
  0
LINE
  8
4
  6
CONTINUOUS
 10
5.817544
 20
14.846852
 11
5.800676
 21
14.647565
  0
LINE
  8
4
  6
CONTINUOUS
 10
5.837473
 20
14.845165
 11
5.820605
 21
14.645878
  0
LINE
  8
4
  6
CONTINUOUS
 10
5.857401
 20
14.843479
 11
5.840533
 21
14.644191
  0
POLYLINE
  8
4
  6
CONTINUOUS
 66
     1
  0
VERTEX
  8
4
  6
CONTINUOUS
 10
6.805547
 20
14.662868
  0
VERTEX
  8
4
  6
CONTINUOUS
 10
93.283383
 20
7.343232
  0
SEQEND
  8
4
  6
CONTINUOUS
  0
LINE
  8
4
  6
CONTINUOUS
 10
94.296674
 20
19.319862
 11
95.044001
 21
19.256606
  0
LINE
  8
4
  6
CONTINUOUS
 10
95.039257
 20
19.200557
 11
95.048745
 21
19.312656
  0
LINE
  8
4
  6
CONTINUOUS
 10
95.039257
 20
19.200557
 11
95.791329
 21
19.193351
  0
LINE
  8
4
  6
CONTINUOUS
 10
95.048745
 20
19.312656
 11
95.791329
 21
19.193351
  0
LINE
  8
4
  6
CONTINUOUS
 10
94.885047
 20
19.157158
 11
94.904024
 21
19.381357
  0
LINE
  8
4
  6
CONTINUOUS
 10
94.791632
 20
19.165065
 11
94.810608
 21
19.389263
  0
LINE
  8
4
  6
CONTINUOUS
 10
94.698216
 20
19.172972
 11
94.717192
 21
19.397170
  0
LINE
  8
4
  6
CONTINUOUS
 10
5.814818
 20
26.809134
 11
4.818381
 21
26.893474
  0
LINE
  8
4
  6
CONTINUOUS
 10
4.826815
 20
26.993118
 11
4.809947
 21
26.793831
  0
LINE
  8
4
  6
CONTINUOUS
 10
4.846744
 20
26.991431
 11
4.829876
 21
26.792144
  0
LINE
  8
4
  6
CONTINUOUS
 10
4.866673
 20
26.989744
 11
4.849805
 21
26.790457
  0
POLYLINE
  8
4
  6
CONTINUOUS
 66
     1
  0
VERTEX
  8
4
  6
CONTINUOUS
 10
5.814818
 20
26.809134
  0
VERTEX
  8
4
  6
CONTINUOUS
 10
94.296674
 20
19.319862
  0
SEQEND
  8
4
  6
CONTINUOUS
  0
LINE
  8
4
  6
CONTINUOUS
 10
94.369769
 20
20.183440
 11
95.117096
 21
20.120185
  0
LINE
  8
4
  6
CONTINUOUS
 10
95.112352
 20
20.064136
 11
95.121840
 21
20.176235
  0
LINE
  8
4
  6
CONTINUOUS
 10
95.112352
 20
20.064136
 11
95.864424
 21
20.056930
  0
LINE
  8
4
  6
CONTINUOUS
 10
95.121840
 20
20.176235
 11
95.864424
 21
20.056930
  0
LINE
  8
4
  6
CONTINUOUS
 10
94.958142
 20
20.020737
 11
94.977119
 21
20.244935
  0
LINE
  8
4
  6
CONTINUOUS
 10
94.864726
 20
20.028644
 11
94.883703
 21
20.252842
  0
LINE
  8
4
  6
CONTINUOUS
 10
94.771311
 20
20.036551
 11
94.790287
 21
20.260749
  0
LINE
  8
4
  6
CONTINUOUS
 10
5.887913
 20
27.672713
 11
4.891476
 21
27.757053
  0
LINE
  8
4
  6
CONTINUOUS
 10
4.899910
 20
27.856697
 11
4.883042
 21
27.657409
  0
LINE
  8
4
  6
CONTINUOUS
 10
4.919839
 20
27.855010
 11
4.902971
 21
27.655723
  0
LINE
  8
4
  6
CONTINUOUS
 10
4.939768
 20
27.853323
 11
4.922900
 21
27.654036
  0
POLYLINE
  8
4
  6
CONTINUOUS
 66
     1
  0
VERTEX
  8
4
  6
CONTINUOUS
 10
5.887913
 20
27.672713
  0
VERTEX
  8
4
  6
CONTINUOUS
 10
94.369769
 20
20.183440
  0
SEQEND
  8
4
  6
CONTINUOUS
  0
LINE
  8
4
  6
CONTINUOUS
 10
94.442863
 20
21.047019
 11
95.190191
 21
20.983764
  0
LINE
  8
4
  6
CONTINUOUS
 10
95.185447
 20
20.927714
 11
95.194935
 21
21.039813
  0
LINE
  8
4
  6
CONTINUOUS
 10
95.185447
 20
20.927714
 11
95.937519
 21
20.920509
  0
LINE
  8
4
  6
CONTINUOUS
 10
95.194935
 20
21.039813
 11
95.937519
 21
20.920509
  0
LINE
  8
4
  6
CONTINUOUS
 10
95.031237
 20
20.884316
 11
95.050214
 21
21.108514
  0
LINE
  8
4
  6
CONTINUOUS
 10
94.937821
 20
20.892223
 11
94.956798
 21
21.116421
  0
LINE
  8
4
  6
CONTINUOUS
 10
94.844405
 20
20.900130
 11
94.863382
 21
21.124328
  0
LINE
  8
4
  6
CONTINUOUS
 10
5.961008
 20
28.536292
 11
4.964571
 21
28.620632
  0
LINE
  8
4
  6
CONTINUOUS
 10
4.973005
 20
28.720276
 11
4.956137
 21
28.520988
  0
LINE
  8
4
  6
CONTINUOUS
 10
4.992934
 20
28.718589
 11
4.976066
 21
28.519301
  0
LINE
  8
4
  6
CONTINUOUS
 10
5.012863
 20
28.716902
 11
4.995995
 21
28.517615
  0
POLYLINE
  8
4
  6
CONTINUOUS
 66
     1
  0
VERTEX
  8
4
  6
CONTINUOUS
 10
5.961008
 20
28.536292
  0
VERTEX
  8
4
  6
CONTINUOUS
 10
94.442863
 20
21.047019
  0
SEQEND
  8
4
  6
CONTINUOUS
  0
LINE
  8
4
  6
CONTINUOUS
 10
94.515958
 20
21.910598
 11
95.263286
 21
21.847343
  0
LINE
  8
4
  6
CONTINUOUS
 10
95.258542
 20
21.791293
 11
95.268030
 21
21.903392
  0
LINE
  8
4
  6
CONTINUOUS
 10
95.258542
 20
21.791293
 11
96.010614
 21
21.784087
  0
LINE
  8
4
  6
CONTINUOUS
 10
95.268030
 20
21.903392
 11
96.010614
 21
21.784087
  0
LINE
  8
4
  6
CONTINUOUS
 10
95.104332
 20
21.747894
 11
95.123309
 21
21.972093
  0
LINE
  8
4
  6
CONTINUOUS
 10
95.010916
 20
21.755801
 11
95.029893
 21
21.980000
  0
LINE
  8
4
  6
CONTINUOUS
 10
94.917500
 20
21.763708
 11
94.936477
 21
21.987907
  0
LINE
  8
4
  6
CONTINUOUS
 10
6.034103
 20
29.399870
 11
5.037666
 21
29.484211
  0
LINE
  8
4
  6
CONTINUOUS
 10
5.046100
 20
29.583854
 11
5.029232
 21
29.384567
  0
LINE
  8
4
  6
CONTINUOUS
 10
5.066029
 20
29.582168
 11
5.049161
 21
29.382880
  0
LINE
  8
4
  6
CONTINUOUS
 10
5.085958
 20
29.580481
 11
5.069090
 21
29.381193
  0
POLYLINE
  8
4
  6
CONTINUOUS
 66
     1
  0
VERTEX
  8
4
  6
CONTINUOUS
 10
6.034103
 20
29.399870
  0
VERTEX
  8
4
  6
CONTINUOUS
 10
94.515958
 20
21.910598
  0
SEQEND
  8
4
  6
CONTINUOUS
  0
LINE
  8
4
  6
CONTINUOUS
 10
94.589053
 20
22.774177
 11
95.336381
 21
22.710921
  0
LINE
  8
4
  6
CONTINUOUS
 10
95.331637
 20
22.654872
 11
95.341125
 21
22.766971
  0
LINE
  8
4
  6
CONTINUOUS
 10
95.331637
 20
22.654872
 11
96.083709
 21
22.647666
  0
LINE
  8
4
  6
CONTINUOUS
 10
95.341125
 20
22.766971
 11
96.083709
 21
22.647666
  0
LINE
  8
4
  6
CONTINUOUS
 10
95.177427
 20
22.611473
 11
95.196404
 21
22.835672
  0
LINE
  8
4
  6
CONTINUOUS
 10
95.084011
 20
22.619380
 11
95.102988
 21
22.843578
  0
LINE
  8
4
  6
CONTINUOUS
 10
94.990595
 20
22.627287
 11
95.009572
 21
22.851485
  0
LINE
  8
4
  6
CONTINUOUS
 10
6.107198
 20
30.263449
 11
5.110761
 21
30.347789
  0
LINE
  8
4
  6
CONTINUOUS
 10
5.119195
 20
30.447433
 11
5.102327
 21
30.248146
  0
LINE
  8
4
  6
CONTINUOUS
 10
5.139124
 20
30.445746
 11
5.122256
 21
30.246459
  0
LINE
  8
4
  6
CONTINUOUS
 10
5.159053
 20
30.444059
 11
5.142185
 21
30.244772
  0
POLYLINE
  8
4
  6
CONTINUOUS
 66
     1
  0
VERTEX
  8
4
  6
CONTINUOUS
 10
6.107198
 20
30.263449
  0
VERTEX
  8
4
  6
CONTINUOUS
 10
94.589053
 20
22.774177
  0
SEQEND
  8
4
  6
CONTINUOUS
  0
LINE
  8
4
  6
CONTINUOUS
 10
94.662148
 20
23.637755
 11
95.409476
 21
23.574500
  0
LINE
  8
4
  6
CONTINUOUS
 10
95.404732
 20
23.518450
 11
95.414220
 21
23.630550
  0
LINE
  8
4
  6
CONTINUOUS
 10
95.404732
 20
23.518450
 11
96.156804
 21
23.511245
  0
LINE
  8
4
  6
CONTINUOUS
 10
95.414220
 20
23.630550
 11
96.156804
 21
23.511245
  0
LINE
  8
4
  6
CONTINUOUS
 10
95.250522
 20
23.475052
 11
95.269499
 21
23.699250
  0
LINE
  8
4
  6
CONTINUOUS
 10
95.157106
 20
23.482959
 11
95.176083
 21
23.707157
  0
LINE
  8
4
  6
CONTINUOUS
 10
95.063690
 20
23.490866
 11
95.082667
 21
23.715064
  0
LINE
  8
4
  6
CONTINUOUS
 10
6.180293
 20
31.127028
 11
5.183856
 21
31.211368
  0
LINE
  8
4
  6
CONTINUOUS
 10
5.192290
 20
31.311012
 11
5.175422
 21
31.111724
  0
LINE
  8
4
  6
CONTINUOUS
 10
5.212219
 20
31.309325
 11
5.195351
 21
31.110038
  0
LINE
  8
4
  6
CONTINUOUS
 10
5.232148
 20
31.307638
 11
5.215280
 21
31.108351
  0
POLYLINE
  8
4
  6
CONTINUOUS
 66
     1
  0
VERTEX
  8
4
  6
CONTINUOUS
 10
6.180293
 20
31.127028
  0
VERTEX
  8
4
  6
CONTINUOUS
 10
94.662148
 20
23.637755
  0
SEQEND
  8
4
  6
CONTINUOUS
  0
LINE
  8
4
  6
CONTINUOUS
 10
94.735243
 20
24.501334
 11
95.482571
 21
24.438079
  0
LINE
  8
4
  6
CONTINUOUS
 10
95.477827
 20
24.382029
 11
95.487315
 21
24.494128
  0
LINE
  8
4
  6
CONTINUOUS
 10
95.477827
 20
24.382029
 11
96.229899
 21
24.374824
  0
LINE
  8
4
  6
CONTINUOUS
 10
95.487315
 20
24.494128
 11
96.229899
 21
24.374824
  0
LINE
  8
4
  6
CONTINUOUS
 10
95.323617
 20
24.338631
 11
95.342594
 21
24.562829
  0
LINE
  8
4
  6
CONTINUOUS
 10
95.230201
 20
24.346538
 11
95.249178
 21
24.570736
  0
LINE
  8
4
  6
CONTINUOUS
 10
95.136785
 20
24.354445
 11
95.155762
 21
24.578643
  0
LINE
  8
4
  6
CONTINUOUS
 10
6.253388
 20
31.990607
 11
5.256951
 21
32.074947
  0
LINE
  8
4
  6
CONTINUOUS
 10
5.265385
 20
32.174591
 11
5.248517
 21
31.975303
  0
LINE
  8
4
  6
CONTINUOUS
 10
5.285314
 20
32.172904
 11
5.268446
 21
31.973616
  0
LINE
  8
4
  6
CONTINUOUS
 10
5.305243
 20
32.171217
 11
5.288375
 21
31.971930
  0
POLYLINE
  8
4
  6
CONTINUOUS
 66
     1
  0
VERTEX
  8
4
  6
CONTINUOUS
 10
6.253388
 20
31.990607
  0
VERTEX
  8
4
  6
CONTINUOUS
 10
94.735243
 20
24.501334
  0
SEQEND
  8
4
  6
CONTINUOUS
  0
LINE
  8
4
  6
CONTINUOUS
 10
94.808338
 20
25.364913
 11
95.555666
 21
25.301658
  0
LINE
  8
4
  6
CONTINUOUS
 10
95.550922
 20
25.245608
 11
95.560410
 21
25.357707
  0
LINE
  8
4
  6
CONTINUOUS
 10
95.550922
 20
25.245608
 11
96.302994
 21
25.238402
  0
LINE
  8
4
  6
CONTINUOUS
 10
95.560410
 20
25.357707
 11
96.302994
 21
25.238402
  0
LINE
  8
4
  6
CONTINUOUS
 10
95.396712
 20
25.202209
 11
95.415689
 21
25.426408
  0
LINE
  8
4
  6
CONTINUOUS
 10
95.303296
 20
25.210116
 11
95.322273
 21
25.434315
  0
LINE
  8
4
  6
CONTINUOUS
 10
95.209880
 20
25.218023
 11
95.228857
 21
25.442222
  0
LINE
  8
4
  6
CONTINUOUS
 10
6.326483
 20
32.854185
 11
5.330046
 21
32.938526
  0
LINE
  8
4
  6
CONTINUOUS
 10
5.338480
 20
33.038169
 11
5.321612
 21
32.838882
  0
LINE
  8
4
  6
CONTINUOUS
 10
5.358409
 20
33.036482
 11
5.341541
 21
32.837195
  0
LINE
  8
4
  6
CONTINUOUS
 10
5.378338
 20
33.034796
 11
5.361469
 21
32.835508
  0
POLYLINE
  8
4
  6
CONTINUOUS
 66
     1
  0
VERTEX
  8
4
  6
CONTINUOUS
 10
6.326483
 20
32.854185
  0
VERTEX
  8
4
  6
CONTINUOUS
 10
94.808338
 20
25.364913
  0
SEQEND
  8
4
  6
CONTINUOUS
  0
LINE
  8
4
  6
CONTINUOUS
 10
94.881433
 20
26.228492
 11
95.628761
 21
26.165236
  0
LINE
  8
4
  6
CONTINUOUS
 10
95.624017
 20
26.109187
 11
95.633505
 21
26.221286
  0
LINE
  8
4
  6
CONTINUOUS
 10
95.624017
 20
26.109187
 11
96.376089
 21
26.101981
  0
LINE
  8
4
  6
CONTINUOUS
 10
95.633505
 20
26.221286
 11
96.376089
 21
26.101981
  0
LINE
  8
4
  6
CONTINUOUS
 10
95.469807
 20
26.065788
 11
95.488784
 21
26.289986
  0
LINE
  8
4
  6
CONTINUOUS
 10
95.376391
 20
26.073695
 11
95.395368
 21
26.297893
  0
LINE
  8
4
  6
CONTINUOUS
 10
95.282975
 20
26.081602
 11
95.301952
 21
26.305800
  0
LINE
  8
4
  6
CONTINUOUS
 10
6.399578
 20
33.717764
 11
5.403141
 21
33.802104
  0
LINE
  8
4
  6
CONTINUOUS
 10
5.411575
 20
33.901748
 11
5.394707
 21
33.702461
  0
LINE
  8
4
  6
CONTINUOUS
 10
5.431504
 20
33.900061
 11
5.414636
 21
33.700774
  0
LINE
  8
4
  6
CONTINUOUS
 10
5.451432
 20
33.898374
 11
5.434564
 21
33.699087
  0
POLYLINE
  8
4
  6
CONTINUOUS
 66
     1
  0
VERTEX
  8
4
  6
CONTINUOUS
 10
6.399578
 20
33.717764
  0
VERTEX
  8
4
  6
CONTINUOUS
 10
94.881433
 20
26.228492
  0
SEQEND
  8
4
  6
CONTINUOUS
  0
LINE
  8
4
  6
CONTINUOUS
 10
94.954528
 20
27.092070
 11
95.701856
 21
27.028815
  0
LINE
  8
4
  6
CONTINUOUS
 10
95.697112
 20
26.972765
 11
95.706600
 21
27.084865
  0
LINE
  8
4
  6
CONTINUOUS
 10
95.697112
 20
26.972765
 11
96.449184
 21
26.965560
  0
LINE
  8
4
  6
CONTINUOUS
 10
95.706600
 20
27.084865
 11
96.449184
 21
26.965560
  0
LINE
  8
4
  6
CONTINUOUS
 10
95.542902
 20
26.929367
 11
95.561879
 21
27.153565
  0
LINE
  8
4
  6
CONTINUOUS
 10
95.449486
 20
26.937274
 11
95.468463
 21
27.161472
  0
LINE
  8
4
  6
CONTINUOUS
 10
95.356070
 20
26.945181
 11
95.375047
 21
27.169379
  0
LINE
  8
4
  6
CONTINUOUS
 10
6.472673
 20
34.581343
 11
5.476236
 21
34.665683
  0
LINE
  8
4
  6
CONTINUOUS
 10
5.484670
 20
34.765327
 11
5.467802
 21
34.566039
  0
LINE
  8
4
  6
CONTINUOUS
 10
5.504599
 20
34.763640
 11
5.487731
 21
34.564353
  0
LINE
  8
4
  6
CONTINUOUS
 10
5.524527
 20
34.761953
 11
5.507659
 21
34.562666
  0
POLYLINE
  8
4
  6
CONTINUOUS
 66
     1
  0
VERTEX
  8
4
  6
CONTINUOUS
 10
6.472673
 20
34.581343
  0
VERTEX
  8
4
  6
CONTINUOUS
 10
94.954528
 20
27.092070
  0
SEQEND
  8
4
  6
CONTINUOUS
  0
LINE
  8
4
  6
CONTINUOUS
 10
95.027623
 20
27.955649
 11
95.774951
 21
27.892394
  0
LINE
  8
4
  6
CONTINUOUS
 10
95.770207
 20
27.836344
 11
95.779695
 21
27.948443
  0
LINE
  8
4
  6
CONTINUOUS
 10
95.770207
 20
27.836344
 11
96.522279
 21
27.829139
  0
LINE
  8
4
  6
CONTINUOUS
 10
95.779695
 20
27.948443
 11
96.522279
 21
27.829139
  0
LINE
  8
4
  6
CONTINUOUS
 10
95.615997
 20
27.792946
 11
95.634974
 21
28.017144
  0
LINE
  8
4
  6
CONTINUOUS
 10
95.522581
 20
27.800853
 11
95.541558
 21
28.025051
  0
LINE
  8
4
  6
CONTINUOUS
 10
95.429165
 20
27.808759
 11
95.448142
 21
28.032958
  0
LINE
  8
4
  6
CONTINUOUS
 10
6.545768
 20
35.444921
 11
5.549331
 21
35.529262
  0
LINE
  8
4
  6
CONTINUOUS
 10
5.557765
 20
35.628905
 11
5.540897
 21
35.429618
  0
LINE
  8
4
  6
CONTINUOUS
 10
5.577694
 20
35.627219
 11
5.560826
 21
35.427931
  0
LINE
  8
4
  6
CONTINUOUS
 10
5.597622
 20
35.625532
 11
5.580754
 21
35.426244
  0
POLYLINE
  8
4
  6
CONTINUOUS
 66
     1
  0
VERTEX
  8
4
  6
CONTINUOUS
 10
6.545768
 20
35.444921
  0
VERTEX
  8
4
  6
CONTINUOUS
 10
95.027623
 20
27.955649
  0
SEQEND
  8
4
  6
CONTINUOUS
  0
LINE
  8
4
  6
CONTINUOUS
 10
95.100718
 20
28.819228
 11
95.848046
 21
28.755973
  0
LINE
  8
4
  6
CONTINUOUS
 10
95.843302
 20
28.699923
 11
95.852790
 21
28.812022
  0
LINE
  8
4
  6
CONTINUOUS
 10
95.843302
 20
28.699923
 11
96.595373
 21
28.692717
  0
LINE
  8
4
  6
CONTINUOUS
 10
95.852790
 20
28.812022
 11
96.595373
 21
28.692717
  0
LINE
  8
4
  6
CONTINUOUS
 10
95.689092
 20
28.656524
 11
95.708068
 21
28.880723
  0
LINE
  8
4
  6
CONTINUOUS
 10
95.595676
 20
28.664431
 11
95.614653
 21
28.888630
  0
LINE
  8
4
  6
CONTINUOUS
 10
95.502260
 20
28.672338
 11
95.521237
 21
28.896537
  0
LINE
  8
4
  6
CONTINUOUS
 10
6.618863
 20
36.308500
 11
5.622426
 21
36.392841
  0
LINE
  8
4
  6
CONTINUOUS
 10
5.630860
 20
36.492484
 11
5.613992
 21
36.293197
  0
LINE
  8
4
  6
CONTINUOUS
 10
5.650789
 20
36.490797
 11
5.633921
 21
36.291510
  0
LINE
  8
4
  6
CONTINUOUS
 10
5.670717
 20
36.489111
 11
5.653849
 21
36.289823
  0
POLYLINE
  8
4
  6
CONTINUOUS
 66
     1
  0
VERTEX
  8
4
  6
CONTINUOUS
 10
6.618863
 20
36.308500
  0
VERTEX
  8
4
  6
CONTINUOUS
 10
95.100718
 20
28.819228
  0
SEQEND
  8
4
  6
CONTINUOUS
  0
LINE
  8
4
  6
CONTINUOUS
 10
95.186662
 20
29.834151
 11
95.933990
 21
29.770896
  0
LINE
  8
4
  6
CONTINUOUS
 10
95.929246
 20
29.714847
 11
95.938734
 21
29.826946
  0
LINE
  8
4
  6
CONTINUOUS
 10
95.929246
 20
29.714847
 11
96.681318
 21
29.707641
  0
LINE
  8
4
  6
CONTINUOUS
 10
95.938734
 20
29.826946
 11
96.681318
 21
29.707641
  0
LINE
  8
4
  6
CONTINUOUS
 10
95.775036
 20
29.671448
 11
95.794013
 21
29.895646
  0
LINE
  8
4
  6
CONTINUOUS
 10
95.681620
 20
29.679355
 11
95.700597
 21
29.903553
  0
LINE
  8
4
  6
CONTINUOUS
 10
95.588204
 20
29.687262
 11
95.607181
 21
29.911460
  0
LINE
  8
4
  6
CONTINUOUS
 10
5.827563
 20
37.397681
 11
4.831126
 21
37.482021
  0
LINE
  8
4
  6
CONTINUOUS
 10
4.839560
 20
37.581665
 11
4.822692
 21
37.382378
  0
LINE
  8
4
  6
CONTINUOUS
 10
4.859489
 20
37.579978
 11
4.842621
 21
37.380691
  0
LINE
  8
4
  6
CONTINUOUS
 10
4.879418
 20
37.578291
 11
4.862550
 21
37.379004
  0
POLYLINE
  8
4
  6
CONTINUOUS
 66
     1
  0
VERTEX
  8
4
  6
CONTINUOUS
 10
5.827563
 20
37.397681
  0
VERTEX
  8
4
  6
CONTINUOUS
 10
95.186662
 20
29.834151
  0
SEQEND
  8
4
  6
CONTINUOUS
  0
LINE
  8
4
  6
CONTINUOUS
 10
95.268191
 20
30.797374
 11
96.015519
 21
30.734119
  0
LINE
  8
4
  6
CONTINUOUS
 10
96.010775
 20
30.678069
 11
96.020263
 21
30.790168
  0
LINE
  8
4
  6
CONTINUOUS
 10
96.010775
 20
30.678069
 11
96.762847
 21
30.670863
  0
LINE
  8
4
  6
CONTINUOUS
 10
96.020263
 20
30.790168
 11
96.762847
 21
30.670863
  0
LINE
  8
4
  6
CONTINUOUS
 10
95.856565
 20
30.634670
 11
95.875542
 21
30.858869
  0
LINE
  8
4
  6
CONTINUOUS
 10
95.763149
 20
30.642577
 11
95.782126
 21
30.866776
  0
LINE
  8
4
  6
CONTINUOUS
 10
95.669733
 20
30.650484
 11
95.688710
 21
30.874683
  0
LINE
  8
4
  6
CONTINUOUS
 10
5.909092
 20
38.360903
 11
4.912655
 21
38.445244
  0
LINE
  8
4
  6
CONTINUOUS
 10
4.921089
 20
38.544888
 11
4.904221
 21
38.345600
  0
LINE
  8
4
  6
CONTINUOUS
 10
4.941018
 20
38.543201
 11
4.924150
 21
38.343913
  0
LINE
  8
4
  6
CONTINUOUS
 10
4.960947
 20
38.541514
 11
4.944079
 21
38.342227
  0
POLYLINE
  8
4
  6
CONTINUOUS
 66
     1
  0
VERTEX
  8
4
  6
CONTINUOUS
 10
5.909092
 20
38.360903
  0
VERTEX
  8
4
  6
CONTINUOUS
 10
95.268191
 20
30.797374
  0
SEQEND
  8
4
  6
CONTINUOUS
  0
LINE
  8
4
  6
CONTINUOUS
 10
95.349720
 20
31.760596
 11
96.097048
 21
31.697341
  0
LINE
  8
4
  6
CONTINUOUS
 10
96.092304
 20
31.641291
 11
96.101792
 21
31.753391
  0
LINE
  8
4
  6
CONTINUOUS
 10
96.092304
 20
31.641291
 11
96.844376
 21
31.634086
  0
LINE
  8
4
  6
CONTINUOUS
 10
96.101792
 20
31.753391
 11
96.844376
 21
31.634086
  0
LINE
  8
4
  6
CONTINUOUS
 10
95.938094
 20
31.597893
 11
95.957071
 21
31.822091
  0
LINE
  8
4
  6
CONTINUOUS
 10
95.844678
 20
31.605800
 11
95.863655
 21
31.829998
  0
LINE
  8
4
  6
CONTINUOUS
 10
95.751262
 20
31.613707
 11
95.770239
 21
31.837905
  0
LINE
  8
4
  6
CONTINUOUS
 10
5.990621
 20
39.324126
 11
4.994184
 21
39.408466
  0
LINE
  8
4
  6
CONTINUOUS
 10
5.002618
 20
39.508110
 11
4.985750
 21
39.308823
  0
LINE
  8
4
  6
CONTINUOUS
 10
5.022547
 20
39.506423
 11
5.005679
 21
39.307136
  0
LINE
  8
4
  6
CONTINUOUS
 10
5.042476
 20
39.504736
 11
5.025608
 21
39.305449
  0
POLYLINE
  8
4
  6
CONTINUOUS
 66
     1
  0
VERTEX
  8
4
  6
CONTINUOUS
 10
5.990621
 20
39.324126
  0
VERTEX
  8
4
  6
CONTINUOUS
 10
95.349720
 20
31.760596
  0
SEQEND
  8
4
  6
CONTINUOUS
  0
LINE
  8
4
  6
CONTINUOUS
 10
95.431249
 20
32.723819
 11
96.178577
 21
32.660563
  0
LINE
  8
4
  6
CONTINUOUS
 10
96.173833
 20
32.604514
 11
96.183321
 21
32.716613
  0
LINE
  8
4
  6
CONTINUOUS
 10
96.173833
 20
32.604514
 11
96.925905
 21
32.597308
  0
LINE
  8
4
  6
CONTINUOUS
 10
96.183321
 20
32.716613
 11
96.925905
 21
32.597308
  0
LINE
  8
4
  6
CONTINUOUS
 10
96.019623
 20
32.561115
 11
96.038600
 21
32.785314
  0
LINE
  8
4
  6
CONTINUOUS
 10
95.926207
 20
32.569022
 11
95.945184
 21
32.793221
  0
LINE
  8
4
  6
CONTINUOUS
 10
95.832791
 20
32.576929
 11
95.851768
 21
32.801127
  0
LINE
  8
4
  6
CONTINUOUS
 10
6.072150
 20
40.287348
 11
5.075713
 21
40.371689
  0
LINE
  8
4
  6
CONTINUOUS
 10
5.084147
 20
40.471332
 11
5.067279
 21
40.272045
  0
LINE
  8
4
  6
CONTINUOUS
 10
5.104076
 20
40.469646
 11
5.087208
 21
40.270358
  0
LINE
  8
4
  6
CONTINUOUS
 10
5.124005
 20
40.467959
 11
5.107137
 21
40.268671
  0
POLYLINE
  8
4
  6
CONTINUOUS
 66
     1
  0
VERTEX
  8
4
  6
CONTINUOUS
 10
6.072150
 20
40.287348
  0
VERTEX
  8
4
  6
CONTINUOUS
 10
95.431249
 20
32.723819
  0
SEQEND
  8
4
  6
CONTINUOUS
  0
LINE
  8
4
  6
CONTINUOUS
 10
95.512778
 20
33.687041
 11
96.260106
 21
33.623786
  0
LINE
  8
4
  6
CONTINUOUS
 10
96.255362
 20
33.567736
 11
96.264850
 21
33.679835
  0
LINE
  8
4
  6
CONTINUOUS
 10
96.255362
 20
33.567736
 11
97.007434
 21
33.560531
  0
LINE
  8
4
  6
CONTINUOUS
 10
96.264850
 20
33.679835
 11
97.007434
 21
33.560531
  0
LINE
  8
4
  6
CONTINUOUS
 10
96.101152
 20
33.524338
 11
96.120129
 21
33.748536
  0
LINE
  8
4
  6
CONTINUOUS
 10
96.007736
 20
33.532245
 11
96.026713
 21
33.756443
  0
LINE
  8
4
  6
CONTINUOUS
 10
95.914320
 20
33.540152
 11
95.933297
 21
33.764350
  0
LINE
  8
4
  6
CONTINUOUS
 10
6.153679
 20
41.250571
 11
5.157242
 21
41.334911
  0
LINE
  8
4
  6
CONTINUOUS
 10
5.165676
 20
41.434555
 11
5.148808
 21
41.235267
  0
LINE
  8
4
  6
CONTINUOUS
 10
5.185605
 20
41.432868
 11
5.168737
 21
41.233581
  0
LINE
  8
4
  6
CONTINUOUS
 10
5.205534
 20
41.431181
 11
5.188666
 21
41.231894
  0
POLYLINE
  8
4
  6
CONTINUOUS
 66
     1
  0
VERTEX
  8
4
  6
CONTINUOUS
 10
6.153679
 20
41.250571
  0
VERTEX
  8
4
  6
CONTINUOUS
 10
95.512778
 20
33.687041
  0
SEQEND
  8
4
  6
CONTINUOUS
  0
LINE
  8
4
  6
CONTINUOUS
 10
95.594307
 20
34.650264
 11
96.341635
 21
34.587008
  0
LINE
  8
4
  6
CONTINUOUS
 10
96.336891
 20
34.530959
 11
96.346379
 21
34.643058
  0
LINE
  8
4
  6
CONTINUOUS
 10
96.336891
 20
34.530959
 11
97.088963
 21
34.523753
  0
LINE
  8
4
  6
CONTINUOUS
 10
96.346379
 20
34.643058
 11
97.088963
 21
34.523753
  0
LINE
  8
4
  6
CONTINUOUS
 10
96.182681
 20
34.487560
 11
96.201658
 21
34.711759
  0
LINE
  8
4
  6
CONTINUOUS
 10
96.089265
 20
34.495467
 11
96.108242
 21
34.719665
  0
LINE
  8
4
  6
CONTINUOUS
 10
95.995849
 20
34.503374
 11
96.014826
 21
34.727572
  0
LINE
  8
4
  6
CONTINUOUS
 10
6.235208
 20
42.213793
 11
5.238771
 21
42.298134
  0
LINE
  8
4
  6
CONTINUOUS
 10
5.247205
 20
42.397777
 11
5.230337
 21
42.198490
  0
LINE
  8
4
  6
CONTINUOUS
 10
5.267134
 20
42.396090
 11
5.250266
 21
42.196803
  0
LINE
  8
4
  6
CONTINUOUS
 10
5.287063
 20
42.394404
 11
5.270195
 21
42.195116
  0
POLYLINE
  8
4
  6
CONTINUOUS
 66
     1
  0
VERTEX
  8
4
  6
CONTINUOUS
 10
6.235208
 20
42.213793
  0
VERTEX
  8
4
  6
CONTINUOUS
 10
95.594307
 20
34.650264
  0
SEQEND
  8
4
  6
CONTINUOUS
  0
LINE
  8
4
  6
CONTINUOUS
 10
95.675836
 20
35.613486
 11
96.423164
 21
35.550231
  0
LINE
  8
4
  6
CONTINUOUS
 10
96.418420
 20
35.494181
 11
96.427908
 21
35.606280
  0
LINE
  8
4
  6
CONTINUOUS
 10
96.418420
 20
35.494181
 11
97.170492
 21
35.486975
  0
LINE
  8
4
  6
CONTINUOUS
 10
96.427908
 20
35.606280
 11
97.170492
 21
35.486975
  0
LINE
  8
4
  6
CONTINUOUS
 10
96.264210
 20
35.450783
 11
96.283187
 21
35.674981
  0
LINE
  8
4
  6
CONTINUOUS
 10
96.170794
 20
35.458690
 11
96.189771
 21
35.682888
  0
LINE
  8
4
  6
CONTINUOUS
 10
96.077378
 20
35.466596
 11
96.096355
 21
35.690795
  0
LINE
  8
4
  6
CONTINUOUS
 10
6.316737
 20
43.177016
 11
5.320300
 21
43.261356
  0
LINE
  8
4
  6
CONTINUOUS
 10
5.328734
 20
43.361000
 11
5.311866
 21
43.161712
  0
LINE
  8
4
  6
CONTINUOUS
 10
5.348663
 20
43.359313
 11
5.331795
 21
43.160025
  0
LINE
  8
4
  6
CONTINUOUS
 10
5.368592
 20
43.357626
 11
5.351724
 21
43.158339
  0
POLYLINE
  8
4
  6
CONTINUOUS
 66
     1
  0
VERTEX
  8
4
  6
CONTINUOUS
 10
6.316737
 20
43.177016
  0
VERTEX
  8
4
  6
CONTINUOUS
 10
95.675836
 20
35.613486
  0
SEQEND
  8
4
  6
CONTINUOUS
  0
LINE
  8
4
  6
CONTINUOUS
 10
95.757365
 20
36.576708
 11
96.504693
 21
36.513453
  0
LINE
  8
4
  6
CONTINUOUS
 10
96.499949
 20
36.457404
 11
96.509437
 21
36.569503
  0
LINE
  8
4
  6
CONTINUOUS
 10
96.499949
 20
36.457404
 11
97.252021
 21
36.450198
  0
LINE
  8
4
  6
CONTINUOUS
 10
96.509437
 20
36.569503
 11
97.252021
 21
36.450198
  0
LINE
  8
4
  6
CONTINUOUS
 10
96.345739
 20
36.414005
 11
96.364716
 21
36.638203
  0
LINE
  8
4
  6
CONTINUOUS
 10
96.252323
 20
36.421912
 11
96.271300
 21
36.646110
  0
LINE
  8
4
  6
CONTINUOUS
 10
96.158907
 20
36.429819
 11
96.177884
 21
36.654017
  0
LINE
  8
4
  6
CONTINUOUS
 10
6.398266
 20
44.140238
 11
5.401829
 21
44.224578
  0
LINE
  8
4
  6
CONTINUOUS
 10
5.410263
 20
44.324222
 11
5.393395
 21
44.124935
  0
LINE
  8
4
  6
CONTINUOUS
 10
5.430192
 20
44.322535
 11
5.413324
 21
44.123248
  0
LINE
  8
4
  6
CONTINUOUS
 10
5.450121
 20
44.320849
 11
5.433253
 21
44.121561
  0
POLYLINE
  8
4
  6
CONTINUOUS
 66
     1
  0
VERTEX
  8
4
  6
CONTINUOUS
 10
6.398266
 20
44.140238
  0
VERTEX
  8
4
  6
CONTINUOUS
 10
95.757365
 20
36.576708
  0
SEQEND
  8
4
  6
CONTINUOUS
  0
LINE
  8
4
  6
CONTINUOUS
 10
95.838894
 20
37.539931
 11
96.586222
 21
37.476676
  0
LINE
  8
4
  6
CONTINUOUS
 10
96.581478
 20
37.420626
 11
96.590966
 21
37.532725
  0
LINE
  8
4
  6
CONTINUOUS
 10
96.581478
 20
37.420626
 11
97.333550
 21
37.413420
  0
LINE
  8
4
  6
CONTINUOUS
 10
96.590966
 20
37.532725
 11
97.333550
 21
37.413420
  0
LINE
  8
4
  6
CONTINUOUS
 10
96.427268
 20
37.377228
 11
96.446245
 21
37.601426
  0
LINE
  8
4
  6
CONTINUOUS
 10
96.333852
 20
37.385134
 11
96.352829
 21
37.609333
  0
LINE
  8
4
  6
CONTINUOUS
 10
96.240436
 20
37.393041
 11
96.259413
 21
37.617240
  0
LINE
  8
4
  6
CONTINUOUS
 10
6.479795
 20
45.103460
 11
5.483358
 21
45.187801
  0
LINE
  8
4
  6
CONTINUOUS
 10
5.491792
 20
45.287445
 11
5.474924
 21
45.088157
  0
LINE
  8
4
  6
CONTINUOUS
 10
5.511721
 20
45.285758
 11
5.494853
 21
45.086470
  0
LINE
  8
4
  6
CONTINUOUS
 10
5.531650
 20
45.284071
 11
5.514782
 21
45.084784
  0
POLYLINE
  8
4
  6
CONTINUOUS
 66
     1
  0
VERTEX
  8
4
  6
CONTINUOUS
 10
6.479795
 20
45.103460
  0
VERTEX
  8
4
  6
CONTINUOUS
 10
95.838894
 20
37.539931
  0
SEQEND
  8
4
  6
CONTINUOUS
  0
LINE
  8
4
  6
CONTINUOUS
 10
95.920423
 20
38.503153
 11
96.667751
 21
38.439898
  0
LINE
  8
4
  6
CONTINUOUS
 10
96.663007
 20
38.383848
 11
96.672495
 21
38.495948
  0
LINE
  8
4
  6
CONTINUOUS
 10
96.663007
 20
38.383848
 11
97.415079
 21
38.376643
  0
LINE
  8
4
  6
CONTINUOUS
 10
96.672495
 20
38.495948
 11
97.415079
 21
38.376643
  0
LINE
  8
4
  6
CONTINUOUS
 10
96.508797
 20
38.340450
 11
96.527774
 21
38.564648
  0
LINE
  8
4
  6
CONTINUOUS
 10
96.415381
 20
38.348357
 11
96.434358
 21
38.572555
  0
LINE
  8
4
  6
CONTINUOUS
 10
96.321965
 20
38.356264
 11
96.340942
 21
38.580462
  0
LINE
  8
4
  6
CONTINUOUS
 10
6.561324
 20
46.066683
 11
5.564887
 21
46.151023
  0
LINE
  8
4
  6
CONTINUOUS
 10
5.573322
 20
46.250667
 11
5.556453
 21
46.051380
  0
LINE
  8
4
  6
CONTINUOUS
 10
5.593250
 20
46.248980
 11
5.576382
 21
46.049693
  0
LINE
  8
4
  6
CONTINUOUS
 10
5.613179
 20
46.247293
 11
5.596311
 21
46.048006
  0
POLYLINE
  8
4
  6
CONTINUOUS
 66
     1
  0
VERTEX
  8
4
  6
CONTINUOUS
 10
6.561324
 20
46.066683
  0
VERTEX
  8
4
  6
CONTINUOUS
 10
95.920423
 20
38.503153
  0
SEQEND
  8
4
  6
CONTINUOUS
  0
LINE
  8
4
  6
CONTINUOUS
 10
96.001953
 20
39.466376
 11
96.749280
 21
39.403120
  0
LINE
  8
4
  6
CONTINUOUS
 10
96.744536
 20
39.347071
 11
96.754024
 21
39.459170
  0
LINE
  8
4
  6
CONTINUOUS
 10
96.744536
 20
39.347071
 11
97.496608
 21
39.339865
  0
LINE
  8
4
  6
CONTINUOUS
 10
96.754024
 20
39.459170
 11
97.496608
 21
39.339865
  0
LINE
  8
4
  6
CONTINUOUS
 10
96.590326
 20
39.303672
 11
96.609303
 21
39.527871
  0
LINE
  8
4
  6
CONTINUOUS
 10
96.496910
 20
39.311579
 11
96.515887
 21
39.535778
  0
LINE
  8
4
  6
CONTINUOUS
 10
96.403494
 20
39.319486
 11
96.422471
 21
39.543685
  0
LINE
  8
4
  6
CONTINUOUS
 10
6.642854
 20
47.029905
 11
5.646417
 21
47.114246
  0
LINE
  8
4
  6
CONTINUOUS
 10
5.654851
 20
47.213889
 11
5.637982
 21
47.014602
  0
LINE
  8
4
  6
CONTINUOUS
 10
5.674779
 20
47.212203
 11
5.657911
 21
47.012915
  0
LINE
  8
4
  6
CONTINUOUS
 10
5.694708
 20
47.210516
 11
5.677840
 21
47.011228
  0
POLYLINE
  8
4
  6
CONTINUOUS
 66
     1
  0
VERTEX
  8
4
  6
CONTINUOUS
 10
6.642854
 20
47.029905
  0
VERTEX
  8
4
  6
CONTINUOUS
 10
96.001953
 20
39.466376
  0
SEQEND
  8
4
  6
CONTINUOUS
  0
LINE
  8
4
  6
CONTINUOUS
 10
96.114726
 20
40.798524
 11
96.862054
 21
40.735268
  0
LINE
  8
4
  6
CONTINUOUS
 10
96.857310
 20
40.679219
 11
96.866798
 21
40.791318
  0
LINE
  8
4
  6
CONTINUOUS
 10
96.857310
 20
40.679219
 11
97.609382
 21
40.672013
  0
LINE
  8
4
  6
CONTINUOUS
 10
96.866798
 20
40.791318
 11
97.609382
 21
40.672013
  0
LINE
  8
4
  6
CONTINUOUS
 10
96.690644
 20
40.636875
 11
96.709620
 21
40.861073
  0
LINE
  8
4
  6
CONTINUOUS
 10
96.566090
 20
40.647417
 11
96.585066
 21
40.871615
  0
LINE
  8
4
  6
CONTINUOUS
 10
6.117925
 20
48.416034
 11
5.121488
 21
48.500374
  0
LINE
  8
4
  6
CONTINUOUS
 10
5.129922
 20
48.600018
 11
5.113054
 21
48.400730
  0
LINE
  8
4
  6
CONTINUOUS
 10
5.149851
 20
48.598331
 11
5.132983
 21
48.399044
  0
LINE
  8
4
  6
CONTINUOUS
 10
5.169780
 20
48.596644
 11
5.152912
 21
48.397357
  0
POLYLINE
  8
4
  6
CONTINUOUS
 66
     1
  0
VERTEX
  8
4
  6
CONTINUOUS
 10
6.117925
 20
48.416034
  0
VERTEX
  8
4
  6
CONTINUOUS
 10
96.114726
 20
40.798524
  0
SEQEND
  8
4
  6
CONTINUOUS
  0
LINE
  8
4
  6
CONTINUOUS
 10
96.253888
 20
42.442645
 11
97.001216
 21
42.379389
  0
LINE
  8
4
  6
CONTINUOUS
 10
96.996472
 20
42.323340
 11
97.005960
 21
42.435439
  0
LINE
  8
4
  6
CONTINUOUS
 10
96.996472
 20
42.323340
 11
97.748544
 21
42.316134
  0
LINE
  8
4
  6
CONTINUOUS
 10
97.005960
 20
42.435439
 11
97.748544
 21
42.316134
  0
LINE
  8
4
  6
CONTINUOUS
 10
96.829806
 20
42.280996
 11
96.848782
 21
42.505194
  0
LINE
  8
4
  6
CONTINUOUS
 10
96.705251
 20
42.291538
 11
96.724228
 21
42.515737
  0
LINE
  8
4
  6
CONTINUOUS
 10
6.257087
 20
50.060155
 11
5.260650
 21
50.144495
  0
LINE
  8
4
  6
CONTINUOUS
 10
5.269084
 20
50.244139
 11
5.252216
 21
50.044851
  0
LINE
  8
4
  6
CONTINUOUS
 10
5.289013
 20
50.242452
 11
5.272145
 21
50.043165
  0
LINE
  8
4
  6
CONTINUOUS
 10
5.308941
 20
50.240765
 11
5.292073
 21
50.041478
  0
POLYLINE
  8
4
  6
CONTINUOUS
 66
     1
  0
VERTEX
  8
4
  6
CONTINUOUS
 10
6.257087
 20
50.060155
  0
VERTEX
  8
4
  6
CONTINUOUS
 10
96.253888
 20
42.442645
  0
SEQEND
  8
4
  6
CONTINUOUS
  0
LINE
  8
4
  6
CONTINUOUS
 10
96.393050
 20
44.086766
 11
97.140378
 21
44.023510
  0
LINE
  8
4
  6
CONTINUOUS
 10
97.135633
 20
43.967461
 11
97.145122
 21
44.079560
  0
LINE
  8
4
  6
CONTINUOUS
 10
97.135633
 20
43.967461
 11
97.887705
 21
43.960255
  0
LINE
  8
4
  6
CONTINUOUS
 10
97.145122
 20
44.079560
 11
97.887705
 21
43.960255
  0
LINE
  8
4
  6
CONTINUOUS
 10
96.968967
 20
43.925117
 11
96.987944
 21
44.149315
  0
LINE
  8
4
  6
CONTINUOUS
 10
96.844413
 20
43.935659
 11
96.863390
 21
44.159858
  0
LINE
  8
4
  6
CONTINUOUS
 10
6.396249
 20
51.704276
 11
5.399812
 21
51.788616
  0
LINE
  8
4
  6
CONTINUOUS
 10
5.408246
 20
51.888260
 11
5.391378
 21
51.688972
  0
LINE
  8
4
  6
CONTINUOUS
 10
5.428174
 20
51.886573
 11
5.411306
 21
51.687286
  0
LINE
  8
4
  6
CONTINUOUS
 10
5.448103
 20
51.884886
 11
5.431235
 21
51.685599
  0
POLYLINE
  8
4
  6
CONTINUOUS
 66
     1
  0
VERTEX
  8
4
  6
CONTINUOUS
 10
6.396249
 20
51.704276
  0
VERTEX
  8
4
  6
CONTINUOUS
 10
96.393050
 20
44.086766
  0
SEQEND
  8
4
  6
CONTINUOUS
  0
LINE
  8
4
  6
CONTINUOUS
 10
5.659925
 20
11.745548
 11
5.657969
 21
10.745550
  0
LINE
  8
4
  6
CONTINUOUS
 10
5.557969
 20
10.745745
 11
5.757969
 21
10.745354
  0
LINE
  8
4
  6
CONTINUOUS
 10
5.558008
 20
10.765745
 11
5.758008
 21
10.765354
  0
LINE
  8
4
  6
CONTINUOUS
 10
5.558047
 20
10.785745
 11
5.758047
 21
10.785354
  0
LINE
  8
4
  6
CONTINUOUS
 10
5.740231
 20
52.799771
 11
5.741698
 21
53.549769
  0
LINE
  8
4
  6
CONTINUOUS
 10
5.797948
 20
53.549659
 11
5.685448
 21
53.549879
  0
LINE
  8
4
  6
CONTINUOUS
 10
5.797948
 20
53.549659
 11
5.743165
 21
54.299768
  0
LINE
  8
4
  6
CONTINUOUS
 10
5.685448
 20
53.549879
 11
5.743165
 21
54.299768
  0
LINE
  8
4
  6
CONTINUOUS
 10
5.853880
 20
53.387048
 11
5.628881
 21
53.387489
  0
LINE
  8
4
  6
CONTINUOUS
 10
5.853636
 20
53.262049
 11
5.628636
 21
53.262489
  0
POLYLINE
  8
4
  6
CONTINUOUS
 66
     1
  0
VERTEX
  8
4
  6
CONTINUOUS
 10
5.659925
 20
11.745548
  0
VERTEX
  8
4
  6
CONTINUOUS
 10
5.740231
 20
52.799771
  0
SEQEND
  8
4
  6
CONTINUOUS
  0
LINE
  8
4
  6
CONTINUOUS
 10
6.326590
 20
11.744244
 11
6.324634
 21
10.744245
  0
LINE
  8
4
  6
CONTINUOUS
 10
6.224634
 20
10.744441
 11
6.424634
 21
10.744050
  0
LINE
  8
4
  6
CONTINUOUS
 10
6.224674
 20
10.764441
 11
6.424673
 21
10.764050
  0
LINE
  8
4
  6
CONTINUOUS
 10
6.224713
 20
10.784441
 11
6.424712
 21
10.784050
  0
LINE
  8
4
  6
CONTINUOUS
 10
6.406897
 20
52.798467
 11
6.408364
 21
53.548465
  0
LINE
  8
4
  6
CONTINUOUS
 10
6.464614
 20
53.548355
 11
6.352114
 21
53.548575
  0
LINE
  8
4
  6
CONTINUOUS
 10
6.464614
 20
53.548355
 11
6.409831
 21
54.298464
  0
LINE
  8
4
  6
CONTINUOUS
 10
6.352114
 20
53.548575
 11
6.409831
 21
54.298464
  0
LINE
  8
4
  6
CONTINUOUS
 10
6.520546
 20
53.385744
 11
6.295546
 21
53.386184
  0
LINE
  8
4
  6
CONTINUOUS
 10
6.520301
 20
53.260745
 11
6.295302
 21
53.261185
  0
POLYLINE
  8
4
  6
CONTINUOUS
 66
     1
  0
VERTEX
  8
4
  6
CONTINUOUS
 10
6.326590
 20
11.744244
  0
VERTEX
  8
4
  6
CONTINUOUS
 10
6.406897
 20
52.798467
  0
SEQEND
  8
4
  6
CONTINUOUS
  0
LINE
  8
1
  6
CONTINUOUS
 10
4.824097
 20
10.471061
 11
8.310792
 21
10.175885
  0
LINE
  8
1
  6
CONTINUOUS
 10
4.825538
 20
11.207877
 11
4.824097
 21
10.471061
  0
LINE
  8
1
  6
CONTINUOUS
 10
5.968460
 20
73.155090
 11
25.392188
 21
73.155090
  0
LINE
  8
1
  6
CONTINUOUS
 10
5.968460
 20
73.155090
 11
5.968460
 21
72.155090
  0
LINE
  8
1
  6
CONTINUOUS
 10
5.968460
 20
72.155090
 11
22.257740
 21
72.155090
  0
LINE
  8
1
  6
CONTINUOUS
 10
5.968460
 20
72.155090
 11
5.968460
 21
71.155090
  0
LINE
  8
1
  6
CONTINUOUS
 10
8.457576
 20
72.155090
 11
8.457576
 21
71.155090
  0
LINE
  8
1
  6
CONTINUOUS
 10
10.595289
 20
72.155090
 11
10.595289
 21
71.155090
  0
LINE
  8
1
  6
CONTINUOUS
 10
11.970656
 20
72.155090
 11
11.970656
 21
71.155090
  0
LINE
  8
1
  6
CONTINUOUS
 10
16.135169
 20
71.655090
 11
16.135169
 21
71.155090
  0
LINE
  8
1
  6
CONTINUOUS
 10
19.123292
 20
72.155090
 11
19.123292
 21
71.155090
  0
LINE
  8
1
  6
CONTINUOUS
 10
20.168107
 20
71.655090
 11
20.168108
 21
71.155090
  0
LINE
  8
1
  6
CONTINUOUS
 10
21.212924
 20
71.655090
 11
21.212924
 21
71.155090
  0
LINE
  8
1
  6
CONTINUOUS
 10
22.257740
 20
72.155090
 11
22.257740
 21
71.155090
  0
LINE
  8
1
  6
CONTINUOUS
 10
5.968460
 20
71.155090
 11
25.392188
 21
71.155090
  0
LINE
  8
1
  6
CONTINUOUS
 10
11.970656
 20
71.655090
 11
16.135169
 21
71.655090
  0
LINE
  8
1
  6
CONTINUOUS
 10
16.135169
 20
71.655090
 11
19.123292
 21
71.655090
  0
LINE
  8
1
  6
CONTINUOUS
 10
19.123292
 20
71.655090
 11
20.168108
 21
71.655090
  0
LINE
  8
1
  6
CONTINUOUS
 10
20.168108
 20
71.655090
 11
21.212924
 21
71.655090
  0
LINE
  8
1
  6
CONTINUOUS
 10
21.212924
 20
71.655090
 11
25.392188
 21
71.655090
  0
LINE
  8
1
  6
CONTINUOUS
 10
25.392188
 20
71.155090
 11
25.392188
 21
73.155090
  0
LINE
  8
1
  6
CONTINUOUS
 10
23.824964
 20
71.655090
 11
23.824964
 21
71.155090
  0
LINE
  8
1
  6
CONTINUOUS
 10
22.257740
 20
72.155090
 11
25.392188
 21
72.155090
  0
LINE
  8
1
  6
CONTINUOUS
 10
5.968460
 20
71.155090
 11
5.968460
 21
70.655089
  0
LINE
  8
1
  6
CONTINUOUS
 10
5.968460
 20
70.655089
 11
25.392188
 21
70.655089
  0
LINE
  8
1
  6
CONTINUOUS
 10
8.457576
 20
71.155090
 11
8.457576
 21
70.655089
  0
LINE
  8
1
  6
CONTINUOUS
 10
10.595289
 20
71.155090
 11
10.595289
 21
70.655089
  0
LINE
  8
1
  6
CONTINUOUS
 10
11.970656
 20
71.155090
 11
11.970656
 21
70.655089
  0
LINE
  8
1
  6
CONTINUOUS
 10
16.135169
 20
71.155090
 11
16.135169
 21
70.655089
  0
LINE
  8
1
  6
CONTINUOUS
 10
19.123292
 20
71.155090
 11
19.123292
 21
70.655089
  0
LINE
  8
1
  6
CONTINUOUS
 10
20.168108
 20
71.155090
 11
20.168108
 21
70.655089
  0
LINE
  8
1
  6
CONTINUOUS
 10
21.212924
 20
71.155090
 11
21.212924
 21
70.655089
  0
LINE
  8
1
  6
CONTINUOUS
 10
22.257740
 20
71.155090
 11
22.257740
 21
70.655089
  0
LINE
  8
1
  6
CONTINUOUS
 10
22.257740
 20
70.655089
 11
22.257740
 21
71.155090
  0
LINE
  8
1
  6
CONTINUOUS
 10
22.257740
 20
71.155090
 11
22.257740
 21
70.655089
  0
LINE
  8
1
  6
CONTINUOUS
 10
23.824964
 20
71.155090
 11
23.824964
 21
70.655089
  0
LINE
  8
1
  6
CONTINUOUS
 10
25.392188
 20
71.155090
 11
25.392188
 21
70.655089
  0
LINE
  8
1
  6
CONTINUOUS
 10
5.968460
 20
70.655089
 11
5.968460
 21
70.155089
  0
LINE
  8
1
  6
CONTINUOUS
 10
5.968460
 20
70.155089
 11
25.392188
 21
70.155089
  0
LINE
  8
1
  6
CONTINUOUS
 10
8.457576
 20
70.655089
 11
8.457576
 21
70.155089
  0
LINE
  8
1
  6
CONTINUOUS
 10
10.595289
 20
70.655089
 11
10.595289
 21
70.155089
  0
LINE
  8
1
  6
CONTINUOUS
 10
11.970656
 20
70.655089
 11
11.970656
 21
70.155089
  0
LINE
  8
1
  6
CONTINUOUS
 10
16.135169
 20
70.655089
 11
16.135169
 21
70.155089
  0
LINE
  8
1
  6
CONTINUOUS
 10
19.123292
 20
70.655089
 11
19.123292
 21
70.155089
  0
LINE
  8
1
  6
CONTINUOUS
 10
20.168108
 20
70.655089
 11
20.168108
 21
70.155089
  0
LINE
  8
1
  6
CONTINUOUS
 10
21.212924
 20
70.655089
 11
21.212924
 21
70.155089
  0
LINE
  8
1
  6
CONTINUOUS
 10
22.257740
 20
70.655089
 11
22.257740
 21
70.155089
  0
LINE
  8
1
  6
CONTINUOUS
 10
22.257740
 20
70.155089
 11
22.257740
 21
70.655089
  0
LINE
  8
1
  6
CONTINUOUS
 10
22.257740
 20
70.655089
 11
22.257740
 21
70.155089
  0
LINE
  8
1
  6
CONTINUOUS
 10
23.824964
 20
70.655089
 11
23.824964
 21
70.155089
  0
LINE
  8
1
  6
CONTINUOUS
 10
25.392188
 20
70.655089
 11
25.392188
 21
70.155089
  0
LINE
  8
1
  6
CONTINUOUS
 10
5.968460
 20
70.155088
 11
5.968460
 21
69.655088
  0
LINE
  8
1
  6
CONTINUOUS
 10
5.968460
 20
69.655088
 11
25.392188
 21
69.655088
  0
LINE
  8
1
  6
CONTINUOUS
 10
8.457576
 20
70.155088
 11
8.457576
 21
69.655088
  0
LINE
  8
1
  6
CONTINUOUS
 10
10.595289
 20
70.155088
 11
10.595289
 21
69.655088
  0
LINE
  8
1
  6
CONTINUOUS
 10
11.970656
 20
70.155088
 11
11.970656
 21
69.655088
  0
LINE
  8
1
  6
CONTINUOUS
 10
16.135169
 20
70.155088
 11
16.135169
 21
69.655088
  0
LINE
  8
1
  6
CONTINUOUS
 10
19.123292
 20
70.155088
 11
19.123292
 21
69.655088
  0
LINE
  8
1
  6
CONTINUOUS
 10
20.168108
 20
70.155088
 11
20.168108
 21
69.655088
  0
LINE
  8
1
  6
CONTINUOUS
 10
21.212924
 20
70.155088
 11
21.212924
 21
69.655088
  0
LINE
  8
1
  6
CONTINUOUS
 10
22.257740
 20
70.155088
 11
22.257740
 21
69.655088
  0
LINE
  8
1
  6
CONTINUOUS
 10
22.257740
 20
69.655088
 11
22.257740
 21
70.155088
  0
LINE
  8
1
  6
CONTINUOUS
 10
22.257740
 20
70.155089
 11
22.257740
 21
69.655088
  0
LINE
  8
1
  6
CONTINUOUS
 10
23.824964
 20
70.155088
 11
23.824964
 21
69.655088
  0
LINE
  8
1
  6
CONTINUOUS
 10
25.392188
 20
70.155088
 11
25.392188
 21
69.655088
  0
LINE
  8
1
  6
CONTINUOUS
 10
5.968460
 20
69.655087
 11
5.968460
 21
69.155087
  0
LINE
  8
1
  6
CONTINUOUS
 10
5.968460
 20
69.155087
 11
25.392188
 21
69.155087
  0
LINE
  8
1
  6
CONTINUOUS
 10
8.457576
 20
69.655087
 11
8.457576
 21
69.155087
  0
LINE
  8
1
  6
CONTINUOUS
 10
10.595289
 20
69.655087
 11
10.595289
 21
69.155087
  0
LINE
  8
1
  6
CONTINUOUS
 10
11.970656
 20
69.655087
 11
11.970656
 21
69.155087
  0
LINE
  8
1
  6
CONTINUOUS
 10
16.135169
 20
69.655087
 11
16.135169
 21
69.155087
  0
LINE
  8
1
  6
CONTINUOUS
 10
19.123292
 20
69.655087
 11
19.123292
 21
69.155087
  0
LINE
  8
1
  6
CONTINUOUS
 10
20.168108
 20
69.655087
 11
20.168108
 21
69.155087
  0
LINE
  8
1
  6
CONTINUOUS
 10
21.212924
 20
69.655087
 11
21.212924
 21
69.155087
  0
LINE
  8
1
  6
CONTINUOUS
 10
22.257740
 20
69.655087
 11
22.257740
 21
69.155087
  0
LINE
  8
1
  6
CONTINUOUS
 10
22.257740
 20
69.155087
 11
22.257740
 21
69.655087
  0
LINE
  8
1
  6
CONTINUOUS
 10
22.257740
 20
69.655088
 11
22.257740
 21
69.155087
  0
LINE
  8
1
  6
CONTINUOUS
 10
23.824964
 20
69.655087
 11
23.824964
 21
69.155087
  0
LINE
  8
1
  6
CONTINUOUS
 10
25.392188
 20
69.655087
 11
25.392188
 21
69.155087
  0
LINE
  8
1
  6
CONTINUOUS
 10
5.968460
 20
69.155087
 11
5.968460
 21
68.655087
  0
LINE
  8
1
  6
CONTINUOUS
 10
5.968460
 20
68.655087
 11
25.392188
 21
68.655087
  0
LINE
  8
1
  6
CONTINUOUS
 10
8.457576
 20
69.155087
 11
8.457576
 21
68.655087
  0
LINE
  8
1
  6
CONTINUOUS
 10
10.595289
 20
69.155087
 11
10.595289
 21
68.655087
  0
LINE
  8
1
  6
CONTINUOUS
 10
11.970656
 20
69.155087
 11
11.970656
 21
68.655087
  0
LINE
  8
1
  6
CONTINUOUS
 10
16.135169
 20
69.155087
 11
16.135169
 21
68.655087
  0
LINE
  8
1
  6
CONTINUOUS
 10
19.123292
 20
69.155087
 11
19.123292
 21
68.655087
  0
LINE
  8
1
  6
CONTINUOUS
 10
20.168108
 20
69.155087
 11
20.168108
 21
68.655087
  0
LINE
  8
1
  6
CONTINUOUS
 10
21.212924
 20
69.155087
 11
21.212924
 21
68.655087
  0
LINE
  8
1
  6
CONTINUOUS
 10
22.257740
 20
69.155087
 11
22.257740
 21
68.655087
  0
LINE
  8
1
  6
CONTINUOUS
 10
22.257740
 20
68.655087
 11
22.257740
 21
69.155087
  0
LINE
  8
1
  6
CONTINUOUS
 10
22.257740
 20
69.155087
 11
22.257740
 21
68.655086
  0
LINE
  8
1
  6
CONTINUOUS
 10
23.824964
 20
69.155087
 11
23.824964
 21
68.655087
  0
LINE
  8
1
  6
CONTINUOUS
 10
25.392188
 20
69.155087
 11
25.392188
 21
68.655087
  0
LINE
  8
1
  6
CONTINUOUS
 10
5.968460
 20
68.655086
 11
5.968460
 21
68.155086
  0
LINE
  8
1
  6
CONTINUOUS
 10
5.968460
 20
68.155086
 11
25.392188
 21
68.155086
  0
LINE
  8
1
  6
CONTINUOUS
 10
8.457576
 20
68.655086
 11
8.457576
 21
68.155086
  0
LINE
  8
1
  6
CONTINUOUS
 10
10.595289
 20
68.655086
 11
10.595289
 21
68.155086
  0
LINE
  8
1
  6
CONTINUOUS
 10
11.970656
 20
68.655086
 11
11.970656
 21
68.155086
  0
LINE
  8
1
  6
CONTINUOUS
 10
16.135169
 20
68.655086
 11
16.135169
 21
68.155086
  0
LINE
  8
1
  6
CONTINUOUS
 10
19.123292
 20
68.655086
 11
19.123292
 21
68.155086
  0
LINE
  8
1
  6
CONTINUOUS
 10
20.168108
 20
68.655086
 11
20.168108
 21
68.155086
  0
LINE
  8
1
  6
CONTINUOUS
 10
21.212924
 20
68.655086
 11
21.212924
 21
68.155086
  0
LINE
  8
1
  6
CONTINUOUS
 10
22.257740
 20
68.655086
 11
22.257740
 21
68.155086
  0
LINE
  8
1
  6
CONTINUOUS
 10
22.257740
 20
68.155086
 11
22.257740
 21
68.655086
  0
LINE
  8
1
  6
CONTINUOUS
 10
22.257740
 20
68.655086
 11
22.257740
 21
68.155086
  0
LINE
  8
1
  6
CONTINUOUS
 10
23.824964
 20
68.655086
 11
23.824964
 21
68.155086
  0
LINE
  8
1
  6
CONTINUOUS
 10
25.392188
 20
68.655086
 11
25.392188
 21
68.155086
  0
LINE
  8
1
  6
CONTINUOUS
 10
5.968460
 20
68.155085
 11
5.968460
 21
67.655085
  0
LINE
  8
1
  6
CONTINUOUS
 10
5.968460
 20
67.655085
 11
25.392188
 21
67.655085
  0
LINE
  8
1
  6
CONTINUOUS
 10
8.457576
 20
68.155085
 11
8.457576
 21
67.655085
  0
LINE
  8
1
  6
CONTINUOUS
 10
10.595289
 20
68.155085
 11
10.595289
 21
67.655085
  0
LINE
  8
1
  6
CONTINUOUS
 10
11.970656
 20
68.155085
 11
11.970656
 21
67.655085
  0
LINE
  8
1
  6
CONTINUOUS
 10
16.135169
 20
68.155085
 11
16.135169
 21
67.655085
  0
LINE
  8
1
  6
CONTINUOUS
 10
19.123292
 20
68.155085
 11
19.123292
 21
67.655085
  0
LINE
  8
1
  6
CONTINUOUS
 10
20.168108
 20
68.155085
 11
20.168108
 21
67.655085
  0
LINE
  8
1
  6
CONTINUOUS
 10
21.212924
 20
68.155085
 11
21.212924
 21
67.655085
  0
LINE
  8
1
  6
CONTINUOUS
 10
22.257740
 20
68.155085
 11
22.257740
 21
67.655085
  0
LINE
  8
1
  6
CONTINUOUS
 10
22.257740
 20
67.655085
 11
22.257740
 21
68.155085
  0
LINE
  8
1
  6
CONTINUOUS
 10
22.257740
 20
68.155086
 11
22.257740
 21
67.655085
  0
LINE
  8
1
  6
CONTINUOUS
 10
23.824964
 20
68.155085
 11
23.824964
 21
67.655085
  0
LINE
  8
1
  6
CONTINUOUS
 10
25.392188
 20
68.155085
 11
25.392188
 21
67.655085
  0
LINE
  8
1
  6
CONTINUOUS
 10
5.968460
 20
67.655085
 11
5.968460
 21
67.155084
  0
LINE
  8
1
  6
CONTINUOUS
 10
5.968460
 20
67.155084
 11
25.392188
 21
67.155084
  0
LINE
  8
1
  6
CONTINUOUS
 10
8.457576
 20
67.655085
 11
8.457576
 21
67.155084
  0
LINE
  8
1
  6
CONTINUOUS
 10
10.595289
 20
67.655085
 11
10.595289
 21
67.155084
  0
LINE
  8
1
  6
CONTINUOUS
 10
11.970656
 20
67.655085
 11
11.970656
 21
67.155084
  0
LINE
  8
1
  6
CONTINUOUS
 10
16.135169
 20
67.655085
 11
16.135169
 21
67.155084
  0
LINE
  8
1
  6
CONTINUOUS
 10
19.123292
 20
67.655085
 11
19.123292
 21
67.155084
  0
LINE
  8
1
  6
CONTINUOUS
 10
20.168108
 20
67.655085
 11
20.168108
 21
67.155084
  0
LINE
  8
1
  6
CONTINUOUS
 10
21.212924
 20
67.655085
 11
21.212924
 21
67.155084
  0
LINE
  8
1
  6
CONTINUOUS
 10
22.257740
 20
67.655085
 11
22.257740
 21
67.155084
  0
LINE
  8
1
  6
CONTINUOUS
 10
22.257740
 20
67.155084
 11
22.257740
 21
67.655085
  0
LINE
  8
1
  6
CONTINUOUS
 10
22.257740
 20
67.655085
 11
22.257740
 21
67.155084
  0
LINE
  8
1
  6
CONTINUOUS
 10
23.824964
 20
67.655085
 11
23.824964
 21
67.155084
  0
LINE
  8
1
  6
CONTINUOUS
 10
25.392188
 20
67.655085
 11
25.392188
 21
67.155084
  0
LINE
  8
1
  6
CONTINUOUS
 10
5.968460
 20
67.155084
 11
5.968460
 21
66.655084
  0
LINE
  8
1
  6
CONTINUOUS
 10
5.968460
 20
66.655084
 11
25.392188
 21
66.655084
  0
LINE
  8
1
  6
CONTINUOUS
 10
8.457576
 20
67.155084
 11
8.457576
 21
66.655084
  0
LINE
  8
1
  6
CONTINUOUS
 10
10.595289
 20
67.155084
 11
10.595289
 21
66.655084
  0
LINE
  8
1
  6
CONTINUOUS
 10
11.970656
 20
67.155084
 11
11.970656
 21
66.655084
  0
LINE
  8
1
  6
CONTINUOUS
 10
16.135169
 20
67.155084
 11
16.135169
 21
66.655084
  0
LINE
  8
1
  6
CONTINUOUS
 10
19.123292
 20
67.155084
 11
19.123292
 21
66.655084
  0
LINE
  8
1
  6
CONTINUOUS
 10
20.168108
 20
67.155084
 11
20.168108
 21
66.655084
  0
LINE
  8
1
  6
CONTINUOUS
 10
21.212924
 20
67.155084
 11
21.212924
 21
66.655084
  0
LINE
  8
1
  6
CONTINUOUS
 10
22.257740
 20
67.155084
 11
22.257740
 21
66.655084
  0
LINE
  8
1
  6
CONTINUOUS
 10
22.257740
 20
66.655084
 11
22.257740
 21
67.155084
  0
LINE
  8
1
  6
CONTINUOUS
 10
22.257740
 20
67.155084
 11
22.257740
 21
66.655084
  0
LINE
  8
1
  6
CONTINUOUS
 10
23.824964
 20
67.155084
 11
23.824964
 21
66.655084
  0
LINE
  8
1
  6
CONTINUOUS
 10
25.392188
 20
67.155084
 11
25.392188
 21
66.655084
  0
LINE
  8
1
  6
CONTINUOUS
 10
5.968460
 20
66.655083
 11
5.968460
 21
66.155083
  0
LINE
  8
1
  6
CONTINUOUS
 10
5.968460
 20
66.155083
 11
25.392188
 21
66.155083
  0
LINE
  8
1
  6
CONTINUOUS
 10
8.457576
 20
66.655083
 11
8.457576
 21
66.155083
  0
LINE
  8
1
  6
CONTINUOUS
 10
10.595289
 20
66.655083
 11
10.595289
 21
66.155083
  0
LINE
  8
1
  6
CONTINUOUS
 10
11.970656
 20
66.655083
 11
11.970656
 21
66.155083
  0
LINE
  8
1
  6
CONTINUOUS
 10
16.135169
 20
66.655083
 11
16.135169
 21
66.155083
  0
LINE
  8
1
  6
CONTINUOUS
 10
19.123292
 20
66.655083
 11
19.123292
 21
66.155083
  0
LINE
  8
1
  6
CONTINUOUS
 10
20.168108
 20
66.655083
 11
20.168108
 21
66.155083
  0
LINE
  8
1
  6
CONTINUOUS
 10
21.212924
 20
66.655083
 11
21.212924
 21
66.155083
  0
LINE
  8
1
  6
CONTINUOUS
 10
22.257740
 20
66.655083
 11
22.257740
 21
66.155083
  0
LINE
  8
1
  6
CONTINUOUS
 10
22.257740
 20
66.155083
 11
22.257740
 21
66.655083
  0
LINE
  8
1
  6
CONTINUOUS
 10
22.257740
 20
66.655084
 11
22.257740
 21
66.155083
  0
LINE
  8
1
  6
CONTINUOUS
 10
23.824964
 20
66.655083
 11
23.824964
 21
66.155083
  0
LINE
  8
1
  6
CONTINUOUS
 10
25.392188
 20
66.655083
 11
25.392188
 21
66.155083
  0
LINE
  8
1
  6
CONTINUOUS
 10
5.968460
 20
66.155082
 11
5.968460
 21
65.655082
  0
LINE
  8
1
  6
CONTINUOUS
 10
5.968460
 20
65.655082
 11
25.392188
 21
65.655082
  0
LINE
  8
1
  6
CONTINUOUS
 10
8.457576
 20
66.155082
 11
8.457576
 21
65.655082
  0
LINE
  8
1
  6
CONTINUOUS
 10
10.595289
 20
66.155082
 11
10.595289
 21
65.655082
  0
LINE
  8
1
  6
CONTINUOUS
 10
11.970656
 20
66.155082
 11
11.970656
 21
65.655082
  0
LINE
  8
1
  6
CONTINUOUS
 10
16.135169
 20
66.155082
 11
16.135169
 21
65.655082
  0
LINE
  8
1
  6
CONTINUOUS
 10
19.123292
 20
66.155082
 11
19.123292
 21
65.655082
  0
LINE
  8
1
  6
CONTINUOUS
 10
20.168108
 20
66.155082
 11
20.168108
 21
65.655082
  0
LINE
  8
1
  6
CONTINUOUS
 10
21.212924
 20
66.155082
 11
21.212924
 21
65.655082
  0
LINE
  8
1
  6
CONTINUOUS
 10
22.257740
 20
66.155082
 11
22.257740
 21
65.655082
  0
LINE
  8
1
  6
CONTINUOUS
 10
22.257740
 20
65.655082
 11
22.257740
 21
66.155082
  0
LINE
  8
1
  6
CONTINUOUS
 10
22.257740
 20
66.155083
 11
22.257740
 21
65.655082
  0
LINE
  8
1
  6
CONTINUOUS
 10
23.824964
 20
66.155082
 11
23.824964
 21
65.655082
  0
LINE
  8
1
  6
CONTINUOUS
 10
25.392188
 20
66.155082
 11
25.392188
 21
65.655082
  0
LINE
  8
1
  6
CONTINUOUS
 10
5.968460
 20
65.017730
 11
19.251552
 21
65.017730
  0
LINE
  8
1
  6
CONTINUOUS
 10
5.968460
 20
63.655082
 11
19.251552
 21
63.655082
  0
LINE
  8
1
  6
CONTINUOUS
 10
5.968460
 20
63.155082
 11
14.890169
 21
63.155082
  0
LINE
  8
1
  6
CONTINUOUS
 10
14.890169
 20
63.155082
 11
17.078292
 21
63.155082
  0
LINE
  8
1
  6
CONTINUOUS
 10
16.458272
 20
63.155082
 11
17.503088
 21
63.155082
  0
LINE
  8
1
  6
CONTINUOUS
 10
17.503088
 20
63.155082
 11
19.167924
 21
63.155082
  0
LINE
  8
1
  6
CONTINUOUS
 10
19.167924
 20
63.155082
 11
19.251552
 21
63.155082
  0
LINE
  8
1
  6
CONTINUOUS
 10
5.968460
 20
65.017730
 11
5.968460
 21
62.155082
  0
LINE
  8
1
  6
CONTINUOUS
 10
5.968460
 20
62.155082
 11
19.251552
 21
62.155082
  0
LINE
  8
1
  6
CONTINUOUS
 10
8.106172
 20
63.155082
 11
8.106172
 21
62.155082
  0
LINE
  8
1
  6
CONTINUOUS
 10
10.294296
 20
62.155082
 11
10.294296
 21
63.155082
  0
LINE
  8
1
  6
CONTINUOUS
 10
17.161920
 20
63.155082
 11
17.161920
 21
62.155082
  0
LINE
  8
1
  6
CONTINUOUS
 10
18.206737
 20
63.155082
 11
18.206737
 21
62.155082
  0
LINE
  8
1
  6
CONTINUOUS
 10
11.997108
 20
62.155082
 11
11.997108
 21
62.655082
  0
LINE
  8
1
  6
CONTINUOUS
 10
19.251552
 20
62.155082
 11
19.251552
 21
65.017730
  0
LINE
  8
1
  6
CONTINUOUS
 10
10.294296
 20
62.655082
 11
16.117105
 21
62.655082
  0
LINE
  8
1
  6
CONTINUOUS
 10
16.117105
 20
62.155082
 11
16.117105
 21
63.655082
  0
LINE
  8
1
  6
CONTINUOUS
 10
14.057107
 20
62.155082
 11
14.057107
 21
62.655082
  0
LINE
  8
1
  6
CONTINUOUS
 10
5.968460
 20
62.155081
 11
5.968460
 21
61.655081
  0
LINE
  8
1
  6
CONTINUOUS
 10
8.106172
 20
62.155081
 11
8.106172
 21
61.655081
  0
LINE
  8
1
  6
CONTINUOUS
 10
10.294296
 20
62.155081
 11
10.294296
 21
61.655081
  0
LINE
  8
1
  6
CONTINUOUS
 10
5.968460
 20
61.655081
 11
19.251552
 21
61.655081
  0
LINE
  8
1
  6
CONTINUOUS
 10
16.117105
 20
62.155082
 11
16.117105
 21
61.655082
  0
LINE
  8
1
  6
CONTINUOUS
 10
17.161920
 20
62.155082
 11
17.161920
 21
61.655082
  0
LINE
  8
1
  6
CONTINUOUS
 10
18.206737
 20
62.155082
 11
18.206737
 21
61.655082
  0
LINE
  8
1
  6
CONTINUOUS
 10
11.997108
 20
62.155082
 11
11.997108
 21
61.655081
  0
LINE
  8
1
  6
CONTINUOUS
 10
14.057107
 20
61.655081
 11
14.057107
 21
62.155082
  0
LINE
  8
1
  6
CONTINUOUS
 10
16.117105
 20
61.655081
 11
16.117105
 21
62.155082
  0
LINE
  8
1
  6
CONTINUOUS
 10
19.251552
 20
62.155082
 11
19.251552
 21
61.655081
  0
LINE
  8
1
  6
CONTINUOUS
 10
5.968460
 20
61.655081
 11
5.968460
 21
61.155080
  0
LINE
  8
1
  6
CONTINUOUS
 10
8.106172
 20
61.655081
 11
8.106172
 21
61.155080
  0
LINE
  8
1
  6
CONTINUOUS
 10
10.294296
 20
61.655081
 11
10.294296
 21
61.155080
  0
LINE
  8
1
  6
CONTINUOUS
 10
5.968460
 20
61.155080
 11
19.251552
 21
61.155080
  0
LINE
  8
1
  6
CONTINUOUS
 10
16.117105
 20
61.655081
 11
16.117105
 21
61.155081
  0
LINE
  8
1
  6
CONTINUOUS
 10
17.161920
 20
61.655081
 11
17.161920
 21
61.155081
  0
LINE
  8
1
  6
CONTINUOUS
 10
18.206737
 20
61.655081
 11
18.206737
 21
61.155081
  0
LINE
  8
1
  6
CONTINUOUS
 10
11.997108
 20
61.655081
 11
11.997108
 21
61.155080
  0
LINE
  8
1
  6
CONTINUOUS
 10
14.057107
 20
61.155080
 11
14.057107
 21
61.655081
  0
LINE
  8
1
  6
CONTINUOUS
 10
16.117105
 20
61.155080
 11
16.117105
 21
61.655081
  0
LINE
  8
1
  6
CONTINUOUS
 10
19.251552
 20
61.655081
 11
19.251552
 21
61.155080
  0
LINE
  8
1
  6
CONTINUOUS
 10
5.968460
 20
61.155080
 11
5.968460
 21
60.655080
  0
LINE
  8
1
  6
CONTINUOUS
 10
8.106172
 20
61.155080
 11
8.106172
 21
60.655080
  0
LINE
  8
1
  6
CONTINUOUS
 10
10.294296
 20
61.155080
 11
10.294296
 21
60.655080
  0
LINE
  8
1
  6
CONTINUOUS
 10
5.968460
 20
60.655080
 11
19.251552
 21
60.655080
  0
LINE
  8
1
  6
CONTINUOUS
 10
16.117105
 20
61.155080
 11
16.117105
 21
60.655080
  0
LINE
  8
1
  6
CONTINUOUS
 10
17.161920
 20
61.155080
 11
17.161920
 21
60.655080
  0
LINE
  8
1
  6
CONTINUOUS
 10
18.206737
 20
61.155080
 11
18.206737
 21
60.655080
  0
LINE
  8
1
  6
CONTINUOUS
 10
11.997108
 20
61.155080
 11
11.997108
 21
60.655080
  0
LINE
  8
1
  6
CONTINUOUS
 10
14.057107
 20
60.655080
 11
14.057107
 21
61.155080
  0
LINE
  8
1
  6
CONTINUOUS
 10
16.117105
 20
60.655080
 11
16.117105
 21
61.155080
  0
LINE
  8
1
  6
CONTINUOUS
 10
19.251552
 20
61.155080
 11
19.251552
 21
60.655080
  0
LINE
  8
2
  6
CONTINUOUS
 10
101.700000
 20
23.900000
 11
101.700000
 21
23.900000
  0
LINE
  8
2
  6
CONTINUOUS
 10
118.000000
 20
23.900000
 11
118.000000
 21
23.900000
  0
LINE
  8
2
  6
CONTINUOUS
 10
118.000000
 20
23.900000
 11
101.700000
 21
23.900000
  0
LINE
  8
2
  6
CONTINUOUS
 10
118.000000
 20
22.200000
 11
101.700000
 21
22.200000
  0
LINE
  8
2
  6
CONTINUOUS
 10
101.700000
 20
23.900000
 11
101.700000
 21
22.200000
  0
LINE
  8
2
  6
CONTINUOUS
 10
118.000000
 20
22.200000
 11
118.000000
 21
23.900000
  0
LINE
  8
1
  6
CONTINUOUS
 10
118.000002
 20
29.700001
 11
119.000002
 21
29.700001
  0
LINE
  8
1
  6
CONTINUOUS
 10
118.000002
 20
59.400002
 11
119.000002
 21
59.400002
  0
LINE
  8
1
  6
CONTINUOUS
 10
0.000000
 20
29.700001
 11
2.500000
 21
29.700001
  0
LINE
  8
1
  6
CONTINUOUS
 10
0.000000
 20
59.400002
 11
2.500000
 21
59.400002
  0
LINE
  8
1
  6
CONTINUOUS
 10
100.500002
 20
82.999998
 11
100.500002
 21
83.999998
  0
LINE
  8
1
  6
CONTINUOUS
 10
82.000002
 20
82.999998
 11
82.000002
 21
83.999998
  0
LINE
  8
1
  6
CONTINUOUS
 10
63.500002
 20
82.999998
 11
63.500002
 21
83.999998
  0
LINE
  8
1
  6
CONTINUOUS
 10
45.000002
 20
82.999998
 11
45.000002
 21
83.999998
  0
LINE
  8
1
  6
CONTINUOUS
 10
33.050001
 20
82.999998
 11
33.050001
 21
83.999998
  0
LINE
  8
1
  6
CONTINUOUS
 10
21.100000
 20
82.999998
 11
21.100000
 21
83.999998
  0
LINE
  8
1
  6
CONTINUOUS
 10
100.500002
 20
0.000000
 11
100.500002
 21
1.000000
  0
LINE
  8
1
  6
CONTINUOUS
 10
82.000002
 20
0.000000
 11
82.000002
 21
1.000000
  0
LINE
  8
1
  6
CONTINUOUS
 10
63.500002
 20
0.000000
 11
63.500002
 21
1.000000
  0
LINE
  8
1
  6
CONTINUOUS
 10
45.000002
 20
0.000000
 11
45.000002
 21
1.000000
  0
LINE
  8
1
  6
CONTINUOUS
 10
33.050001
 20
0.000000
 11
33.050001
 21
1.000000
  0
LINE
  8
1
  6
CONTINUOUS
 10
21.100000
 20
0.000000
 11
21.100000
 21
1.000000
  0
LINE
  8
1
  6
CONTINUOUS
 10
0.000000
 20
0.000000
 11
119.000002
 21
0.000000
  0
LINE
  8
1
  6
CONTINUOUS
 10
119.000002
 20
0.000000
 11
119.000002
 21
83.999998
  0
LINE
  8
1
  6
CONTINUOUS
 10
0.000000
 20
0.000000
 11
0.000000
 21
83.999998
  0
LINE
  8
8
  6
CONTINUOUS
 10
2.500000
 20
1.000000
 11
118.000002
 21
1.000000
  0
LINE
  8
8
  6
CONTINUOUS
 10
118.000002
 20
1.000000
 11
118.000002
 21
82.999998
  0
LINE
  8
1
  6
CONTINUOUS
 10
0.000000
 20
83.999998
 11
119.000002
 21
83.999998
  0
LINE
  8
8
  6
CONTINUOUS
 10
2.500000
 20
82.999998
 11
118.000002
 21
82.999998
  0
LINE
  8
8
  6
CONTINUOUS
 10
2.500000
 20
82.999998
 11
2.500000
 21
1.000000
  0
LINE
  8
2
  6
CONTINUOUS
 10
102.650002
 20
17.625000
 11
102.650002
 21
18.125000
  0
LINE
  8
1
  6
CONTINUOUS
 10
101.700002
 20
18.200000
 11
118.000002
 21
18.200000
  0
LINE
  8
1
  6
CONTINUOUS
 10
101.700002
 20
17.700000
 11
118.000002
 21
17.700000
  0
LINE
  8
1
  6
CONTINUOUS
 10
102.200002
 20
17.700000
 11
118.000002
 21
17.700000
  0
LINE
  8
2
  6
CONTINUOUS
 10
102.650002
 20
17.125000
 11
102.650002
 21
17.625000
  0
LINE
  8
1
  6
CONTINUOUS
 10
102.200002
 20
17.700000
 11
118.000002
 21
17.700000
  0
LINE
  8
1
  6
CONTINUOUS
 10
101.700002
 20
17.200000
 11
118.000002
 21
17.200000
  0
LINE
  8
2
  6
CONTINUOUS
 10
102.650002
 20
16.700000
 11
102.650002
 21
17.200000
  0
LINE
  8
1
  6
CONTINUOUS
 10
116.008223
 20
16.000000
 11
116.008223
 21
22.200000
  0
LINE
  8
1
  6
CONTINUOUS
 10
104.850002
 20
16.000000
 11
104.850002
 21
22.200000
  0
LINE
  8
6
  6
CONTINUOUS
 10
101.700002
 20
16.000000
 11
118.000002
 21
16.000000
  0
LINE
  8
1
  6
CONTINUOUS
 10
102.650002
 20
16.000000
 11
102.650002
 21
16.700000
  0
LINE
  8
1
  6
CONTINUOUS
 10
102.200002
 20
17.200000
 11
118.000002
 21
17.200000
  0
LINE
  8
1
  6
CONTINUOUS
 10
101.700002
 20
16.700000
 11
118.000002
 21
16.700000
  0
LINE
  8
2
  6
CONTINUOUS
 10
102.650002
 20
18.625000
 11
102.650002
 21
22.200000
  0
LINE
  8
6
  6
CONTINUOUS
 10
101.700002
 20
22.200000
 11
118.000002
 21
22.200000
  0
LINE
  8
1
  6
CONTINUOUS
 10
101.700002
 20
18.700000
 11
118.000002
 21
18.700000
  0
LINE
  8
1
  6
CONTINUOUS
 10
102.200002
 20
18.700000
 11
118.000002
 21
18.700000
  0
LINE
  8
2
  6
CONTINUOUS
 10
102.650002
 20
18.125000
 11
102.650002
 21
18.625000
  0
LINE
  8
1
  6
CONTINUOUS
 10
102.200002
 20
18.700000
 11
118.000002
 21
18.700000
  0
LINE
  8
1
  6
CONTINUOUS
 10
102.200002
 20
18.200000
 11
118.000002
 21
18.200000
  0
LINE
  8
1
  6
CONTINUOUS
 10
102.200002
 20
18.200000
 11
118.000002
 21
18.200000
  0
LINE
  8
6
  6
CONTINUOUS
 10
101.700002
 20
6.600000
 11
118.000002
 21
6.600000
  0
LINE
  8
6
  6
CONTINUOUS
 10
101.700002
 20
8.500000
 11
118.000002
 21
8.500000
  0
LINE
  8
6
  6
CONTINUOUS
 10
101.700002
 20
1.000000
 11
101.700002
 21
8.500000
  0
LINE
  8
6
  6
CONTINUOUS
 10
101.700002
 20
16.000000
 11
101.700002
 21
22.200000
  0
LINE
  8
6
  6
CONTINUOUS
 10
101.700002
 20
15.900000
 11
118.000002
 21
15.900000
  0
LINE
  8
6
  6
CONTINUOUS
 10
101.700002
 20
11.400000
 11
101.700002
 21
15.900000
  0
LINE
  8
1
  6
CONTINUOUS
 10
101.700002
 20
14.400000
 11
118.000002
 21
14.400000
  0
LINE
  8
6
  6
CONTINUOUS
 10
101.700002
 20
3.000000
 11
118.000002
 21
3.000000
  0
LINE
  8
6
  6
CONTINUOUS
 10
105.024321
 20
3.000000
 11
105.024321
 21
1.000000
  0
LINE
  8
1
  6
CONTINUOUS
 10
101.700002
 20
12.900000
 11
118.000002
 21
12.900000
  0
POLYLINE
  8
1
  6
CONTINUOUS
 66
     1
  0
VERTEX
  8
1
  6
CONTINUOUS
 10
103.635546
 20
9.498246
  0
VERTEX
  8
1
  6
CONTINUOUS
 10
101.971546
 20
9.498246
  0
VERTEX
  8
1
  6
CONTINUOUS
 10
101.971546
 20
11.162246
  0
VERTEX
  8
1
  6
CONTINUOUS
 10
103.635546
 20
11.162246
  0
VERTEX
  8
1
  6
CONTINUOUS
 10
103.635546
 20
9.498246
  0
SEQEND
  8
1
  6
CONTINUOUS
  0
POLYLINE
  8
13
  6
CONTINUOUS
 66
     1
  0
VERTEX
  8
13
  6
CONTINUOUS
 10
102.095046
 20
10.244446
  0
VERTEX
  8
13
  6
CONTINUOUS
 10
102.095046
 20
9.498246
  0
VERTEX
  8
13
  6
CONTINUOUS
 10
101.971546
 20
9.498246
  0
VERTEX
  8
13
  6
CONTINUOUS
 10
101.971546
 20
11.162246
  0
VERTEX
  8
13
  6
CONTINUOUS
 10
102.095046
 20
11.162246
  0
VERTEX
  8
13
  6
CONTINUOUS
 10
102.095046
 20
10.244446
  0
SEQEND
  8
13
  6
CONTINUOUS
  0
POLYLINE
  8
13
  6
CONTINUOUS
 66
     1
  0
VERTEX
  8
13
  6
CONTINUOUS
 10
102.522746
 20
10.230979
  0
VERTEX
  8
13
  6
CONTINUOUS
 10
102.522746
 20
9.498246
  0
VERTEX
  8
13
  6
CONTINUOUS
 10
102.095046
 20
9.498246
  0
VERTEX
  8
13
  6
CONTINUOUS
 10
102.095046
 20
10.244446
  0
VERTEX
  8
13
  6
CONTINUOUS
 10
102.143544
 20
10.248642
  0
VERTEX
  8
13
  6
CONTINUOUS
 10
102.211078
 20
10.252071
  0
VERTEX
  8
13
  6
CONTINUOUS
 10
102.259959
 20
10.252484
  0
VERTEX
  8
13
  6
CONTINUOUS
 10
102.290321
 20
10.252141
  0
VERTEX
  8
13
  6
CONTINUOUS
 10
102.334203
 20
10.250668
  0
VERTEX
  8
13
  6
CONTINUOUS
 10
102.394518
 20
10.246747
  0
VERTEX
  8
13
  6
CONTINUOUS
 10
102.446340
 20
10.241621
  0
VERTEX
  8
13
  6
CONTINUOUS
 10
102.490083
 20
10.235974
  0
VERTEX
  8
13
  6
CONTINUOUS
 10
102.522746
 20
10.230979
  0
SEQEND
  8
13
  6
CONTINUOUS
  0
POLYLINE
  8
13
  6
CONTINUOUS
 66
     1
  0
VERTEX
  8
13
  6
CONTINUOUS
 10
102.594246
 20
10.217654
  0
VERTEX
  8
13
  6
CONTINUOUS
 10
102.594246
 20
9.498246
  0
VERTEX
  8
13
  6
CONTINUOUS
 10
103.021946
 20
9.498246
  0
VERTEX
  8
13
  6
CONTINUOUS
 10
103.021946
 20
10.064184
  0
VERTEX
  8
13
  6
CONTINUOUS
 10
103.003898
 20
10.073542
  0
VERTEX
  8
13
  6
CONTINUOUS
 10
102.981716
 20
10.084501
  0
VERTEX
  8
13
  6
CONTINUOUS
 10
102.953307
 20
10.098271
  0
VERTEX
  8
13
  6
CONTINUOUS
 10
102.912865
 20
10.116383
  0
VERTEX
  8
13
  6
CONTINUOUS
 10
102.885024
 20
10.128001
  0
VERTEX
  8
13
  6
CONTINUOUS
 10
102.844071
 20
10.144755
  0
VERTEX
  8
13
  6
CONTINUOUS
 10
102.813490
 20
10.155923
  0
VERTEX
  8
13
  6
CONTINUOUS
 10
102.778388
 20
10.168156
  0
VERTEX
  8
13
  6
CONTINUOUS
 10
102.744083
 20
10.178793
  0
VERTEX
  8
13
  6
CONTINUOUS
 10
102.703465
 20
10.191172
  0
VERTEX
  8
13
  6
CONTINUOUS
 10
102.665141
 20
10.201162
  0
VERTEX
  8
13
  6
CONTINUOUS
 10
102.624819
 20
10.210970
  0
VERTEX
  8
13
  6
CONTINUOUS
 10
102.594246
 20
10.217654
  0
SEQEND
  8
13
  6
CONTINUOUS
  0
POLYLINE
  8
13
  6
CONTINUOUS
 66
     1
  0
VERTEX
  8
13
  6
CONTINUOUS
 10
103.093446
 20
10.024343
  0
VERTEX
  8
13
  6
CONTINUOUS
 10
103.093446
 20
9.498246
  0
VERTEX
  8
13
  6
CONTINUOUS
 10
103.521146
 20
9.498246
  0
VERTEX
  8
13
  6
CONTINUOUS
 10
103.521146
 20
9.661030
  0
VERTEX
  8
13
  6
CONTINUOUS
 10
103.507797
 20
9.676793
  0
VERTEX
  8
13
  6
CONTINUOUS
 10
103.495964
 20
9.690528
  0
VERTEX
  8
13
  6
CONTINUOUS
 10
103.473877
 20
9.715277
  0
VERTEX
  8
13
  6
CONTINUOUS
 10
103.454164
 20
9.736530
  0
VERTEX
  8
13
  6
CONTINUOUS
 10
103.434048
 20
9.757502
  0
VERTEX
  8
13
  6
CONTINUOUS
 10
103.410015
 20
9.781535
  0
VERTEX
  8
13
  6
CONTINUOUS
 10
103.399294
 20
9.791943
  0
VERTEX
  8
13
  6
CONTINUOUS
 10
103.388429
 20
9.802406
  0
VERTEX
  8
13
  6
CONTINUOUS
 10
103.359952
 20
9.828752
  0
VERTEX
  8
13
  6
CONTINUOUS
 10
103.325139
 20
9.859181
  0
VERTEX
  8
13
  6
CONTINUOUS
 10
103.286846
 20
9.890826
  0
VERTEX
  8
13
  6
CONTINUOUS
 10
103.251036
 20
9.918745
  0
VERTEX
  8
13
  6
CONTINUOUS
 10
103.200839
 20
9.955427
  0
VERTEX
  8
13
  6
CONTINUOUS
 10
103.134352
 20
9.999676
  0
VERTEX
  8
13
  6
CONTINUOUS
 10
103.093446
 20
10.024343
  0
SEQEND
  8
13
  6
CONTINUOUS
  0
POLYLINE
  8
13
  6
CONTINUOUS
 66
     1
  0
VERTEX
  8
13
  6
CONTINUOUS
 10
102.522746
 20
10.635283
  0
VERTEX
  8
13
  6
CONTINUOUS
 10
102.522746
 20
11.162246
  0
VERTEX
  8
13
  6
CONTINUOUS
 10
102.095046
 20
11.162246
  0
VERTEX
  8
13
  6
CONTINUOUS
 10
102.095046
 20
10.995122
  0
VERTEX
  8
13
  6
CONTINUOUS
 10
102.153689
 20
10.929235
  0
VERTEX
  8
13
  6
CONTINUOUS
 10
102.237359
 20
10.846559
  0
VERTEX
  8
13
  6
CONTINUOUS
 10
102.308389
 20
10.784730
  0
VERTEX
  8
13
  6
CONTINUOUS
 10
102.366624
 20
10.739274
  0
VERTEX
  8
13
  6
CONTINUOUS
 10
102.406322
 20
10.710064
  0
VERTEX
  8
13
  6
CONTINUOUS
 10
102.455827
 20
10.676682
  0
VERTEX
  8
13
  6
CONTINUOUS
 10
102.493954
 20
10.652515
  0
VERTEX
  8
13
  6
CONTINUOUS
 10
102.522746
 20
10.635283
  0
SEQEND
  8
13
  6
CONTINUOUS
  0
POLYLINE
  8
13
  6
CONTINUOUS
 66
     1
  0
VERTEX
  8
13
  6
CONTINUOUS
 10
103.021946
 20
10.443678
  0
VERTEX
  8
13
  6
CONTINUOUS
 10
103.021946
 20
11.162246
  0
VERTEX
  8
13
  6
CONTINUOUS
 10
102.594246
 20
11.162246
  0
VERTEX
  8
13
  6
CONTINUOUS
 10
102.594246
 20
10.595859
  0
VERTEX
  8
13
  6
CONTINUOUS
 10
102.663800
 20
10.561766
  0
VERTEX
  8
13
  6
CONTINUOUS
 10
102.744359
 20
10.527375
  0
VERTEX
  8
13
  6
CONTINUOUS
 10
102.812197
 20
10.501464
  0
VERTEX
  8
13
  6
CONTINUOUS
 10
102.889458
 20
10.476967
  0
VERTEX
  8
13
  6
CONTINUOUS
 10
102.950702
 20
10.460007
  0
VERTEX
  8
13
  6
CONTINUOUS
 10
103.021946
 20
10.443678
  0
SEQEND
  8
13
  6
CONTINUOUS
  0
POLYLINE
  8
13
  6
CONTINUOUS
 66
     1
  0
VERTEX
  8
13
  6
CONTINUOUS
 10
103.093446
 20
10.430307
  0
VERTEX
  8
13
  6
CONTINUOUS
 10
103.093446
 20
11.162246
  0
VERTEX
  8
13
  6
CONTINUOUS
 10
103.521146
 20
11.162246
  0
VERTEX
  8
13
  6
CONTINUOUS
 10
103.521146
 20
10.417580
  0
VERTEX
  8
13
  6
CONTINUOUS
 10
103.476372
 20
10.413637
  0
VERTEX
  8
13
  6
CONTINUOUS
 10
103.416577
 20
10.410480
  0
VERTEX
  8
13
  6
CONTINUOUS
 10
103.366788
 20
10.409453
  0
VERTEX
  8
13
  6
CONTINUOUS
 10
103.336830
 20
10.409453
  0
VERTEX
  8
13
  6
CONTINUOUS
 10
103.286182
 20
10.410821
  0
VERTEX
  8
13
  6
CONTINUOUS
 10
103.241261
 20
10.413321
  0
VERTEX
  8
13
  6
CONTINUOUS
 10
103.205545
 20
10.416539
  0
VERTEX
  8
13
  6
CONTINUOUS
 10
103.155349
 20
10.421044
  0
VERTEX
  8
13
  6
CONTINUOUS
 10
103.093446
 20
10.430307
  0
SEQEND
  8
13
  6
CONTINUOUS
  0
POLYLINE
  8
13
  6
CONTINUOUS
 66
     1
  0
VERTEX
  8
13
  6
CONTINUOUS
 10
102.522746
 20
9.498246
  0
VERTEX
  8
13
  6
CONTINUOUS
 10
102.594246
 20
9.498246
  0
VERTEX
  8
13
  6
CONTINUOUS
 10
102.594246
 20
11.162246
  0
VERTEX
  8
13
  6
CONTINUOUS
 10
102.522746
 20
11.162246
  0
VERTEX
  8
13
  6
CONTINUOUS
 10
102.522746
 20
9.498246
  0
VERTEX
  8
13
  6
CONTINUOUS
 10
102.594246
 20
9.498246
  0
SEQEND
  8
13
  6
CONTINUOUS
  0
POLYLINE
  8
13
  6
CONTINUOUS
 66
     1
  0
VERTEX
  8
13
  6
CONTINUOUS
 10
103.021946
 20
11.162246
  0
VERTEX
  8
13
  6
CONTINUOUS
 10
103.093446
 20
11.162246
  0
VERTEX
  8
13
  6
CONTINUOUS
 10
103.093446
 20
9.498246
  0
VERTEX
  8
13
  6
CONTINUOUS
 10
103.021946
 20
9.498246
  0
VERTEX
  8
13
  6
CONTINUOUS
 10
103.021946
 20
11.162246
  0
SEQEND
  8
13
  6
CONTINUOUS
  0
POLYLINE
  8
13
  6
CONTINUOUS
 66
     1
  0
VERTEX
  8
13
  6
CONTINUOUS
 10
103.521146
 20
9.498246
  0
VERTEX
  8
13
  6
CONTINUOUS
 10
103.635546
 20
9.498246
  0
VERTEX
  8
13
  6
CONTINUOUS
 10
103.635546
 20
11.162246
  0
VERTEX
  8
13
  6
CONTINUOUS
 10
103.521146
 20
11.162246
  0
VERTEX
  8
13
  6
CONTINUOUS
 10
103.521146
 20
9.498246
  0
SEQEND
  8
13
  6
CONTINUOUS
  0
LINE
  8
6
  6
CONTINUOUS
 10
107.924321
 20
3.000000
 11
107.924321
 21
2.000000
  0
LINE
  8
6
  6
CONTINUOUS
 10
101.700002
 20
2.000000
 11
114.124321
 21
2.000000
  0
LINE
  8
6
  6
CONTINUOUS
 10
114.124321
 20
3.000000
 11
114.124321
 21
1.000000
  0
LINE
  8
6
  6
CONTINUOUS
 10
101.700002
 20
8.600000
 11
118.000002
 21
8.600000
  0
LINE
  8
6
  6
CONTINUOUS
 10
101.700002
 20
8.600000
 11
101.700002
 21
11.300000
  0
LINE
  8
6
  6
CONTINUOUS
 10
101.700002
 20
11.300000
 11
118.000002
 21
11.300000
  0
LINE
  8
6
  6
CONTINUOUS
 10
101.700002
 20
11.400000
 11
118.000002
 21
11.400000
  0
LINE
  8
1
  6
CONTINUOUS
 10
101.700002
 20
19.200000
 11
118.000002
 21
19.200000
  0
LINE
  8
1
  6
CONTINUOUS
 10
102.200002
 20
19.200000
 11
118.000002
 21
19.200000
  0
LINE
  8
1
  6
CONTINUOUS
 10
102.200002
 20
19.200000
 11
118.000002
 21
19.200000
  0
LINE
  8
1
  6
CONTINUOUS
 10
101.700002
 20
19.700000
 11
118.000002
 21
19.700000
  0
LINE
  8
1
  6
CONTINUOUS
 10
102.200002
 20
19.700000
 11
118.000002
 21
19.700000
  0
LINE
  8
1
  6
CONTINUOUS
 10
102.200002
 20
19.700000
 11
118.000002
 21
19.700000
  0
LINE
  8
1
  6
CONTINUOUS
 10
101.700002
 20
20.200000
 11
118.000002
 21
20.200000
  0
LINE
  8
1
  6
CONTINUOUS
 10
102.200002
 20
20.200000
 11
118.000002
 21
20.200000
  0
LINE
  8
1
  6
CONTINUOUS
 10
102.200002
 20
20.200000
 11
118.000002
 21
20.200000
  0
LINE
  8
1
  6
CONTINUOUS
 10
101.700002
 20
20.700000
 11
118.000002
 21
20.700000
  0
LINE
  8
1
  6
CONTINUOUS
 10
102.200002
 20
20.700000
 11
118.000002
 21
20.700000
  0
LINE
  8
1
  6
CONTINUOUS
 10
102.200002
 20
20.700000
 11
118.000002
 21
20.700000
  0
LINE
  8
1
  6
CONTINUOUS
 10
101.700002
 20
21.200000
 11
118.000002
 21
21.200000
  0
LINE
  8
1
  6
CONTINUOUS
 10
102.200002
 20
21.200000
 11
118.000002
 21
21.200000
  0
LINE
  8
1
  6
CONTINUOUS
 10
102.200002
 20
21.200000
 11
118.000002
 21
21.200000
  0
LINE
  8
1
  6
CONTINUOUS
 10
101.700002
 20
21.700000
 11
118.000002
 21
21.700000
  0
LINE
  8
6
  6
CONTINUOUS
 10
110.708935
 20
11.300000
 11
110.708935
 21
8.600000
  0
TEXT
  8
1
  6
CONTINUOUS
 10
52.701323
 20
27.227029
 40
0.250000
 50
90.000000
  1
L1
  7
TQS_CALIBRI
  0
TEXT
  8
1
  6
CONTINUOUS
 10
93.815003
 20
7.135906
 40
0.250000
 50
90.000000
  1
P907
  7
TQS_CALIBRI
  0
TEXT
  8
1
  6
CONTINUOUS
 10
94.975023
 20
20.874685
 40
0.250000
 50
90.000000
  1
P910
  7
TQS_CALIBRI
  0
TEXT
  8
1
  6
CONTINUOUS
 10
95.564555
 20
27.849816
 40
0.250000
 50
90.000000
  1
P911
  7
TQS_CALIBRI
  0
TEXT
  8
1
  6
CONTINUOUS
 10
95.844797
 20
31.171346
 40
0.250000
 50
90.000000
  1
P912
  7
TQS_CALIBRI
  0
TEXT
  8
1
  6
CONTINUOUS
 10
96.434300
 20
38.146480
 40
0.250000
 50
90.000000
  1
P913
  7
TQS_CALIBRI
  0
TEXT
  8
1
  6
CONTINUOUS
 10
96.725881
 20
41.601244
 40
0.250000
 50
90.000000
  1
P914
  7
TQS_CALIBRI
  0
TEXT
  8
1
  6
CONTINUOUS
 10
92.661387
 20
45.951158
 40
0.250000
 50
90.000000
  1
P905
  7
TQS_CALIBRI
  0
TEXT
  8
1
  6
CONTINUOUS
 10
83.532737
 20
46.723759
 40
0.250000
 50
90.000000
  1
P901
  7
TQS_CALIBRI
  0
TEXT
  8
1
  6
CONTINUOUS
 10
71.127520
 20
47.773679
 40
0.250000
 50
90.000000
  1
P897
  7
TQS_CALIBRI
  0
TEXT
  8
1
  6
CONTINUOUS
 10
53.689866
 20
49.249507
 40
0.250000
 50
90.000000
  1
P871
  7
TQS_CALIBRI
  0
TEXT
  8
1
  6
CONTINUOUS
 10
46.996693
 20
49.815995
 40
0.250000
 50
90.000000
  1
P865
  7
TQS_CALIBRI
  0
TEXT
  8
1
  6
CONTINUOUS
 10
40.330320
 20
50.380204
 40
0.250000
 50
90.000000
  1
P858
  7
TQS_CALIBRI
  0
TEXT
  8
1
  6
CONTINUOUS
 10
32.446946
 20
51.047409
 40
0.250000
 50
90.000000
  1
P846
  7
TQS_CALIBRI
  0
TEXT
  8
1
  6
CONTINUOUS
 10
21.172355
 20
52.001636
 40
0.250000
 50
90.000000
  1
P834
  7
TQS_CALIBRI
  0
TEXT
  8
1
  6
CONTINUOUS
 10
12.827930
 20
52.707844
 40
0.250000
 50
90.000000
  1
P825
  7
TQS_CALIBRI
  0
TEXT
  8
1
  6
CONTINUOUS
 10
87.028124
 20
3.692487
 40
0.250000
 50
90.000000
  1
P904
  7
TQS_CALIBRI
  0
TEXT
  8
1
  6
CONTINUOUS
 10
75.597814
 20
4.659582
 40
0.250000
 50
90.000000
  1
P898
  7
TQS_CALIBRI
  0
TEXT
  8
1
  6
CONTINUOUS
 10
65.061654
 20
5.551453
 40
0.250000
 50
90.000000
  1
P886
  7
TQS_CALIBRI
  0
TEXT
  8
1
  6
CONTINUOUS
 10
45.041732
 20
7.246213
 40
0.250000
 50
90.000000
  1
P861
  7
TQS_CALIBRI
  0
TEXT
  8
1
  6
CONTINUOUS
 10
35.163671
 20
8.082267
 40
0.250000
 50
90.000000
  1
P849
  7
TQS_CALIBRI
  0
TEXT
  8
1
  6
CONTINUOUS
 10
25.614480
 20
8.890486
 40
0.250000
 50
90.000000
  1
P837
  7
TQS_CALIBRI
  0
TEXT
  8
1
  6
CONTINUOUS
 10
17.066860
 20
9.613934
 40
0.250000
 50
90.000000
  1
P823
  7
TQS_CALIBRI
  0
TEXT
  8
1
  6
CONTINUOUS
 10
5.649132
 20
17.005086
 40
0.250000
 50
90.000000
  1
P808
  7
TQS_CALIBRI
  0
TEXT
  8
1
  6
CONTINUOUS
 10
5.666622
 20
25.946666
 40
0.250000
 50
90.000000
  1
P810
  7
TQS_CALIBRI
  0
TEXT
  8
1
  6
CONTINUOUS
 10
5.684423
 20
35.046636
 40
0.250000
 50
90.000000
  1
P812
  7
TQS_CALIBRI
  0
TEXT
  8
1
  6
CONTINUOUS
 10
5.700724
 20
43.379954
 40
0.250000
 50
90.000000
  1
P813
  7
TQS_CALIBRI
  0
TEXT
  8
1
  6
CONTINUOUS
 10
5.708711
 20
47.463279
 40
0.250000
 50
90.000000
  1
P814
  7
TQS_CALIBRI
  0
TEXT
  8
1
  6
CONTINUOUS
 10
77.533544
 20
15.395916
 40
0.250000
 50
90.000000
  1
P125
  7
TQS_CALIBRI
  0
TEXT
  8
1
  6
CONTINUOUS
 10
78.449519
 20
26.216875
 40
0.250000
 50
90.000000
  1
P126
  7
TQS_CALIBRI
  0
TEXT
  8
1
  6
CONTINUOUS
 10
79.325947
 20
36.570626
 40
0.250000
 50
90.000000
  1
P127
  7
TQS_CALIBRI
  0
TEXT
  8
1
  6
CONTINUOUS
 10
60.926269
 20
16.801689
 40
0.250000
 50
90.000000
  1
P119
  7
TQS_CALIBRI
  0
TEXT
  8
1
  6
CONTINUOUS
 10
62.015345
 20
27.691628
 40
0.250000
 50
90.000000
  1
P120
  7
TQS_CALIBRI
  0
TEXT
  8
1
  6
CONTINUOUS
 10
62.884745
 20
37.962342
 40
0.250000
 50
90.000000
  1
P121
  7
TQS_CALIBRI
  0
TEXT
  8
1
  6
CONTINUOUS
 10
44.290881
 20
17.847203
 40
0.250000
 50
90.000000
  1
P111
  7
TQS_CALIBRI
  0
TEXT
  8
1
  6
CONTINUOUS
 10
45.291195
 20
29.664599
 40
0.250000
 50
90.000000
  1
P113
  7
TQS_CALIBRI
  0
TEXT
  8
1
  6
CONTINUOUS
 10
46.167623
 20
40.018349
 40
0.250000
 50
90.000000
  1
P114
  7
TQS_CALIBRI
  0
TEXT
  8
1
  6
CONTINUOUS
 10
15.313817
 20
20.300029
 40
0.250000
 50
90.000000
  1
P99
  7
TQS_CALIBRI
  0
TEXT
  8
1
  6
CONTINUOUS
 10
16.314131
 20
32.117426
 40
0.250000
 50
90.000000
  1
P100
  7
TQS_CALIBRI
  0
TEXT
  8
1
  6
CONTINUOUS
 10
94.407565
 20
14.163372
 40
0.250000
 50
90.000000
  1
P131
  7
TQS_CALIBRI
  0
TEXT
  8
1
  6
CONTINUOUS
 10
95.279000
 20
24.459159
 40
0.250000
 50
90.000000
  1
P132
  7
TQS_CALIBRI
  0
TEXT
  8
1
  6
CONTINUOUS
 10
96.150498
 20
34.755674
 40
0.250000
 50
90.000000
  1
P133
  7
TQS_CALIBRI
  0
TEXT
  8
1
  6
CONTINUOUS
 10
12.267105
 20
10.368584
 40
0.250000
 50
90.000000
  1
P98
  7
TQS_CALIBRI
  0
TEXT
  8
1
  6
CONTINUOUS
 10
97.067960
 20
45.634275
 40
0.250000
 50
90.000000
  1
P134
  7
TQS_CALIBRI
  0
TEXT
  8
1
  6
CONTINUOUS
 10
87.236597
 20
46.410280
 40
0.250000
 50
90.000000
  1
P129
  7
TQS_CALIBRI
  0
TEXT
  8
1
  6
CONTINUOUS
 10
76.441857
 20
47.323895
 40
0.250000
 50
90.000000
  1
P124
  7
TQS_CALIBRI
  0
TEXT
  8
1
  6
CONTINUOUS
 10
67.307846
 20
48.096954
 40
0.250000
 50
90.000000
  1
P122
  7
TQS_CALIBRI
  0
TEXT
  8
1
  6
CONTINUOUS
 10
50.700554
 20
49.502521
 40
0.250000
 50
90.000000
  1
P116
  7
TQS_CALIBRI
  0
TEXT
  8
1
  6
CONTINUOUS
 10
44.057637
 20
50.064740
 40
0.250000
 50
90.000000
  1
P112
  7
TQS_CALIBRI
  0
TEXT
  8
1
  6
CONTINUOUS
 10
26.390385
 20
51.560026
 40
0.250000
 50
90.000000
  1
P104
  7
TQS_CALIBRI
  0
TEXT
  8
1
  6
CONTINUOUS
 10
16.805691
 20
52.371225
 40
0.250000
 50
90.000000
  1
P101
  7
TQS_CALIBRI
  0
TEXT
  8
1
  6
CONTINUOUS
 10
8.003834
 20
53.172382
 40
0.250000
 50
90.000000
  1
P97
  7
TQS_CALIBRI
  0
TEXT
  8
1
  6
CONTINUOUS
 10
4.423753
 20
21.007650
 40
0.250000
 50
90.000000
  1
P93
  7
TQS_CALIBRI
  0
TEXT
  8
1
  6
CONTINUOUS
 10
4.508663
 20
29.709921
 40
0.250000
 50
90.000000
  1
P94
  7
TQS_CALIBRI
  0
TEXT
  8
1
  6
CONTINUOUS
 10
4.296768
 20
39.293266
 40
0.250000
 50
90.000000
  1
P95
  7
TQS_CALIBRI
  0
TEXT
  8
1
  6
CONTINUOUS
 10
4.410562
 20
51.588167
 40
0.250000
 50
90.000000
  1
P96
  7
TQS_CALIBRI
  0
TEXT
  8
1
  6
CONTINUOUS
 10
59.379103
 20
48.824236
 40
0.250000
 50
90.000000
  1
P117
  7
TQS_CALIBRI
  0
TEXT
  8
1
  6
CONTINUOUS
 10
19.605947
 20
9.897758
 40
0.250000
 50
90.000000
  1
P103
  7
TQS_CALIBRI
  0
TEXT
  8
1
  6
CONTINUOUS
 10
70.615632
 20
5.081315
 40
0.250000
 50
90.000000
  1
P123
  7
TQS_CALIBRI
  0
TEXT
  8
1
  6
CONTINUOUS
 10
80.580008
 20
4.237982
 40
0.250000
 50
90.000000
  1
P128
  7
TQS_CALIBRI
  0
TEXT
  8
1
  6
CONTINUOUS
 10
93.476176
 20
3.146220
 40
0.250000
 50
90.000000
  1
P130
  7
TQS_CALIBRI
  0
TEXT
  8
1
  6
CONTINUOUS
 10
94.105984
 20
10.578652
 40
0.250000
 50
90.000000
  1
P906
  7
TQS_CALIBRI
  0
TEXT
  8
1
  6
CONTINUOUS
 10
94.694703
 20
17.553896
 40
0.250000
 50
90.000000
  1
P909
  7
TQS_CALIBRI
  0
TEXT
  8
1
  6
CONTINUOUS
 10
35.856540
 20
50.814935
 40
0.250000
 50
90.000000
  1
P109
  7
TQS_CALIBRI
  0
TEXT
  8
1
  6
CONTINUOUS
 10
50.203003
 20
7.339277
 40
0.250000
 50
90.000000
  1
P115
  7
TQS_CALIBRI
  0
TEXT
  8
1
  6
CONTINUOUS
 10
30.907926
 20
18.869401
 40
0.250000
 50
90.000000
  1
P106
  7
TQS_CALIBRI
  0
TEXT
  8
1
  6
CONTINUOUS
 10
31.908089
 20
30.686811
 40
0.250000
 50
90.000000
  1
P107
  7
TQS_CALIBRI
  0
TEXT
  8
1
  6
CONTINUOUS
 10
32.540705
 20
38.161547
 40
0.250000
 50
90.000000
  1
P108
  7
TQS_CALIBRI
  0
TEXT
  8
1
  6
CONTINUOUS
 10
17.148392
 20
41.972980
 40
0.250000
 50
90.000000
  1
P102
  7
TQS_CALIBRI
  0
TEXT
  8
1
  6
CONTINUOUS
 10
9.123292
 20
10.787736
 40
0.250000
 50
90.000000
  1
P908
  7
TQS_CALIBRI
  0
TEXT
  8
1
  6
CONTINUOUS
 10
40.076826
 20
5.656464
 40
0.250000
 50
90.000000
  1
P303
  7
TQS_CALIBRI
  0
TEXT
  8
1
  6
CONTINUOUS
 10
4.497115
 20
31.509501
 40
0.250000
 50
90.000000
  1
P302
  7
TQS_CALIBRI
  0
TEXT
  8
1
  6
CONTINUOUS
 10
60.067835
 20
6.476287
 40
0.250000
 50
90.000000
  1
P118
  7
TQS_CALIBRI
  0
TEXT
  8
1
  6
CONTINUOUS
 10
30.198044
 20
9.007278
 40
0.250000
 50
90.000000
  1
P105
  7
TQS_CALIBRI
  0
TEXT
  8
1
  6
CONTINUOUS
 10
4.390163
 20
12.090151
 40
0.250000
 50
90.000000
  1
P92
  7
TQS_CALIBRI
  0
TEXT
  8
1
  6
CONTINUOUS
 10
62.989951
 20
48.462411
 40
0.250000
 50
90.000000
  1
P888
  7
TQS_CALIBRI
  0
TEXT
  8
1
  6
CONTINUOUS
 10
39.964831
 20
8.206031
 40
0.250000
 50
90.000000
  1
P110
  7
TQS_CALIBRI
  0
TEXT
  8
4
  6
CONTINUOUS
 10
15.080752
 20
30.705142
 40
0.250000
 50
445.161999
  1
C3
  7
TQS_CALIBRI
  0
TEXT
  8
4
  6
CONTINUOUS
 10
15.412898
 20
30.677029
 40
0.250000
 50
445.161999
  1
C4
  7
TQS_CALIBRI
  0
TEXT
  8
4
  6
CONTINUOUS
 10
15.745044
 20
30.648916
 40
0.250000
 50
445.161999
  1
C5
  7
TQS_CALIBRI
  0
TEXT
  8
4
  6
CONTINUOUS
 10
16.077190
 20
30.620803
 40
0.250000
 50
445.161999
  1
C6
  7
TQS_CALIBRI
  0
TEXT
  8
4
  6
CONTINUOUS
 10
30.684125
 20
29.384534
 40
0.250000
 50
445.161999
  1
C7
  7
TQS_CALIBRI
  0
TEXT
  8
4
  6
CONTINUOUS
 10
31.016271
 20
29.356421
 40
0.250000
 50
445.161999
  1
C8
  7
TQS_CALIBRI
  0
TEXT
  8
4
  6
CONTINUOUS
 10
31.348416
 20
29.328309
 40
0.250000
 50
445.161999
  1
C9
  7
TQS_CALIBRI
  0
TEXT
  8
4
  6
CONTINUOUS
 10
31.680562
 20
29.300196
 40
0.250000
 50
445.161999
  1
C10
  7
TQS_CALIBRI
  0
TEXT
  8
4
  6
CONTINUOUS
 10
44.058025
 20
28.252622
 40
0.250000
 50
445.162000
  1
C11
  7
TQS_CALIBRI
  0
TEXT
  8
4
  6
CONTINUOUS
 10
44.390170
 20
28.224509
 40
0.250000
 50
445.162000
  1
C12
  7
TQS_CALIBRI
  0
TEXT
  8
4
  6
CONTINUOUS
 10
44.722316
 20
28.196397
 40
0.250000
 50
445.162000
  1
C13
  7
TQS_CALIBRI
  0
TEXT
  8
4
  6
CONTINUOUS
 10
45.054462
 20
28.168284
 40
0.250000
 50
445.162000
  1
C14
  7
TQS_CALIBRI
  0
TEXT
  8
4
  6
CONTINUOUS
 10
60.631998
 20
26.849767
 40
0.250000
 50
445.162000
  1
C15
  7
TQS_CALIBRI
  0
TEXT
  8
4
  6
CONTINUOUS
 10
60.897714
 20
26.827277
 40
0.250000
 50
445.162000
  1
C16
  7
TQS_CALIBRI
  0
TEXT
  8
4
  6
CONTINUOUS
 10
61.163431
 20
26.804787
 40
0.250000
 50
445.162000
  1
C17
  7
TQS_CALIBRI
  0
TEXT
  8
4
  6
CONTINUOUS
 10
61.429147
 20
26.782296
 40
0.250000
 50
445.162000
  1
C18
  7
TQS_CALIBRI
  0
TEXT
  8
4
  6
CONTINUOUS
 10
61.694864
 20
26.759806
 40
0.250000
 50
445.162000
  1
C19
  7
TQS_CALIBRI
  0
TEXT
  8
4
  6
CONTINUOUS
 10
77.073131
 20
25.458185
 40
0.250000
 50
445.162000
  1
C20
  7
TQS_CALIBRI
  0
TEXT
  8
4
  6
CONTINUOUS
 10
77.338847
 20
25.435695
 40
0.250000
 50
445.162000
  1
C21
  7
TQS_CALIBRI
  0
TEXT
  8
4
  6
CONTINUOUS
 10
77.604564
 20
25.413204
 40
0.250000
 50
445.162000
  1
C22
  7
TQS_CALIBRI
  0
TEXT
  8
4
  6
CONTINUOUS
 10
77.870280
 20
25.390714
 40
0.250000
 50
445.162000
  1
C23
  7
TQS_CALIBRI
  0
TEXT
  8
4
  6
CONTINUOUS
 10
78.135997
 20
25.368224
 40
0.250000
 50
445.162000
  1
C24
  7
TQS_CALIBRI
  0
TEXT
  8
4
  6
CONTINUOUS
 10
93.282219
 20
24.086244
 40
0.250000
 50
445.162000
  1
C25
  7
TQS_CALIBRI
  0
TEXT
  8
4
  6
CONTINUOUS
 10
93.714008
 20
24.049697
 40
0.250000
 50
445.162000
  1
C26
  7
TQS_CALIBRI
  0
TEXT
  8
4
  6
CONTINUOUS
 10
94.145798
 20
24.013151
 40
0.250000
 50
445.162000
  1
C27
  7
TQS_CALIBRI
  0
TEXT
  8
4
  6
CONTINUOUS
 10
49.314759
 20
12.430310
 40
0.250000
 50
175.161914
  1
C31
  7
TQS_CALIBRI
  0
TEXT
  8
4
  6
CONTINUOUS
 10
49.387854
 20
13.293889
 40
0.250000
 50
175.161914
  1
C32
  7
TQS_CALIBRI
  0
TEXT
  8
4
  6
CONTINUOUS
 10
49.460949
 20
14.157468
 40
0.250000
 50
175.161914
  1
C33
  7
TQS_CALIBRI
  0
TEXT
  8
4
  6
CONTINUOUS
 10
49.534044
 20
15.021047
 40
0.250000
 50
175.161914
  1
C34
  7
TQS_CALIBRI
  0
TEXT
  8
4
  6
CONTINUOUS
 10
49.607139
 20
15.884625
 40
0.250000
 50
175.161914
  1
C35
  7
TQS_CALIBRI
  0
TEXT
  8
4
  6
CONTINUOUS
 10
49.680234
 20
16.748204
 40
0.250000
 50
175.161914
  1
C36
  7
TQS_CALIBRI
  0
TEXT
  8
4
  6
CONTINUOUS
 10
49.753328
 20
17.611783
 40
0.250000
 50
175.161914
  1
C37
  7
TQS_CALIBRI
  0
TEXT
  8
4
  6
CONTINUOUS
 10
49.826423
 20
18.475362
 40
0.250000
 50
175.161914
  1
C38
  7
TQS_CALIBRI
  0
TEXT
  8
4
  6
CONTINUOUS
 10
49.899518
 20
19.338940
 40
0.250000
 50
175.161914
  1
C39
  7
TQS_CALIBRI
  0
TEXT
  8
4
  6
CONTINUOUS
 10
49.972613
 20
20.202519
 40
0.250000
 50
175.161914
  1
C40
  7
TQS_CALIBRI
  0
TEXT
  8
4
  6
CONTINUOUS
 10
50.045708
 20
21.066098
 40
0.250000
 50
175.161914
  1
C41
  7
TQS_CALIBRI
  0
TEXT
  8
4
  6
CONTINUOUS
 10
50.118803
 20
21.929677
 40
0.250000
 50
175.161914
  1
C42
  7
TQS_CALIBRI
  0
TEXT
  8
4
  6
CONTINUOUS
 10
49.207078
 20
7.532142
 40
0.250000
 50
175.161916
  1
C28
  7
TQS_CALIBRI
  0
TEXT
  8
4
  6
CONTINUOUS
 10
49.353267
 20
9.259300
 40
0.250000
 50
175.161916
  1
C29
  7
TQS_CALIBRI
  0
TEXT
  8
4
  6
CONTINUOUS
 10
49.499457
 20
10.986457
 40
0.250000
 50
175.161916
  1
C30
  7
TQS_CALIBRI
  0
TEXT
  8
4
  6
CONTINUOUS
 10
49.510738
 20
23.047905
 40
0.250000
 50
175.161908
  1
C43
  7
TQS_CALIBRI
  0
TEXT
  8
4
  6
CONTINUOUS
 10
49.583833
 20
23.911484
 40
0.250000
 50
175.161908
  1
C44
  7
TQS_CALIBRI
  0
TEXT
  8
4
  6
CONTINUOUS
 10
49.656928
 20
24.775062
 40
0.250000
 50
175.161908
  1
C45
  7
TQS_CALIBRI
  0
TEXT
  8
4
  6
CONTINUOUS
 10
49.730023
 20
25.638641
 40
0.250000
 50
175.161908
  1
C46
  7
TQS_CALIBRI
  0
TEXT
  8
4
  6
CONTINUOUS
 10
49.803118
 20
26.502220
 40
0.250000
 50
175.161908
  1
C47
  7
TQS_CALIBRI
  0
TEXT
  8
4
  6
CONTINUOUS
 10
49.876213
 20
27.365799
 40
0.250000
 50
175.161908
  1
C48
  7
TQS_CALIBRI
  0
TEXT
  8
4
  6
CONTINUOUS
 10
49.949308
 20
28.229377
 40
0.250000
 50
175.161908
  1
C49
  7
TQS_CALIBRI
  0
TEXT
  8
4
  6
CONTINUOUS
 10
50.022403
 20
29.092956
 40
0.250000
 50
175.161908
  1
C50
  7
TQS_CALIBRI
  0
TEXT
  8
4
  6
CONTINUOUS
 10
50.095498
 20
29.956535
 40
0.250000
 50
175.161908
  1
C51
  7
TQS_CALIBRI
  0
TEXT
  8
4
  6
CONTINUOUS
 10
50.168593
 20
30.820114
 40
0.250000
 50
175.161908
  1
C52
  7
TQS_CALIBRI
  0
TEXT
  8
4
  6
CONTINUOUS
 10
50.241687
 20
31.683692
 40
0.250000
 50
175.161908
  1
C53
  7
TQS_CALIBRI
  0
TEXT
  8
4
  6
CONTINUOUS
 10
50.314782
 20
32.547271
 40
0.250000
 50
175.161908
  1
C54
  7
TQS_CALIBRI
  0
TEXT
  8
4
  6
CONTINUOUS
 10
49.962105
 20
33.599323
 40
0.250000
 50
175.161905
  1
C55
  7
TQS_CALIBRI
  0
TEXT
  8
4
  6
CONTINUOUS
 10
50.043634
 20
34.562546
 40
0.250000
 50
175.161905
  1
C56
  7
TQS_CALIBRI
  0
TEXT
  8
4
  6
CONTINUOUS
 10
50.125163
 20
35.525768
 40
0.250000
 50
175.161905
  1
C57
  7
TQS_CALIBRI
  0
TEXT
  8
4
  6
CONTINUOUS
 10
50.206692
 20
36.488991
 40
0.250000
 50
175.161905
  1
C58
  7
TQS_CALIBRI
  0
TEXT
  8
4
  6
CONTINUOUS
 10
50.288221
 20
37.452213
 40
0.250000
 50
175.161905
  1
C59
  7
TQS_CALIBRI
  0
TEXT
  8
4
  6
CONTINUOUS
 10
50.369750
 20
38.415435
 40
0.250000
 50
175.161905
  1
C60
  7
TQS_CALIBRI
  0
TEXT
  8
4
  6
CONTINUOUS
 10
50.451279
 20
39.378658
 40
0.250000
 50
175.161905
  1
C61
  7
TQS_CALIBRI
  0
TEXT
  8
4
  6
CONTINUOUS
 10
50.532808
 20
40.341880
 40
0.250000
 50
175.161905
  1
C62
  7
TQS_CALIBRI
  0
TEXT
  8
4
  6
CONTINUOUS
 10
50.614337
 20
41.305103
 40
0.250000
 50
175.161905
  1
C63
  7
TQS_CALIBRI
  0
TEXT
  8
4
  6
CONTINUOUS
 10
50.695866
 20
42.268325
 40
0.250000
 50
175.161905
  1
C64
  7
TQS_CALIBRI
  0
TEXT
  8
4
  6
CONTINUOUS
 10
50.777395
 20
43.231548
 40
0.250000
 50
175.161905
  1
C65
  7
TQS_CALIBRI
  0
TEXT
  8
4
  6
CONTINUOUS
 10
50.571318
 20
44.590686
 40
0.250000
 50
175.161902
  1
C66
  7
TQS_CALIBRI
  0
TEXT
  8
4
  6
CONTINUOUS
 10
50.710480
 20
46.234807
 40
0.250000
 50
175.161902
  1
C67
  7
TQS_CALIBRI
  0
TEXT
  8
4
  6
CONTINUOUS
 10
50.849641
 20
47.878928
 40
0.250000
 50
175.161902
  1
C68
  7
TQS_CALIBRI
  0
TEXT
  8
4
  6
CONTINUOUS
 10
5.636519
 20
31.731116
 40
0.250000
 50
449.887924
  1
C1
  7
TQS_CALIBRI
  0
TEXT
  8
4
  6
CONTINUOUS
 10
6.303184
 20
31.729812
 40
0.250000
 50
449.887924
  1
C2
  7
TQS_CALIBRI
  0
TEXT
  8
1
  6
CONTINUOUS
 10
6.697362
 20
71.505090
 40
0.220000
  1
CABO
  7
TQS_CALIBRI
  0
TEXT
  8
1
  6
CONTINUOUS
 10
13.761843
 20
71.795090
 40
0.220000
  1
COMPRIMENTO
  7
TQS_CALIBRI
  0
TEXT
  8
1
  6
CONTINUOUS
 10
16.756149
 20
71.295090
 40
0.220000
  1
TOTAL
  7
TQS_CALIBRI
  0
TEXT
  8
1
  6
CONTINUOUS
 10
19.586503
 20
71.295090
 40
0.220000
  1
A
  7
TQS_CALIBRI
  0
TEXT
  8
1
  6
CONTINUOUS
 10
20.631319
 20
71.295090
 40
0.220000
  1
P
  7
TQS_CALIBRI
  0
TEXT
  8
1
  6
CONTINUOUS
 10
21.676135
 20
71.295090
 40
0.220000
  1
I
  7
TQS_CALIBRI
  0
TEXT
  8
1
  6
CONTINUOUS
 10
19.603816
 20
71.795090
 40
0.220000
  1
ANCORAGENS
  7
TQS_CALIBRI
  0
TEXT
  8
1
  6
CONTINUOUS
 10
11.156323
 20
71.505090
 40
0.220000
  1
Q
  7
TQS_CALIBRI
  0
TEXT
  8
1
  6
CONTINUOUS
 10
7.855984
 20
72.455090
 40
0.400000
  1
PROTENSÃO: AÇO
  7
TQS_CALIBRI
  0
TEXT
  8
1
  6
CONTINUOUS
 10
13.174713
 20
71.295090
 40
0.220000
  1
UNITÁRIO
  7
TQS_CALIBRI
  0
TEXT
  8
1
  6
CONTINUOUS
 10
22.631198
 20
71.295090
 40
0.220000
  1
INI
  7
TQS_CALIBRI
  0
TEXT
  8
1
  6
CONTINUOUS
 10
24.198422
 20
71.295090
 40
0.220000
  1
FIN
  7
TQS_CALIBRI
  0
TEXT
  8
1
  6
CONTINUOUS
 10
9.085574
 20
71.507309
 40
0.220000
  1
%%c
  7
TQS_CALIBRI
  0
TEXT
  8
1
  6
CONTINUOUS
 10
22.724964
 20
71.795090
 40
0.220000
  1
ALONG
  7
TQS_CALIBRI
  0
TEXT
  8
1
  6
CONTINUOUS
 10
14.184214
 20
72.455090
 40
0.400000
  1
CP190 RB 12.7 - 12.7
  7
TQS_CALIBRI
  0
TEXT
  8
1
  6
CONTINUOUS
 10
9.370722
 20
71.507309
 40
0.220000
  1
(mm)
  7
TQS_CALIBRI
  0
TEXT
  8
1
  6
CONTINUOUS
 10
16.421919
 20
71.795090
 40
0.220000
  1
(m)
  7
TQS_CALIBRI
  0
TEXT
  8
1
  6
CONTINUOUS
 10
23.912460
 20
71.795090
 40
0.220000
  1
(mm)
  7
TQS_CALIBRI
  0
TEXT
  8
1
  6
CONTINUOUS
 10
6.342784
 20
70.795090
 40
0.220000
  1
C1 A C2
  7
TQS_CALIBRI
  0
TEXT
  8
1
  6
CONTINUOUS
 10
8.696265
 20
70.795090
 40
0.220000
  1
2 %%c 12.7
  7
TQS_CALIBRI
  0
TEXT
  8
1
  6
CONTINUOUS
 10
10.910662
 20
70.795090
 40
0.220000
  1
2
  7
TQS_CALIBRI
  0
TEXT
  8
1
  6
CONTINUOUS
 10
13.147245
 20
70.795090
 40
0.220000
  1
25.8
  7
TQS_CALIBRI
  0
TEXT
  8
1
  6
CONTINUOUS
 10
16.424078
 20
70.795090
 40
0.220000
  1
103.3
  7
TQS_CALIBRI
  0
TEXT
  8
1
  6
CONTINUOUS
 10
19.402050
 20
70.795090
 40
0.220000
  1
4
  7
TQS_CALIBRI
  0
TEXT
  8
1
  6
CONTINUOUS
 10
20.446866
 20
70.795090
 40
0.220000
  1
4
  7
TQS_CALIBRI
  0
TEXT
  8
1
  6
CONTINUOUS
 10
22.483689
 20
70.795090
 40
0.220000
  1
0
  7
TQS_CALIBRI
  0
TEXT
  8
1
  6
CONTINUOUS
 10
24.050913
 20
70.795090
 40
0.220000
  1
178
  7
TQS_CALIBRI
  0
TEXT
  8
1
  6
CONTINUOUS
 10
6.342784
 20
70.295089
 40
0.220000
  1
C3 A C6
  7
TQS_CALIBRI
  0
TEXT
  8
1
  6
CONTINUOUS
 10
8.696265
 20
70.295089
 40
0.220000
  1
4 %%c 12.7
  7
TQS_CALIBRI
  0
TEXT
  8
1
  6
CONTINUOUS
 10
10.910662
 20
70.295089
 40
0.220000
  1
4
  7
TQS_CALIBRI
  0
TEXT
  8
1
  6
CONTINUOUS
 10
13.147245
 20
70.295089
 40
0.220000
  1
26.1
  7
TQS_CALIBRI
  0
TEXT
  8
1
  6
CONTINUOUS
 10
16.424078
 20
70.295089
 40
0.220000
  1
417.6
  7
TQS_CALIBRI
  0
TEXT
  8
1
  6
CONTINUOUS
 10
19.402050
 20
70.295089
 40
0.220000
  1
16
  7
TQS_CALIBRI
  0
TEXT
  8
1
  6
CONTINUOUS
 10
20.446866
 20
70.295089
 40
0.220000
  1
16
  7
TQS_CALIBRI
  0
TEXT
  8
1
  6
CONTINUOUS
 10
22.483689
 20
70.295089
 40
0.220000
  1
0
  7
TQS_CALIBRI
  0
TEXT
  8
1
  6
CONTINUOUS
 10
24.050913
 20
70.295089
 40
0.220000
  1
173
  7
TQS_CALIBRI
  0
TEXT
  8
1
  6
CONTINUOUS
 10
6.342784
 20
69.795088
 40
0.220000
  1
C7 A C10
  7
TQS_CALIBRI
  0
TEXT
  8
1
  6
CONTINUOUS
 10
8.696265
 20
69.795088
 40
0.220000
  1
   "
  7
TQS_CALIBRI
  0
TEXT
  8
1
  6
CONTINUOUS
 10
10.910662
 20
69.795088
 40
0.220000
  1
4
  7
TQS_CALIBRI
  0
TEXT
  8
1
  6
CONTINUOUS
 10
13.147245
 20
69.795088
 40
0.220000
  1
26.1
  7
TQS_CALIBRI
  0
TEXT
  8
1
  6
CONTINUOUS
 10
16.424078
 20
69.795088
 40
0.220000
  1
417.6
  7
TQS_CALIBRI
  0
TEXT
  8
1
  6
CONTINUOUS
 10
19.402050
 20
69.795088
 40
0.220000
  1
16
  7
TQS_CALIBRI
  0
TEXT
  8
1
  6
CONTINUOUS
 10
20.446866
 20
69.795088
 40
0.220000
  1
16
  7
TQS_CALIBRI
  0
TEXT
  8
1
  6
CONTINUOUS
 10
22.483689
 20
69.795088
 40
0.220000
  1
0
  7
TQS_CALIBRI
  0
TEXT
  8
1
  6
CONTINUOUS
 10
24.050913
 20
69.795088
 40
0.220000
  1
174
  7
TQS_CALIBRI
  0
TEXT
  8
1
  6
CONTINUOUS
 10
6.342784
 20
69.295087
 40
0.220000
  1
C11 A C19
  7
TQS_CALIBRI
  0
TEXT
  8
1
  6
CONTINUOUS
 10
8.696265
 20
69.295087
 40
0.220000
  1
   "
  7
TQS_CALIBRI
  0
TEXT
  8
1
  6
CONTINUOUS
 10
10.910662
 20
69.295087
 40
0.220000
  1
9
  7
TQS_CALIBRI
  0
TEXT
  8
1
  6
CONTINUOUS
 10
13.147245
 20
69.295087
 40
0.220000
  1
26.1
  7
TQS_CALIBRI
  0
TEXT
  8
1
  6
CONTINUOUS
 10
16.424078
 20
69.295087
 40
0.220000
  1
939.6
  7
TQS_CALIBRI
  0
TEXT
  8
1
  6
CONTINUOUS
 10
19.402050
 20
69.295087
 40
0.220000
  1
36
  7
TQS_CALIBRI
  0
TEXT
  8
1
  6
CONTINUOUS
 10
20.446866
 20
69.295087
 40
0.220000
  1
36
  7
TQS_CALIBRI
  0
TEXT
  8
1
  6
CONTINUOUS
 10
22.483689
 20
69.295087
 40
0.220000
  1
0
  7
TQS_CALIBRI
  0
TEXT
  8
1
  6
CONTINUOUS
 10
24.050913
 20
69.295087
 40
0.220000
  1
173
  7
TQS_CALIBRI
  0
TEXT
  8
1
  6
CONTINUOUS
 10
6.342784
 20
68.795087
 40
0.220000
  1
C20 A C24
  7
TQS_CALIBRI
  0
TEXT
  8
1
  6
CONTINUOUS
 10
8.696265
 20
68.795087
 40
0.220000
  1
   "
  7
TQS_CALIBRI
  0
TEXT
  8
1
  6
CONTINUOUS
 10
10.910662
 20
68.795087
 40
0.220000
  1
5
  7
TQS_CALIBRI
  0
TEXT
  8
1
  6
CONTINUOUS
 10
13.147245
 20
68.795087
 40
0.220000
  1
26.1
  7
TQS_CALIBRI
  0
TEXT
  8
1
  6
CONTINUOUS
 10
16.424078
 20
68.795087
 40
0.220000
  1
522
  7
TQS_CALIBRI
  0
TEXT
  8
1
  6
CONTINUOUS
 10
19.402050
 20
68.795087
 40
0.220000
  1
20
  7
TQS_CALIBRI
  0
TEXT
  8
1
  6
CONTINUOUS
 10
20.446866
 20
68.795087
 40
0.220000
  1
20
  7
TQS_CALIBRI
  0
TEXT
  8
1
  6
CONTINUOUS
 10
22.483689
 20
68.795087
 40
0.220000
  1
0
  7
TQS_CALIBRI
  0
TEXT
  8
1
  6
CONTINUOUS
 10
24.050913
 20
68.795087
 40
0.220000
  1
174
  7
TQS_CALIBRI
  0
TEXT
  8
1
  6
CONTINUOUS
 10
6.342784
 20
68.295086
 40
0.220000
  1
C25 A C27
  7
TQS_CALIBRI
  0
TEXT
  8
1
  6
CONTINUOUS
 10
8.696265
 20
68.295086
 40
0.220000
  1
3 %%c 12.7
  7
TQS_CALIBRI
  0
TEXT
  8
1
  6
CONTINUOUS
 10
10.910662
 20
68.295086
 40
0.220000
  1
3
  7
TQS_CALIBRI
  0
TEXT
  8
1
  6
CONTINUOUS
 10
13.147245
 20
68.295086
 40
0.220000
  1
26.1
  7
TQS_CALIBRI
  0
TEXT
  8
1
  6
CONTINUOUS
 10
16.424078
 20
68.295086
 40
0.220000
  1
234.9
  7
TQS_CALIBRI
  0
TEXT
  8
1
  6
CONTINUOUS
 10
19.402050
 20
68.295086
 40
0.220000
  1
9
  7
TQS_CALIBRI
  0
TEXT
  8
1
  6
CONTINUOUS
 10
20.446866
 20
68.295086
 40
0.220000
  1
9
  7
TQS_CALIBRI
  0
TEXT
  8
1
  6
CONTINUOUS
 10
22.483689
 20
68.295086
 40
0.220000
  1
0
  7
TQS_CALIBRI
  0
TEXT
  8
1
  6
CONTINUOUS
 10
24.050913
 20
68.295086
 40
0.220000
  1
180
  7
TQS_CALIBRI
  0
TEXT
  8
1
  6
CONTINUOUS
 10
6.342784
 20
67.795085
 40
0.220000
  1
C28 A C30
  7
TQS_CALIBRI
  0
TEXT
  8
1
  6
CONTINUOUS
 10
8.696265
 20
67.795085
 40
0.220000
  1
2 %%c 12.7
  7
TQS_CALIBRI
  0
TEXT
  8
1
  6
CONTINUOUS
 10
10.910662
 20
67.795085
 40
0.220000
  1
3
  7
TQS_CALIBRI
  0
TEXT
  8
1
  6
CONTINUOUS
 10
13.147245
 20
67.795085
 40
0.220000
  1
53.3
  7
TQS_CALIBRI
  0
TEXT
  8
1
  6
CONTINUOUS
 10
16.424078
 20
67.795085
 40
0.220000
  1
319.6
  7
TQS_CALIBRI
  0
TEXT
  8
1
  6
CONTINUOUS
 10
19.402050
 20
67.795085
 40
0.220000
  1
6
  7
TQS_CALIBRI
  0
TEXT
  8
1
  6
CONTINUOUS
 10
20.446866
 20
67.795085
 40
0.220000
  1
6
  7
TQS_CALIBRI
  0
TEXT
  8
1
  6
CONTINUOUS
 10
22.483689
 20
67.795085
 40
0.220000
  1
0
  7
TQS_CALIBRI
  0
TEXT
  8
1
  6
CONTINUOUS
 10
24.050913
 20
67.795085
 40
0.220000
  1
352
  7
TQS_CALIBRI
  0
TEXT
  8
1
  6
CONTINUOUS
 10
6.342784
 20
67.295085
 40
0.220000
  1
C31 A C42
  7
TQS_CALIBRI
  0
TEXT
  8
1
  6
CONTINUOUS
 10
8.696265
 20
67.295085
 40
0.220000
  1
3 %%c 12.7
  7
TQS_CALIBRI
  0
TEXT
  8
1
  6
CONTINUOUS
 10
10.910662
 20
67.295085
 40
0.220000
  1
12
  7
TQS_CALIBRI
  0
TEXT
  8
1
  6
CONTINUOUS
 10
13.147245
 20
67.295085
 40
0.220000
  1
53.6
  7
TQS_CALIBRI
  0
TEXT
  8
1
  6
CONTINUOUS
 10
16.424078
 20
67.295085
 40
0.220000
  1
1931
  7
TQS_CALIBRI
  0
TEXT
  8
1
  6
CONTINUOUS
 10
19.402050
 20
67.295085
 40
0.220000
  1
36
  7
TQS_CALIBRI
  0
TEXT
  8
1
  6
CONTINUOUS
 10
20.446866
 20
67.295085
 40
0.220000
  1
36
  7
TQS_CALIBRI
  0
TEXT
  8
1
  6
CONTINUOUS
 10
22.483689
 20
67.295085
 40
0.220000
  1
0
  7
TQS_CALIBRI
  0
TEXT
  8
1
  6
CONTINUOUS
 10
24.050913
 20
67.295085
 40
0.220000
  1
351
  7
TQS_CALIBRI
  0
TEXT
  8
1
  6
CONTINUOUS
 10
6.342784
 20
66.795084
 40
0.220000
  1
C43 A C54
  7
TQS_CALIBRI
  0
TEXT
  8
1
  6
CONTINUOUS
 10
8.696265
 20
66.795084
 40
0.220000
  1
   "
  7
TQS_CALIBRI
  0
TEXT
  8
1
  6
CONTINUOUS
 10
10.910662
 20
66.795084
 40
0.220000
  1
12
  7
TQS_CALIBRI
  0
TEXT
  8
1
  6
CONTINUOUS
 10
13.147245
 20
66.795084
 40
0.220000
  1
54.5
  7
TQS_CALIBRI
  0
TEXT
  8
1
  6
CONTINUOUS
 10
16.424078
 20
66.795084
 40
0.220000
  1
1961.2
  7
TQS_CALIBRI
  0
TEXT
  8
1
  6
CONTINUOUS
 10
19.402050
 20
66.795084
 40
0.220000
  1
36
  7
TQS_CALIBRI
  0
TEXT
  8
1
  6
CONTINUOUS
 10
20.446866
 20
66.795084
 40
0.220000
  1
36
  7
TQS_CALIBRI
  0
TEXT
  8
1
  6
CONTINUOUS
 10
22.483689
 20
66.795084
 40
0.220000
  1
0
  7
TQS_CALIBRI
  0
TEXT
  8
1
  6
CONTINUOUS
 10
24.050913
 20
66.795084
 40
0.220000
  1
356
  7
TQS_CALIBRI
  0
TEXT
  8
1
  6
CONTINUOUS
 10
6.342784
 20
66.295083
 40
0.220000
  1
C55 A C65
  7
TQS_CALIBRI
  0
TEXT
  8
1
  6
CONTINUOUS
 10
8.696265
 20
66.295083
 40
0.220000
  1
   "
  7
TQS_CALIBRI
  0
TEXT
  8
1
  6
CONTINUOUS
 10
10.910662
 20
66.295083
 40
0.220000
  1
11
  7
TQS_CALIBRI
  0
TEXT
  8
1
  6
CONTINUOUS
 10
13.147245
 20
66.295083
 40
0.220000
  1
55
  7
TQS_CALIBRI
  0
TEXT
  8
1
  6
CONTINUOUS
 10
16.424078
 20
66.295083
 40
0.220000
  1
1815.2
  7
TQS_CALIBRI
  0
TEXT
  8
1
  6
CONTINUOUS
 10
19.402050
 20
66.295083
 40
0.220000
  1
33
  7
TQS_CALIBRI
  0
TEXT
  8
1
  6
CONTINUOUS
 10
20.446866
 20
66.295083
 40
0.220000
  1
33
  7
TQS_CALIBRI
  0
TEXT
  8
1
  6
CONTINUOUS
 10
22.483689
 20
66.295083
 40
0.220000
  1
0
  7
TQS_CALIBRI
  0
TEXT
  8
1
  6
CONTINUOUS
 10
24.050913
 20
66.295083
 40
0.220000
  1
359
  7
TQS_CALIBRI
  0
TEXT
  8
1
  6
CONTINUOUS
 10
6.342784
 20
65.795082
 40
0.220000
  1
C66 A C68
  7
TQS_CALIBRI
  0
TEXT
  8
1
  6
CONTINUOUS
 10
8.696265
 20
65.795082
 40
0.220000
  1
2 %%c 12.7
  7
TQS_CALIBRI
  0
TEXT
  8
1
  6
CONTINUOUS
 10
10.910662
 20
65.795082
 40
0.220000
  1
3
  7
TQS_CALIBRI
  0
TEXT
  8
1
  6
CONTINUOUS
 10
13.147245
 20
65.795082
 40
0.220000
  1
55.4
  7
TQS_CALIBRI
  0
TEXT
  8
1
  6
CONTINUOUS
 10
16.424078
 20
65.795082
 40
0.220000
  1
332.3
  7
TQS_CALIBRI
  0
TEXT
  8
1
  6
CONTINUOUS
 10
19.402050
 20
65.795082
 40
0.220000
  1
6
  7
TQS_CALIBRI
  0
TEXT
  8
1
  6
CONTINUOUS
 10
20.446866
 20
65.795082
 40
0.220000
  1
6
  7
TQS_CALIBRI
  0
TEXT
  8
1
  6
CONTINUOUS
 10
22.483689
 20
65.795082
 40
0.220000
  1
0
  7
TQS_CALIBRI
  0
TEXT
  8
1
  6
CONTINUOUS
 10
24.050913
 20
65.795082
 40
0.220000
  1
369
  7
TQS_CALIBRI
  0
TEXT
  8
1
  6
CONTINUOUS
 10
6.828925
 20
62.795082
 40
0.220000
  1
%%c
  7
TQS_CALIBRI
  0
TEXT
  8
1
  6
CONTINUOUS
 10
10.402463
 20
63.295082
 40
0.220000
  1
CABO
  7
TQS_CALIBRI
  0
TEXT
  8
1
  6
CONTINUOUS
 10
16.587023
 20
62.545082
 40
0.220000
  1
A
  7
TQS_CALIBRI
  0
TEXT
  8
1
  6
CONTINUOUS
 10
17.631838
 20
62.545082
 40
0.220000
  1
P
  7
TQS_CALIBRI
  0
TEXT
  8
1
  6
CONTINUOUS
 10
18.676655
 20
62.545082
 40
0.220000
  1
I
  7
TQS_CALIBRI
  0
TEXT
  8
1
  6
CONTINUOUS
 10
12.898222
 20
62.795082
 40
0.220000
  1
PESO
  7
TQS_CALIBRI
  0
TEXT
  8
1
  6
CONTINUOUS
 10
16.657202
 20
63.295082
 40
0.220000
  1
ANCORAGENS
  7
TQS_CALIBRI
  0
TEXT
  8
1
  6
CONTINUOUS
 10
8.735982
 20
64.378414
 40
0.400000
  1
RESUMO DE PROTENSÃO
  7
TQS_CALIBRI
  0
TEXT
  8
1
  6
CONTINUOUS
 10
8.274119
 20
63.815715
 40
0.300000
  1
Monocordoalhas não aderentes
  7
TQS_CALIBRI
  0
TEXT
  8
1
  6
CONTINUOUS
 10
8.665220
 20
62.795082
 40
0.220000
  1
COMPR
  7
TQS_CALIBRI
  0
TEXT
  8
1
  6
CONTINUOUS
 10
10.515008
 20
62.295082
 40
0.220000
  1
kgf/m
  7
TQS_CALIBRI
  0
TEXT
  8
1
  6
CONTINUOUS
 10
12.666785
 20
62.295082
 40
0.220000
  1
kgf
  7
TQS_CALIBRI
  0
TEXT
  8
1
  6
CONTINUOUS
 10
14.481177
 20
62.295082
 40
0.220000
  1
kgf+4%
  7
TQS_CALIBRI
  0
TEXT
  8
1
  6
CONTINUOUS
 10
8.669766
 20
62.295082
 40
0.220000
  1
m
  7
TQS_CALIBRI
  0
TEXT
  8
1
  6
CONTINUOUS
 10
6.807305
 20
62.295082
 40
0.220000
  1
mm
  7
TQS_CALIBRI
  0
TEXT
  8
1
  6
CONTINUOUS
 10
8.395082
 20
61.795081
 40
0.220000
  1
755
  7
TQS_CALIBRI
  0
TEXT
  8
1
  6
CONTINUOUS
 10
17.440679
 20
61.795082
 40
0.220000
  1
16
  7
TQS_CALIBRI
  0
TEXT
  8
1
  6
CONTINUOUS
 10
16.395862
 20
61.795082
 40
0.220000
  1
16
  7
TQS_CALIBRI
  0
TEXT
  8
1
  6
CONTINUOUS
 10
10.515008
 20
61.795081
 40
0.220000
  1
0.886
  7
TQS_CALIBRI
  0
TEXT
  8
1
  6
CONTINUOUS
 10
12.104337
 20
61.795081
 40
0.220000
  1
669
  7
TQS_CALIBRI
  0
TEXT
  8
1
  6
CONTINUOUS
 10
14.164335
 20
61.795081
 40
0.220000
  1
696
  7
TQS_CALIBRI
  0
TEXT
  8
1
  6
CONTINUOUS
 10
6.207149
 20
61.795081
 40
0.220000
  1
2 %%c 12.7
  7
TQS_CALIBRI
  0
TEXT
  8
1
  6
CONTINUOUS
 10
8.395082
 20
61.295081
 40
0.220000
  1
2297
  7
TQS_CALIBRI
  0
TEXT
  8
1
  6
CONTINUOUS
 10
17.440679
 20
61.295081
 40
0.220000
  1
88
  7
TQS_CALIBRI
  0
TEXT
  8
1
  6
CONTINUOUS
 10
16.395862
 20
61.295081
 40
0.220000
  1
88
  7
TQS_CALIBRI
  0
TEXT
  8
1
  6
CONTINUOUS
 10
10.515008
 20
61.295081
 40
0.220000
  1
0.886
  7
TQS_CALIBRI
  0
TEXT
  8
1
  6
CONTINUOUS
 10
12.104337
 20
61.295081
 40
0.220000
  1
2035
  7
TQS_CALIBRI
  0
TEXT
  8
1
  6
CONTINUOUS
 10
14.164335
 20
61.295081
 40
0.220000
  1
2116
  7
TQS_CALIBRI
  0
TEXT
  8
1
  6
CONTINUOUS
 10
6.207149
 20
61.295081
 40
0.220000
  1
4 %%c 12.7
  7
TQS_CALIBRI
  0
TEXT
  8
1
  6
CONTINUOUS
 10
8.395082
 20
60.795080
 40
0.220000
  1
5942
  7
TQS_CALIBRI
  0
TEXT
  8
1
  6
CONTINUOUS
 10
17.440679
 20
60.795080
 40
0.220000
  1
114
  7
TQS_CALIBRI
  0
TEXT
  8
1
  6
CONTINUOUS
 10
16.395862
 20
60.795080
 40
0.220000
  1
114
  7
TQS_CALIBRI
  0
TEXT
  8
1
  6
CONTINUOUS
 10
10.515008
 20
60.795080
 40
0.220000
  1
0.886
  7
TQS_CALIBRI
  0
TEXT
  8
1
  6
CONTINUOUS
 10
12.104337
 20
60.795080
 40
0.220000
  1
5265
  7
TQS_CALIBRI
  0
TEXT
  8
1
  6
CONTINUOUS
 10
14.164335
 20
60.795080
 40
0.220000
  1
5476
  7
TQS_CALIBRI
  0
TEXT
  8
1
  6
CONTINUOUS
 10
6.207149
 20
60.795080
 40
0.220000
  1
3 %%c 12.7
  7
TQS_CALIBRI
  0
TEXT
  8
1
  6
CONTINUOUS
 10
101.932386
 20
23.396411
 40
0.350000
  1
NOTAS:
  7
TQS_CALIBRI
  0
TEXT
  8
2
  6
CONTINUOUS
 10
101.965840
 20
22.812661
 40
0.240000
  1
1) CONFERIR INFORMAÇÕES DA TABELA ACIMA (TABELA DE FERRERAGEM) NA OBRA
  7
TQS_CALIBRI
  0
TEXT
  8
2
  6
CONTINUOUS
 10
101.965840
 20
22.343353
 40
0.240000
  1
ANTES DA COMPRA DAS ARMADURAS.
  7
TQS_CALIBRI
  0
TEXT
  8
1
  6
CONTINUOUS
 10
102.073109
 20
8.835799
 40
0.455000
  1
ENGENHARIA
  7
TQS_CALIBRI
  0
TEXT
  8
1
  6
CONTINUOUS
 10
101.876737
 20
16.222571
 40
0.250000
  1
REV
  7
TQS_CALIBRI
  0
TEXT
  8
1
  6
CONTINUOUS
 10
103.356169
 20
16.222571
 40
0.250000
  1
DATA
  7
TQS_CALIBRI
  0
TEXT
  8
1
  6
CONTINUOUS
 10
105.030516
 20
16.222571
 40
0.250000
  1
ASSUNTO
  7
TQS_CALIBRI
  0
TEXT
  8
1
  6
CONTINUOUS
 10
101.832253
 20
14.047181
 40
0.250000
  1
PROPRIETÁRIO - 
  7
TQS_CALIBRI
  0
TEXT
  8
1
  6
CONTINUOUS
 10
108.042444
 20
2.579059
 40
0.250000
  1
ENGENHEIRO:
  7
TQS_CALIBRI
  0
TEXT
  8
1
  6
CONTINUOUS
 10
108.046365
 20
2.149652
 40
0.250000
  1
CREA REG.:
  7
TQS_CALIBRI
  0
TEXT
  8
1
  6
CONTINUOUS
 10
110.430567
 20
2.160333
 40
0.250000
  1
020930945-8
  7
TQS_CALIBRI
  0
TEXT
  8
1
  6
CONTINUOUS
 10
103.739739
 20
9.759850
 40
1.000000
  1
VGF
  7
TQS_CALIBRI
  0
TEXT
  8
1
  6
CONTINUOUS
 10
101.832253
 20
12.147181
 40
0.250000
  1
PROJETO              Eng. Civil - CREA:020930945-8
  7
TQS_CALIBRI
  0
TEXT
  8
1
  6
CONTINUOUS
 10
101.800510
 20
2.752624
 40
0.150000
  1
DATA:
  7
TQS_CALIBRI
  0
TEXT
  8
1
  6
CONTINUOUS
 10
101.788178
 20
1.752624
 40
0.150000
  1
FASE:
  7
TQS_CALIBRI
  0
TEXT
  8
1
  6
CONTINUOUS
 10
105.124829
 20
2.752624
 40
0.150000
  1
ESCALA:
  7
TQS_CALIBRI
  0
TEXT
  8
1
  6
CONTINUOUS
 10
105.112497
 20
1.752624
 40
0.150000
  1
PLANTA:
  7
TQS_CALIBRI
  0
TEXT
  8
1
  6
CONTINUOUS
 10
101.800510
 20
6.352624
 40
0.150000
  1
TÍTULO:
  7
TQS_CALIBRI
  0
TEXT
  8
1
  6
CONTINUOUS
 10
101.787482
 20
5.577767
 40
0.150000
  1
ELEMENTOS DA PRANCHA:
  7
TQS_CALIBRI
  0
TEXT
  8
1
  6
CONTINUOUS
 10
101.800510
 20
8.252624
 40
0.150000
  1
EMPREENDIMENTO/LOCAL:
  7
TQS_CALIBRI
  0
TEXT
  8
1
  6
CONTINUOUS
 10
106.761120
 20
11.025301
 40
0.150000
  1
CONTATOS:
  7
TQS_CALIBRI
  0
TEXT
  8
1
  6
CONTINUOUS
 10
114.224829
 20
2.752624
 40
0.150000
  1
PLANTA-REVISÃO:
  7
TQS_CALIBRI
  0
TEXT
  8
1
  6
CONTINUOUS
 10
102.041441
 20
16.843956
 40
0.200000
  1
00
  7
TQS_CALIBRI
  0
TEXT
  8
1
  6
CONTINUOUS
 10
102.041441
 20
17.343956
 40
0.200000
  1
01
  7
TQS_CALIBRI
  0
TEXT
  8
1
  6
CONTINUOUS
 10
102.041441
 20
17.843956
 40
0.200000
  1
02
  7
TQS_CALIBRI
  0
TEXT
  8
1
  6
CONTINUOUS
 10
102.041441
 20
18.343956
 40
0.200000
  1
03
  7
TQS_CALIBRI
  0
TEXT
  8
1
  6
CONTINUOUS
 10
102.041441
 20
18.843956
 40
0.200000
  1
04
  7
TQS_CALIBRI
  0
TEXT
  8
1
  6
CONTINUOUS
 10
102.041441
 20
19.343956
 40
0.200000
  1
05
  7
TQS_CALIBRI
  0
TEXT
  8
1
  6
CONTINUOUS
 10
102.041441
 20
19.843956
 40
0.200000
  1
06
  7
TQS_CALIBRI
  0
TEXT
  8
1
  6
CONTINUOUS
 10
102.041441
 20
20.343956
 40
0.200000
  1
07
  7
TQS_CALIBRI
  0
TEXT
  8
1
  6
CONTINUOUS
 10
102.041441
 20
20.843956
 40
0.200000
  1
08
  7
TQS_CALIBRI
  0
TEXT
  8
1
  6
CONTINUOUS
 10
102.041441
 20
21.343956
 40
0.200000
  1
09
  7
TQS_CALIBRI
  0
TEXT
  8
1
  6
CONTINUOUS
 10
102.041441
 20
21.843956
 40
0.200000
  1
10
  7
TQS_CALIBRI
  0
TEXT
  8
1
  6
CONTINUOUS
 10
116.437973
 20
16.222571
 40
0.250000
  1
AUTOR
  7
TQS_CALIBRI
  0
TEXT
  8
1
  6
CONTINUOUS
 10
106.749019
 20
10.335784
 40
0.195000
  1
Tel: 99928-2128
  7
TQS_CALIBRI
  0
TEXT
  8
1
  6
CONTINUOUS
 10
106.749019
 20
10.012284
 40
0.195000
  1
franciscogonca@hotmail.com 
  7
TQS_CALIBRI
  0
TEXT
  8
1
  6
CONTINUOUS
 10
106.749019
 20
9.680784
 40
0.195000
  1
Tel: 99981-6458
  7
TQS_CALIBRI
  0
TEXT
  8
1
  6
CONTINUOUS
 10
106.749019
 20
9.357284
 40
0.195000
  1
tiago@vgfengenharia.com.br 
  7
TQS_CALIBRI
  0
TEXT
  8
1
  6
CONTINUOUS
 10
106.749019
 20
9.025784
 40
0.195000
  1
Tel: 99912-8379
  7
TQS_CALIBRI
  0
TEXT
  8
1
  6
CONTINUOUS
 10
110.809443
 20
11.052624
 40
0.150000
  1
CLIENTE:
  7
TQS_CALIBRI
  0
TEXT
  8
1
  6
CONTINUOUS
 10
116.009770
 20
1.647683
 40
0.500000
  1
-R
  7
TQS_CALIBRI
  0
TEXT
  8
1
  6
CONTINUOUS
 10
101.832253
 20
12.547181
 40
0.250000
  1
RESPONSÁVEL -  Diego de Vasconcelos Gonçalves Ferreira
  7
TQS_CALIBRI
  0
TEXT
  8
1
  6
CONTINUOUS
 10
110.422141
 20
2.578345
 40
0.250000
  1
Diego Vasconcelos
  7
TQS_CALIBRI
  0
TEXT
  8
1
  6
CONTINUOUS
 10
106.749019
 20
10.667284
 40
0.195000
  1
diego@vgfengenharia.com.br 
  7
TQS_CALIBRI
  0
TEXT
  8
1
  6
CONTINUOUS
 10
104.982892
 20
16.853163
 40
0.200000
  1
Emissão inicial.
  7
TQS_CALIBRI
  0
TEXT
  8
1
  6
CONTINUOUS
 10
101.795719
 20
7.825700
 40
0.250000
  1
Assembléia Legislativa de Alagoas
  7
TQS_CALIBRI
  0
TEXT
  8
1
  6
CONTINUOUS
 10
104.517953
 20
14.045361
 40
0.250000
  1
ALA
  7
TQS_CALIBRI
  0
TEXT
  8
1
  6
CONTINUOUS
 10
101.789281
 20
2.263237
 40
0.250000
  1
25/02/2024
  7
TQS_CALIBRI
  0
TEXT
  8
1
  6
CONTINUOUS
 10
102.992347
 20
16.854551
 40
0.200000
  1
25/02/24
  7
TQS_CALIBRI
  0
TEXT
  8
1
  6
CONTINUOUS
 10
101.787954
 20
7.415393
 40
0.200000
  1
RUA SÁ E ALBUQUERQUE, NÚMERO 807, JARAGUÁ - MACEIÓ-AL
  7
TQS_CALIBRI
  0
TEXT
  8
1
  6
CONTINUOUS
 10
101.789859
 20
1.251887
 40
0.250000
  1
PE
  7
TQS_CALIBRI
  0
TEXT
  8
1
  6
CONTINUOUS
 10
105.114178
 20
1.251887
 40
0.250000
  1
CLA-EEM-EST-PE-0236-ARM-R00
  7
TQS_CALIBRI
  0
TEXT
  8
1
  6
CONTINUOUS
 10
116.547332
 20
16.842370
 40
0.200000
  1
DIEGO
  7
TQS_CALIBRI
  0
TEXT
  8
1
  6
CONTINUOUS
 10
114.396264
 20
1.644018
 40
0.500000
  1
0236
  7
TQS_CALIBRI
  0
TEXT
  8
1
  6
CONTINUOUS
 10
116.689770
 20
1.647683
 40
0.500000
  1
00
  7
TQS_CALIBRI
  0
TEXT
  8
1
  6
CONTINUOUS
 10
110.802729
 20
10.513659
 40
0.400000
  1
ALA
  7
TQS_CALIBRI
  0
TEXT
  8
1
  6
CONTINUOUS
 10
101.762319
 20
5.951739
 40
0.250000
  1
ARM. PROTENSÃO HORIZONTAL e VERTICAL (01-Térreo) - 01 - J
  7
TQS_CALIBRI
  0
ENDSEC
  0
EOF
