  0
SECTION
  2
HEADER
  9
$ACADVER
  1
AC1002
  9
$USERI1
 70
0
  9
$INSBASE
 10
0.000000
 20
0.000000
  9
$EXTMIN
 10
0.000000
 20
0.000000
  9
$EXTMAX
 10
7.761771
 20
4.436620
  9
$LIMMIN
 10
0.000000
 20
0.000000
  9
$LIMMAX
 10
12.000000
 20
9.000000
  9
$VIEWCTR
 10
78.887138
 20
59.361758
  9
$VIEWSIZE
 40
127.522840
  9
$TEXTSIZE
 40
0.100000
  9
$TRACEWID
 40
0.010000
  9
$LTSCALE
 40
1.000000
  0
ENDSEC
  0
SECTION
  2
TABLES
  0
TABLE
  2
LTYPE
 70
     3
  0
LTYPE
  2
CONTINUOUS
 70
    64
  3
Solid line
 72
    65
 73
     0
 40
0.000000
  0
LTYPE
  2
ESTILO_TQS_0001
 70
    64
  3
-  -  -  -  -  -
 72
    65
 73
     2
 40
1.000000
 49
0.700000
 49
-0.300000
  0
LTYPE
  2
ESTILO_TQS_0002
 70
    64
  3
. . . . . . . .
 72
    65
 73
     2
 40
0.400000
 49
0.100000
 49
-0.300000
  0
LTYPE
  2
ESTILO_TQS_0003
 70
    64
  3
- . - . - . - .
 72
    65
 73
     4
 40
0.910000
 49
0.500000
 49
-0.200000
 49
0.010000
 49
-0.200000
  0
LTYPE
  2
ESTILO_TQS_0004
 70
    64
  3
- .. - .. - ..
 72
    65
 73
     6
 40
1.120000
 49
0.500000
 49
-0.200000
 49
0.010000
 49
-0.200000
 49
0.010000
 49
-0.200000
  0
LTYPE
  2
CONTINUOUS
 70
    64
  3
- - - - - - - -
 72
    65
 73
     2
 40
0.400000
 49
0.300000
 49
-0.100000
  0
ENDTAB
  0
TABLE
  2
LAYER
 70
    89
  0
LAYER
  2
0
 70
     0
 62
     7
  6
CONTINUOUS
  0
LAYER
  2
1
 70
     0
 62
     1
  6
CONTINUOUS
  0
LAYER
  2
2
 70
     0
 62
     2
  6
CONTINUOUS
  0
LAYER
  2
3
 70
     0
 62
     3
  6
CONTINUOUS
  0
LAYER
  2
4
 70
     0
 62
     4
  6
CONTINUOUS
  0
LAYER
  2
5
 70
     0
 62
     5
  6
CONTINUOUS
  0
LAYER
  2
6
 70
     0
 62
     6
  6
CONTINUOUS
  0
LAYER
  2
7
 70
     0
 62
     7
  6
CONTINUOUS
  0
LAYER
  2
8
 70
     0
 62
     8
  6
CONTINUOUS
  0
LAYER
  2
9
 70
     0
 62
     9
  6
CONTINUOUS
  0
LAYER
  2
10
 70
     0
 62
    10
  6
CONTINUOUS
  0
LAYER
  2
11
 70
     0
 62
    11
  6
CONTINUOUS
  0
LAYER
  2
12
 70
     0
 62
    12
  6
CONTINUOUS
  0
LAYER
  2
13
 70
     0
 62
    13
  6
CONTINUOUS
  0
LAYER
  2
14
 70
     0
 62
    14
  6
CONTINUOUS
  0
LAYER
  2
15
 70
     0
 62
    15
  6
CONTINUOUS
  0
LAYER
  2
16
 70
     0
 62
     7
  6
CONTINUOUS
  0
LAYER
  2
17
 70
     0
 62
     2
  6
CONTINUOUS
  0
LAYER
  2
18
 70
     0
 62
     4
  6
CONTINUOUS
  0
LAYER
  2
19
 70
     0
 62
     5
  6
CONTINUOUS
  0
LAYER
  2
20
 70
     0
 62
     4
  6
CONTINUOUS
  0
LAYER
  2
21
 70
     0
 62
     2
  6
CONTINUOUS
  0
LAYER
  2
22
 70
     0
 62
     1
  6
CONTINUOUS
  0
LAYER
  2
23
 70
     0
 62
     7
  6
CONTINUOUS
  0
LAYER
  2
24
 70
     0
 62
     6
  6
CONTINUOUS
  0
LAYER
  2
25
 70
     0
 62
     1
  6
CONTINUOUS
  0
LAYER
  2
26
 70
     0
 62
     3
  6
CONTINUOUS
  0
LAYER
  2
27
 70
     0
 62
     4
  6
CONTINUOUS
  0
LAYER
  2
28
 70
     0
 62
     4
  6
CONTINUOUS
  0
LAYER
  2
30
 70
     0
 62
     4
  6
CONTINUOUS
  0
LAYER
  2
100
 70
     0
 62
     1
  6
CONTINUOUS
  0
LAYER
  2
101
 70
     0
 62
     9
  6
CONTINUOUS
  0
LAYER
  2
102
 70
     0
 62
     7
  6
CONTINUOUS
  0
LAYER
  2
103
 70
     0
 62
     2
  6
CONTINUOUS
  0
LAYER
  2
104
 70
     0
 62
    11
  6
CONTINUOUS
  0
LAYER
  2
105
 70
     0
 62
     3
  6
CONTINUOUS
  0
LAYER
  2
106
 70
     0
 62
     5
  6
CONTINUOUS
  0
LAYER
  2
107
 70
     0
 62
     3
  6
CONTINUOUS
  0
LAYER
  2
108
 70
     0
 62
     5
  6
CONTINUOUS
  0
LAYER
  2
109
 70
     0
 62
     3
  6
CONTINUOUS
  0
LAYER
  2
197
 70
     0
 62
     3
  6
CONTINUOUS
  0
LAYER
  2
198
 70
     0
 62
     2
  6
CONTINUOUS
  0
LAYER
  2
199
 70
     0
 62
     6
  6
CONTINUOUS
  0
LAYER
  2
200
 70
     0
 62
     7
  6
ESTILO_TQS_0002
  0
LAYER
  2
201
 70
     0
 62
     7
  6
ESTILO_TQS_0001
  0
LAYER
  2
202
 70
     0
 62
     7
  6
CONTINUOUS
  0
LAYER
  2
203
 70
     0
 62
     7
  6
ESTILO_TQS_0001
  0
LAYER
  2
204
 70
     0
 62
     7
  6
ESTILO_TQS_0003
  0
LAYER
  2
205
 70
     0
 62
     5
  6
ESTILO_TQS_0004
  0
LAYER
  2
206
 70
     0
 62
    15
  6
CONTINUOUS
  0
LAYER
  2
207
 70
     0
 62
     2
  6
CONTINUOUS
  0
LAYER
  2
208
 70
     0
 62
     5
  6
CONTINUOUS
  0
LAYER
  2
210
 70
     0
 62
    15
  6
ESTILO_TQS_0002
  0
LAYER
  2
211
 70
     0
 62
     7
  6
ESTILO_TQS_0001
  0
LAYER
  2
214
 70
     0
 62
    15
  6
CONTINUOUS
  0
LAYER
  2
215
 70
     0
 62
     2
  6
CONTINUOUS
  0
LAYER
  2
216
 70
     0
 62
     3
  6
CONTINUOUS
  0
LAYER
  2
217
 70
     0
 62
     3
  6
CONTINUOUS
  0
LAYER
  2
218
 70
     0
 62
     2
  6
CONTINUOUS
  0
LAYER
  2
219
 70
     0
 62
    15
  6
CONTINUOUS
  0
LAYER
  2
220
 70
     0
 62
    10
  6
CONTINUOUS
  0
LAYER
  2
221
 70
     0
 62
    11
  6
CONTINUOUS
  0
LAYER
  2
222
 70
     0
 62
    12
  6
CONTINUOUS
  0
LAYER
  2
223
 70
     0
 62
     6
  6
CONTINUOUS
  0
LAYER
  2
224
 70
     0
 62
     1
  6
CONTINUOUS
  0
LAYER
  2
225
 70
     0
 62
    15
  6
CONTINUOUS
  0
LAYER
  2
226
 70
     0
 62
     2
  6
CONTINUOUS
  0
LAYER
  2
227
 70
     0
 62
    10
  6
CONTINUOUS
  0
LAYER
  2
228
 70
     0
 62
    11
  6
CONTINUOUS
  0
LAYER
  2
229
 70
     0
 62
    12
  6
CONTINUOUS
  0
LAYER
  2
230
 70
     0
 62
     6
  6
CONTINUOUS
  0
LAYER
  2
231
 70
     0
 62
     3
  6
CONTINUOUS
  0
LAYER
  2
232
 70
     0
 62
    12
  6
CONTINUOUS
  0
LAYER
  2
233
 70
     0
 62
     4
  6
CONTINUOUS
  0
LAYER
  2
234
 70
     0
 62
    13
  6
CONTINUOUS
  0
LAYER
  2
235
 70
     0
 62
     5
  6
CONTINUOUS
  0
LAYER
  2
236
 70
     0
 62
     2
  6
CONTINUOUS
  0
LAYER
  2
237
 70
     0
 62
     6
  6
CONTINUOUS
  0
LAYER
  2
238
 70
     0
 62
    12
  6
CONTINUOUS
  0
LAYER
  2
239
 70
     0
 62
    11
  6
CONTINUOUS
  0
LAYER
  2
240
 70
     0
 62
    11
  6
CONTINUOUS
  0
LAYER
  2
241
 70
     0
 62
    12
  6
CONTINUOUS
  0
ENDTAB
  0
TABLE
  2
STYLE
 70
     1
  0
STYLE
  2
STANDARD
 70
    64
 40
0.000000
 41
1.000000
 50
0.000000
 71
     0
 42
0.200000
  3
ROMANS.SHX
  4

  0
STYLE
  2
TQS_CALIBRI
 70
     0
 40
0.000000
 41
1.000000
 50
0.000000
 71
     0
 42
0.200000
  3
calibri.ttf
  0
STYLE
  2
TQS_CALIBRI_U
 70
     0
 40
0.000000
 41
1.000000
 50
0.000000
 71
     0
 42
0.200000
  3
calibri.ttf
  0
STYLE
  2
TQS_CALIBRI_I
 70
     0
 40
0.000000
 41
1.000000
 50
0.000000
 71
     0
 42
0.200000
  3
calibri.ttf
  0
STYLE
  2
TQS_CALIBRI_I_U
 70
     0
 40
0.000000
 41
1.000000
 50
0.000000
 71
     0
 42
0.200000
  3
calibri.ttf
  0
STYLE
  2
TQS_CALIBRI_B
 70
     0
 40
0.000000
 41
1.000000
 50
0.000000
 71
     0
 42
0.200000
  3
calibri.ttf
  0
STYLE
  2
TQS_CALIBRI_B_U
 70
     0
 40
0.000000
 41
1.000000
 50
0.000000
 71
     0
 42
0.200000
  3
calibri.ttf
  0
STYLE
  2
TQS_CALIBRI_B_I
 70
     0
 40
0.000000
 41
1.000000
 50
0.000000
 71
     0
 42
0.200000
  3
calibri.ttf
  0
STYLE
  2
TQS_CALIBRI_B_I_U
 70
     0
 40
0.000000
 41
1.000000
 50
0.000000
 71
     0
 42
0.200000
  3
calibri.ttf
  0
ENDTAB
  0
TABLE
  2
VIEW
 70
     0
  0
ENDTAB
  0
ENDSEC
  0
SECTION
  2
BLOCKS
  0
BLOCK
  8
0
  2
_PLWTQS
 70
    64
 10
0.000000
 20
0.000000
  0
TEXT
  8
0
  6
CONTINUOUS
 10
0.000000
 20
0.000000
 40
0.200000
  1
$PLWDWGGlBMVwAAAAAAAChABAAAAMHC82deG7a4TWoBHUHqWtfNLmaaOkYrkjHyl0JAktB7q4KUnw2e90o2eiqZG3YjCzyxTY6o5lQ4jNXKuHlNJV3htwh9wR4x7G3xT3RQepQ0T8DuWPYouXI47lORrnXZ5ta+6AyWbxLQTO0mK55y/7A=
  7
TQS_CALIBRI
  0
TEXT
  8
0
  6
CONTINUOUS
 10
0.000000
 20
-0.250000
 40
0.200000
  1
$PLWDWGU3E8FGulAIiTkKu1AGd7ADm6X+e7Lpp59e0Yt2nOpkKTqvWjCD9Lkj6qAiVq203JVUK2dEBGUyK4qvU/m4lbNJigxo2IlVSRF6swztHcTMySvLZcLztNbbSvN4V/3K/V2hmToPHEq9j5SKUBrZ+NxcsuX5j5BnKPrvJAwNxJvWU=
  7
TQS_CALIBRI
  0
TEXT
  8
0
  6
CONTINUOUS
 10
0.000000
 20
-0.500000
 40
0.200000
  1
$PLWDWGZaKVPXKB5Gz3ewmaKDlnXnGkXI8ZoyQOo+EH85csELM+nQUVNj0/MBJeCHz1SbKhCU79PvDJn06IVI5XRm8M83Pv9GHBynE+j5xM4JjBS3nt4ubrqCOTtq+129VpYfKJhPFRPzTpprT9Ibp6hGCgpf+c1fUHNoIuSebmPHGZfaU=
  7
TQS_CALIBRI
  0
TEXT
  8
0
  6
CONTINUOUS
 10
0.000000
 20
-0.750000
 40
0.200000
  1
$PLWDWGFYeMB6dxKwn5sBVl50yswlV6bi7b2rKiLsAIkhNuu3OnvgAOX5znfKVK96d216OWaGYw7CJGDWwCELWsB5ADIkJab3hfNXZLd6JGPf6SiLKGZqGYz2V7GTTw2Oo5Lbh+i1LQHm9Qd5Dhl2mnBWIgvFEIiSUyVBIx5BmiR2TXbeM=
  7
TQS_CALIBRI
  0
TEXT
  8
0
  6
CONTINUOUS
 10
0.000000
 20
-1.000000
 40
0.200000
  1
$PLWDWGNszL8pXnvnO7O+ob0SM/+tnAvLxk+iHGNb0X0v9rbxPIpxDj4+CsDcutPDxnA32LqXNCGQHkdk3teOiIZ+u3bVHav+iO63HhMOQQZp88nt4Sm8bKUvaqjGISk32ntfWBiORhuajYXTTW8TVk6dMBY/K6mdD+tddff8BVtR3oJ4o=
  7
TQS_CALIBRI
  0
TEXT
  8
0
  6
CONTINUOUS
 10
0.000000
 20
-1.250000
 40
0.200000
  1
$PLWDWGiYd3qAc0KBPCHLrpiNJOfff46Sm414KjYcvF1pWUb5hUwn1b8hFDrA7qMYWKrFjAjOI4gxAgq7Ehymsf+x1+JctSFBcGhabrduaXnRC95U2BQSFAggoHlJlk/p3KZW5zEE97joaJQXeIV+1/BBOPFQOg9F5FQPuC9snvHqmKju0=
  7
TQS_CALIBRI
  0
TEXT
  8
0
  6
CONTINUOUS
 10
0.000000
 20
-1.500000
 40
0.200000
  1
$PLWDWGQ+nbKkxWownpSAfFpGqs1FQbWblsHNIPp+0/Bz9LdicPadHXEYcrsWYuwHe/xhG/d5wdCHTi9uenjnsZsXYJm1a/jD3Wy0ZHGJnpM2Slms8B8al5OBT/kU0CIvxX5tZcH6Wqmi/vEiy6srYh2NmaXy4yrd/T0Mci5tHrugyZ8yI=
  7
TQS_CALIBRI
  0
TEXT
  8
0
  6
CONTINUOUS
 10
0.000000
 20
-1.750000
 40
0.200000
  1
$PLWDWGE4FngOMVgjFH3lhTWpbjlhX126nk1FdaT3xKKA0sGCh442Q0IzKHHoPC6g+C2tC829SbzCqPaLghBKAzLfumNRTRtYZYuxfrtrOdOFmRnezwSxGfCrpwnzSbhjcfOM+9rAj1LZAGm5SENUwTBihtK8tPn8qSrUAUW7G1Nvt3spM=
  7
TQS_CALIBRI
  0
TEXT
  8
0
  6
CONTINUOUS
 10
0.000000
 20
-2.000000
 40
0.200000
  1
$PLWDWGMjo5VOu5tI0nuiJHTmcZSYVlUhLLxAoi1nf59XU1pz5bN4fJmKbHjpd7UuSC17if5mQS6VqpXgMOPQlbpYYFjUfACbHIHdJ2kJQD7+NT6zwtk3J42twpUdUMZ8XumzW54vOSUsLtA02ESxEiOu7c7HqVjRT6BtGgAcZTPTdyor4=
  7
TQS_CALIBRI
  0
TEXT
  8
0
  6
CONTINUOUS
 10
0.000000
 20
-2.250000
 40
0.200000
  1
$PLWDWGZHW6ZcLz/Iq6LUZgSCMA1ES5TZ5McEILBcN8DXcTz5as67w2YEbDxa+zUj3OmFIQBmqG12J6Q+P+qlDVOoHJ8Zp8Qqez6evR5R9jeQ+uS4Qk9il3CuOugMMybD6ApqrgAGxTBE8FHL4dNL4DiGCRwew5bg8YCBsBYm2cfRieqg8=
  7
TQS_CALIBRI
  0
TEXT
  8
0
  6
CONTINUOUS
 10
0.000000
 20
-2.500000
 40
0.200000
  1
$PLWDWGL3LJ6cdSi9+3IdoJjh9PXAaBbYYWc65HPquALb6UA+TW0K9s9wUAOM2qPGLqU9sHzC4lN7uGZaCoxgyuiHKkpWKp1fVkyZ4VABzpFqn5SY6+X0MeGI4qJydGp64QJ2O1S947V4Ioq32q/m7tjscvgEqgOtAdpVImkOMvPBFZbQc=
  7
TQS_CALIBRI
  0
TEXT
  8
0
  6
CONTINUOUS
 10
0.000000
 20
-2.750000
 40
0.200000
  1
$PLWDWG0M/dNdBPI45lPFc/mq0yCw4gpAU0Ts2ePSFot1TBAWOyEPJJ/5JHpReJ0xMGsn6zSgDGPbtikYsHkjtBbt4Op011cnYzl7Lri4Jsbwd27iP48ISslpB7CXysUgbOxXaZaBnFx1FgYZ+pIncNFFQqmZu4+WX7g+HBcgczyLM4TzA=
  7
TQS_CALIBRI
  0
TEXT
  8
0
  6
CONTINUOUS
 10
0.000000
 20
-3.000000
 40
0.200000
  1
$PLWDWGImSrMrkzchh7nx1HtFYkOgMqlb+asv0ptznZOegXv9R48lhA1w6L+V/gFXerX+oRggxyXqZFCQuCgbXJL1KZdv3gdCNzSwto4hFaqMJ2nhNdB07EmmT+RSkX66coJ6Y7Qa60bbWXgQIl637dzfzaTlA4RyrbBcjQBjNtvwbhl0E=
  7
TQS_CALIBRI
  0
TEXT
  8
0
  6
CONTINUOUS
 10
0.000000
 20
-3.250000
 40
0.200000
  1
$PLWDWGFgENMuQfU5NX4FsayEwLnaJ2BKX0GUuJWbr6UKLTJckd8VFZkHm0gwwyaTmvFXKUG02g63GYYytvsdxfzVIjFvhoukOApKN/SrkFNxdm2hWbVTxMhreHARVuCDHU5qbd7DpTrTc6e4I4FNZznxg6TzjrUN32OKAMC6E2r99UAug=
  7
TQS_CALIBRI
  0
TEXT
  8
0
  6
CONTINUOUS
 10
0.000000
 20
-3.500000
 40
0.200000
  1
$PLWDWGdjJ24TWVhj3qVd/IvnY7bA+XwXqnv/D3RaH+8Fc801YmmKGLTepiZGUR2QCl7C40YoFi/PTeFcVKT1EjNNdaqLjmqCSkYVJlvF9eF22+0dSGJReuBi3hB2EnYwcp5uOlOVY+8c9/f6KeNlwOylLfFHPrIhOZwHTQ2wiaJbdyy8w=
  7
TQS_CALIBRI
  0
TEXT
  8
0
  6
CONTINUOUS
 10
0.000000
 20
-3.750000
 40
0.200000
  1
$PLWDWGgF1lKgTPX/FLRK22atfkyTJmRO2iSIn97mYem5V5Ljn5bzeD6ut25KEAnw1qA+xfhUhP+igZdp5AFbXZBOwYknj9Kcg+9E7euE111d2yo9OCl4+lniVJQBiZycy4KPBCFp8lyytiT8Ai87MhrFtoZSyQYfOr6b3tJFtYFYs+92k=
  7
TQS_CALIBRI
  0
TEXT
  8
0
  6
CONTINUOUS
 10
0.000000
 20
-4.000000
 40
0.200000
  1
$PLWDWGZUTQAVAvgDqLJdsxvwM+fjOPAp0GZ0OSdzmPeksBbuIGe1xOAjYz9aUY1u3Ziz8u3zpBpylRXf25G/AhLvNxgfAR3x11GxnyEq9Wjq5wcEHmBmJLvDquETjVr83yDbcQySPG5oLb/n9CWiUjmIRhjbZ+tk3+3ZaWqgm9MWhQO+8=
  7
TQS_CALIBRI
  0
TEXT
  8
0
  6
CONTINUOUS
 10
0.000000
 20
-4.250000
 40
0.200000
  1
$PLWDWGjQGNq1w7cB2cAzFE9c4uuFYPqbdc/SvslIB62xUU+q2lvBNDWnbmd27Of9bRVDp9HcvqWMHqQgtH+m1CSmgG/WFpQ65oJMPEZWt/HH+1RgexYJCejxq3chN0efDIcTczeiUSzapnuWwUrZNvfww1JbjxfyJsAi1l7g9u0NDUqgM=
  7
TQS_CALIBRI
  0
TEXT
  8
0
  6
CONTINUOUS
 10
0.000000
 20
-4.500000
 40
0.200000
  1
$PLWDWGws5L4PRuNJxFsi1jTXoEw4MwShC5vYXvG2VBZD1sWG8i3X3dm2lkl9VZfvnNxTZx95kuaQsRPVT+4SUgQ4G9DBfi34zdIPNQ1S1y2yg/FD3W5Ud0UXRMUktWUgL8OPTMk5gxWWZamLiHGUt4XruHx6ksMXKdvOH6sg4effJIEG4=
  7
TQS_CALIBRI
  0
TEXT
  8
0
  6
CONTINUOUS
 10
0.000000
 20
-4.750000
 40
0.200000
  1
$PLWDWGkvRvEufTg1+W6iQOqac3qaZfHa1QgKY59cbaSsalC4yp5CVLodP40y+yP/40B13TkT5TYYnFOaRpNceNEetkIUJbIwVQ3xJQTXdthTsfvfYNB7c62rcnvu8etZf2QfvYqpqlVEi+2lG/y/yfRRcS5Oc9HB66JXtthaHvRhwxZEA=
  7
TQS_CALIBRI
  0
TEXT
  8
0
  6
CONTINUOUS
 10
0.000000
 20
-5.000000
 40
0.200000
  1
$PLWDWGmny3LY6M7wRMN+MzDLNbMUAI7K9iMcB/hqDOxhMiXbmUmEZgDvvOREFXj1dw7utXJFSP58Ham7z+i1hS6Am41ssYTH55W9zNc3MXS0kYxJHDgoWAe1zN348dyV3iNkhnaCQgBrH3j7y0rJEtf/9lQr4u5kt61FG4l3nOQcgVIVM=
  7
TQS_CALIBRI
  0
TEXT
  8
0
  6
CONTINUOUS
 10
0.000000
 20
-5.250000
 40
0.200000
  1
$PLWDWGGMhvXsWrx1ogJyPcW012UU1BVU7Kf05pOaVlHCdOKrVkaJUZOaUhLtjJ2HsyD5IC3mEJS9SCe/zYGU19Dy8aI2ZA4yZLhQgzE6RRluWiOr6oXiZevnga3wObUQUS35SUhLEMUnPcPcHddnMr4O4fSv/Rbxi6tCjHZJtZuhbzMBc=
  7
TQS_CALIBRI
  0
TEXT
  8
0
  6
CONTINUOUS
 10
0.000000
 20
-5.500000
 40
0.200000
  1
$PLWDWGHhozj/UI2W+Ml4GNmJw4xcJS9AD345/RwmEtDM5qlH+iwRetkF+b/8S6l6lbi7Q1ArkhIz5/BV/Q9XNgIC5AbCKC4RgS7Pn7MKsRGtA9y+n4/GCMZ/3CXf+plamouRKM/AhHBV61WbfOoDmTxVHRd4cqiBYgAl6tZ+QUjlp5Xto=
  7
TQS_CALIBRI
  0
TEXT
  8
0
  6
CONTINUOUS
 10
0.000000
 20
-5.750000
 40
0.200000
  1
$PLWDWGtVt3s5XvnHOtbX228UtXWpxV74RGtbf9xKP7Vs0QYPFIi3zFb8VsLw7RIXfptgS7LA9nyH3haT2+ePEIRBOY0vO5aB7lzipl2szuMFEYv90RI2YqCs7a1TZ0UBCdmDERcljJ+TVrTo19uiU7ts/ZN2AfvBXn0l93VmtiV1GISkA=
  7
TQS_CALIBRI
  0
TEXT
  8
0
  6
CONTINUOUS
 10
0.000000
 20
-6.000000
 40
0.200000
  1
$PLWDWG5XohG5ovz75rOa2wrZtoXQPO7NIr7AFQI4luCbJWjHCoqcbpf8v0fNxmgosDbnUJ2MRVNPMfJCDsGtcLl3xAQJ7Sr0/GrWn44YbtLmmv/v9PcRDua5lJIX0m/6zAf9XQrz6n28+AgrM2t/mfnejxLW5VAzTXEUlkHAZtXvNunR8=
  7
TQS_CALIBRI
  0
TEXT
  8
0
  6
CONTINUOUS
 10
0.000000
 20
-6.250000
 40
0.200000
  1
$PLWDWGWcnChvVh/RKK8MqyC9dpG/CQcASB1Cym5QJm1aIyeyjpJAeEMhjkxuVgbsOKCWaDGOnOOT93GXkukhNVCTaxqTLPUswYubx7S+2lMkfWeCc9LwdcM+VkVJYKexeCo+KIie3uSpO+RSDo+PCGbKc2zozyWMQ3g99ajD1o/k7zheU=
  7
TQS_CALIBRI
  0
TEXT
  8
0
  6
CONTINUOUS
 10
0.000000
 20
-6.500000
 40
0.200000
  1
$PLWDWGrGs6j/XSP6nlDL+3q/L8GUj6i8D2x0NIz1B3Sn6Ju6o7ZiopzQZQP2qLIdFj4n5b6YKl2HfgOYpaZypkTY4ziQtk4L3oxP2iSt4pxPcm1X0LU9lYV10gDQ7VjDxC6ALJbmwe10FAgkd2nRQsskAm8rOpF+/eK4BFoIcQ33JV66I=
  7
TQS_CALIBRI
  0
TEXT
  8
0
  6
CONTINUOUS
 10
0.000000
 20
-6.750000
 40
0.200000
  1
$PLWDWGicFEVFxcyKYM2Vystg0bExb/oIH3/LHVKGfKEIfPajC0SsleIq+nEydzTHx26wGuk8lRFph74qVBUB5ykx9xy4Jbl45BejMiA6vSl6rS0G48EWrUEQsfFRDcH+wnq4/me+V0r3MCWTr4yoQYXE8c2R7Z0K8mpo/qwDTFFasOYJw=
  7
TQS_CALIBRI
  0
TEXT
  8
0
  6
CONTINUOUS
 10
0.000000
 20
-7.000000
 40
0.200000
  1
$PLWDWGNWlYpUfh5x0xat4rNWW9TFFabdqVrHwrZcodpFaFsyLksl8V9m1nRXU+cmsrB5e9Gi7eV0HpoTVNccKA4YeSM7H4GAXwMI1QzsGVXt0biHZHc15k7oIu0CJeQXhkNZ7jjwziHjQsYX/JjOf6NA7QwNPNYOeJv9G+62tzdS1NXZI=
  7
TQS_CALIBRI
  0
TEXT
  8
0
  6
CONTINUOUS
 10
0.000000
 20
-7.250000
 40
0.200000
  1
$PLWDWGdMiR3/yS/kC5ierZ82NIk7CvtgyxQ9baP2f94f/a4+rZd5rqa0ljiY0FsuYBvApVi4U8UC5ue7X9Bbym5arunWG+p13upzn5mJQ6WNYoRm9FaIJ6yo58/dscA8WXi0m85A30GEec5Za1viXmHnSF3RYHFKRNxz32yrFqDIGSDrQ=
  7
TQS_CALIBRI
  0
TEXT
  8
0
  6
CONTINUOUS
 10
0.000000
 20
-7.500000
 40
0.200000
  1
$PLWDWGwzHhglObgUPwHw888CNYJsmJpM7OzvfsBLTJnqgG2LWRCMYXU9CIAO5moLcFiTMzm1oI4v654hh92ukx2C8gItVqlioOf5nGWy/KoL9sD/cqwk0O0lKjuEWKTSyfS3P9JRvYIQPrZRyuu1slaYAoPdkOpocpMdqqJLlWyVDhcJE=
  7
TQS_CALIBRI
  0
TEXT
  8
0
  6
CONTINUOUS
 10
0.000000
 20
-7.750000
 40
0.200000
  1
$PLWDWGAjej9WOZb+VYFdgZJCAStfy6pD35KsNtikh3NQTa/tWZTGKMzqDhDdSNaUQEvlBEMqj0c1/Gztequ7t0aM2GtRAnORzaSN9xqY5eL6eBay5i4zrTqr98E/50aFRozE/TBuSkwVj8URVXYdXbLsOBzb3uZQbdiiewglk60PW8MA0=
  7
TQS_CALIBRI
  0
TEXT
  8
0
  6
CONTINUOUS
 10
0.000000
 20
-8.000000
 40
0.200000
  1
$PLWDWGJhLG1xEZPpGhpxdgvEmgr1FX1/tcxcYg3wFhp69RFE60eVP4sUkmQB0xhBeYoICm/Dkk/DS5QkBTZHlNfGyTiKKoDyPnOUpAwcpVXH/U5tME+V/EBMJLQC+CCndTyf4qZNP2eVzcIinGKZcIn05lFQMMNMfAb4OGBgkoMt1sE4I=
  7
TQS_CALIBRI
  0
TEXT
  8
0
  6
CONTINUOUS
 10
0.000000
 20
-8.250000
 40
0.200000
  1
$PLWDWGS9+/iD/f5PqAZgnAPjIi16wssbgbMg/iVAeZs0B5hww5UKhndht+Iz9rdfp7H1HCYqrHVRRi7vQZjxXAllo1dHfAhweTXLfaa4ve4W6LRNlT8bJv0iVwaQ5AheLsrC29vVPur1l5vB0YPkFiwcGLL2EQQl5I4U6Fb6O6vZwoBfM=
  7
TQS_CALIBRI
  0
TEXT
  8
0
  6
CONTINUOUS
 10
0.000000
 20
-8.500000
 40
0.200000
  1
$PLWDWGsuNv9pAWo1PE0f/KuxHSJ6gt1bCChMgzdVg8is6zRbvd232OGeLmhEvAvk+Wd7AdkaOGlhcLkCaH4WlnjXMpRYplF1DCUYjJV/XQnwvWXz0dvlNL6iXMlPamK7z0QdvmWZp1DPTAkC+EowMo9rB8mcKjEUXiFK0fYD1iOOzKxJk=
  7
TQS_CALIBRI
  0
TEXT
  8
0
  6
CONTINUOUS
 10
0.000000
 20
-8.750000
 40
0.200000
  1
$PLWDWGW5w7gdb/gXB1yycf7wVuA4bkyVQTcdgP1XMxs3gPWEpRE7vuobaBe9FSHUkhrktQ7CjzRsG0ti8Z9LnY0A4YlidQcHYDIr4Xdp9N8sbItNfqkerm7qJW8U4uPMeunBhvFZqM3KJ8LNf6EeSkDfqRKevY1s+147VcUxQURZ9REJo=
  7
TQS_CALIBRI
  0
TEXT
  8
0
  6
CONTINUOUS
 10
0.000000
 20
-9.000000
 40
0.200000
  1
$PLWDWGF7lqoAnmIogqvYNULiNCFsK8ZaE/aaEbWPVk9Q2iFkHbe57UnmEa8HRHcns06ZwBHDCcBjzOtLrFXrsZkPP5uSHpA7jGuezQb6Tjg0QbwgZvq83qOznOwGmDLx9Da97zmxb1H+niu2SgB7CgABNWapZv6sYVmmZgfwIz5NXRBgY=
  7
TQS_CALIBRI
  0
TEXT
  8
0
  6
CONTINUOUS
 10
0.000000
 20
-9.250000
 40
0.200000
  1
$PLWDWGWG+4PYPNkkXqojnOPOYFSvdwcQnF+O785KT/3nf3Bmf+CBnYxn3oUmCevLF0Qi3Amc8swjpYUTv4xYdCosWlIjkJjWF6hTfpcuyMzWk2K/96R6EfGgVOqWuFFdboRoFctBhyvkJuNHvmfd7nvTnBh9+wh9/IgIOlJFEz6S0EhUU=
  7
TQS_CALIBRI
  0
TEXT
  8
0
  6
CONTINUOUS
 10
0.000000
 20
-9.500000
 40
0.200000
  1
$PLWDWGIac/XdG/0GpAY0CAkb1/0KRp8Zk+8I0HPdrSgn/J6EDMwFMwqAxIdguxAyq8ULNmrIIAtVmQiF/bUiiVS/wg1AIeAsWkSJxIPaBdxupLtHp9PI9aBH52KSwf91o5xA05Fq3XPoVqHsVbxlmoD8Dd71+ARrVkwMKwNjhw7OoqBTs=
  7
TQS_CALIBRI
  0
TEXT
  8
0
  6
CONTINUOUS
 10
0.000000
 20
-9.750000
 40
0.200000
  1
$PLWDWG68nrMwKuKezlS2xRGuDn/+gJIJZygPNYLUjSGYjz22lP2rSfJ7JXE1bBGoGCZaSjikgyY68Mg2BSC1IsUfOJN3Vmspa2p6U4Uwc/R+mZHtlaVzf3VD/A6pPHXn9wU9aLRc4Lz1a9TiWa4lVcaSrVcJM+olkiMQHren9WCcR6GfM=
  7
TQS_CALIBRI
  0
TEXT
  8
0
  6
CONTINUOUS
 10
0.000000
 20
-10.000000
 40
0.200000
  1
$PLWDWGxUvKN2jCN4GGgfyHNUsu2TIEkwWin2mkdG7sHlKJT76SGtB090Jihyu/XkLdGcTM6Y2tbz2+iKgiqRGYIzrMw4EsoHQ8l2VMDxV42MajlyJfDjdsEZAWf0M3ORo5KLS7p4QIjMtgtlPmPz8y5q1mvQrAcFj3H7ShDO+nMKb+SkA=
  7
TQS_CALIBRI
  0
TEXT
  8
0
  6
CONTINUOUS
 10
0.000000
 20
-10.250000
 40
0.200000
  1
$PLWDWG2R62r/IUX0qx2JFx8VZQ0ZUQVbO0c5MlCLOPvFiqwAOuC3cKPVNITfunRDDtKtrlNFwygfzm62lHD3ZfGHZb7fmge/qHRCMeP5cvb7hfyBMFKuv5ms7BpS0Yk+Gq6rhlKSC+mc3lWanD0qsvwbwb68P1IlIGMdV1Opve3QvZKa8=
  7
TQS_CALIBRI
  0
TEXT
  8
0
  6
CONTINUOUS
 10
0.000000
 20
-10.500000
 40
0.200000
  1
$PLWDWGd4CbsAw8CK91b7sU+VXUShJrpMIF9hCnH8DQ1kpwQeHWdcIS9fG78RXbK8hwfxwLQGwnS9GCNk/RmCo6chmNhSc6NbXLmQz5WCgtDAdOZMiEwJfUgll5pzrg2EqlRWiZwNy/iH6s4yE1wNRTnp03VZRPTdpgmUJdusT+6fNNVhM=
  7
TQS_CALIBRI
  0
TEXT
  8
0
  6
CONTINUOUS
 10
0.000000
 20
-10.750000
 40
0.200000
  1
$PLWDWGF4XViG2tkUqYfRJLHEKIz3Vab8Gx7akhdNSZ7VoKVCIIDEsdkYT3DuCnKT8uD/YIrDIykWCq7iDaG670KL1vumjcJAb8w2Us60IQZv8A29EUA5LgmhGypF6dMI7fpTXUxK+pWLlLpxrtpPV2apLsEcd//s7aHMQniOsZmVKC1NI=
  7
TQS_CALIBRI
  0
TEXT
  8
0
  6
CONTINUOUS
 10
0.000000
 20
-11.000000
 40
0.200000
  1
$PLWDWGBCY/Tr3ZVLQIAoVC3qkttSi/S9egamY+O1ol8k6MacFh6IIfn3tNlG/eCqNb0kKTZq60cTHQ4iArrnykpNCBDNK87wauTIcZ3ZywYWNhNpHgyF3PgJqj3n9lcRja4mXd53SJNYZ12HtPqsAq3R1f6iWflhl6A8ehl0ZNyPvY8SU=
  7
TQS_CALIBRI
  0
TEXT
  8
0
  6
CONTINUOUS
 10
0.000000
 20
-11.250000
 40
0.200000
  1
$PLWDWG74qSrXY1wJFBwGX1vXlnRdUKXN35U1EO8K/cYeno08rlG4JESmHFKTTuzK6L2CGsaCJbXkNjqIj5Boxv0o5SiF5qpZDl8G94clDLqtHqlzuQ6av0b2qP8nc9JzSigVx3ZB81GkHYptnR8YfuWna+pY8NiCFQu2apASZK/OqRQBI=
  7
TQS_CALIBRI
  0
TEXT
  8
0
  6
CONTINUOUS
 10
0.000000
 20
-11.500000
 40
0.200000
  1
$PLWDWGXRxyISIXgYUEaZex9HgP4wQ4I1FE/ken8D7Ag5N1iidZE98k8gQV1cDmd+7Zp2eO1AHxOGXN79ThVsRg+sGPw5+yW+KSASVTDK3SNC3t4X+m47gylm6qn6NzCz7PhLX5E01tr5p4q6CXIL08zMnW1MZeqnpTQ3fLymoi/lsvTjU=
  7
TQS_CALIBRI
  0
TEXT
  8
0
  6
CONTINUOUS
 10
0.000000
 20
-11.750000
 40
0.200000
  1
$PLWDWGNJTWscrliSsj432mom8AabvQH7wg59do+icaTp2lu/VB7DGFnojXtJSOOOuvjguCrqH5tiXFWg+UIO3qoaHJhJW6JseR4zd9CfvpDqD/eg0SozfiddnZcQIf60ewmKIq8kISD2MRKKEW9yEaguCRR/sEWa9qVodhHbKTa1b7L7w=
  7
TQS_CALIBRI
  0
TEXT
  8
0
  6
CONTINUOUS
 10
0.000000
 20
-12.000000
 40
0.200000
  1
$PLWDWGt3IsDgqgKBjPaj1CHT/wzcsYHQXNwMO/Un9YKfrArSvNU3iecDRUnZIo6DCst85JNbYPtQDgWpCIQ6m3SJiR4+YpybaAvbrouzQ+vXGW5WaQDwatyhRLRksUXgALzHuoK6d/H/dkgiB2sCn4GCGxZ37/WF3uuDYioXpOEcemc3A=
  7
TQS_CALIBRI
  0
TEXT
  8
0
  6
CONTINUOUS
 10
0.000000
 20
-12.250000
 40
0.200000
  1
$PLWDWGEiL9IwtJty16+4/KME4ZuSzNMBUlqlk/FyrLBjMN/b6kH6zIVq1MQI/wiMlnOlD1Fff7B31ewQGGSpvoXSeVW24tHcxIaw6TuwwqtTG3zBZKPhHpwEzYYEmdu+xtnKIUclK4+r8UPY13UFV1yRSTcCeXRIxnwa94Ax0HrY8TiSc=
  7
TQS_CALIBRI
  0
TEXT
  8
0
  6
CONTINUOUS
 10
0.000000
 20
-12.500000
 40
0.200000
  1
$PLWDWGJGt16rFGjssMTKzK1oGEXmGyPwSBW91zh/8B5ZkG2IpZGR+caCOYmx4t6BMcg/QiZppyffDurwnapnc7utDXhsVSvN2JcQ/BUk25DiQin918xsO+xXY2HhdslPnjqDfA9gRv0WAyMX9xLFPUp9nPCTtQZ0S1vd77N88CZ9jFbX4=
  7
TQS_CALIBRI
  0
TEXT
  8
0
  6
CONTINUOUS
 10
0.000000
 20
-12.750000
 40
0.200000
  1
$PLWDWGCs/bo3GF17RZDBfLBoAKT0BgxaU8et0ie9UrYJGYxft4CQBw0i9BGhq44I6gB83la29iWYfnMfoQXOuRWt62RCjEAreS79Ke1x/7QwR3+tCgJ5/a28rou0yTTzzBnk9pssJMlemWsksheDUIayULdpYw7wgrObEJTeqFtDWX3nY=
  7
TQS_CALIBRI
  0
TEXT
  8
0
  6
CONTINUOUS
 10
0.000000
 20
-13.000000
 40
0.200000
  1
$PLWDWGPEzBr0+1FPR0F6rNrmEfSkd69j2dXK+xywB7k0FcsXVHkQmcOcH5T7qvu+ajRobhOiFlYrJDRkNQdTXcoGQzJFV/+dvPfeWWPVAx4hetebkUZIyp58ehkC3zTAQq1fcCCszRPaM/j3ql8s4ZBCcJ7uZ4IAv9/hSCnRh0ZCNorI0=
  7
TQS_CALIBRI
  0
TEXT
  8
0
  6
CONTINUOUS
 10
0.000000
 20
-13.250000
 40
0.200000
  1
$PLWDWG1i3uhAqxsxrb94+OVz6Z4ol1cFBC4zIe/rTHb/C1bbf4QkzlWthqPmwzLy2mPFljj+xl5hmks1yBskZEdc1PGetIuPGU5+Vb+xLpd+KppbI7M7dqm/lyYBZaNywEnoO4gbLOxCqcy73CSj3A6jSoBKxn18peV7pMevYngm/6200=
  7
TQS_CALIBRI
  0
TEXT
  8
0
  6
CONTINUOUS
 10
0.000000
 20
-13.500000
 40
0.200000
  1
$PLWDWG7z/VzuNQfYOpbJiUStWxpRV4V2lGvmo1aBySNCrSURyS1Co+r8bcjBkxaQRPh267GCO0JpQxZ80TwccW49J8xbglfwQ/3XLpyR8z4+VDfFgewy5HNmCbTFr58UBkByo7HboBo1zrPDDn6jVezADeIsWSOXEadJfFLaryFjCEmXw=
  7
TQS_CALIBRI
  0
TEXT
  8
0
  6
CONTINUOUS
 10
0.000000
 20
-13.750000
 40
0.200000
  1
$PLWDWGKUdDHwO40EGZkZeG3S1jpxHea7MJTMs2Rxcahi2iViIQrRzi4Xq1uOCscaNVCgm/+/GPravCdh5n/RJaaMTKb0Sp1y5dPjlOOqNrVwLuRCFnBVafbLZqxoDzyV5i/jHC07XN1kS1mu9DqSRp07IT6ne4FktMvOVHYqKmDIyNthA=
  7
TQS_CALIBRI
  0
TEXT
  8
0
  6
CONTINUOUS
 10
0.000000
 20
-14.000000
 40
0.200000
  1
$PLWDWGz2rfc9KkFfx/JJLMB2E71mWXRmmgCoR8ovgPIDIwsKFILm0wi4GmI0szJkGtg5nf0z3188JlKaEL8vSE7in4lHNBO0T9Uati/8RwHpv1sf4mPys2dvNGvYaJbv038N/XhAPGtPm8xrhoIwMQAP6zwVsL9zi0knIqBKGTaP+AQzw=
  7
TQS_CALIBRI
  0
TEXT
  8
0
  6
CONTINUOUS
 10
0.000000
 20
-14.250000
 40
0.200000
  1
$PLWDWGNNGIjsy5hGPTEC2b6UH4pMyftb1UChhAb7PZ2tbpw0GkbbneWdNPLVyNpa2xKFAreHnxMtG9cJzDlPs49ArYILTEyKBUdVuxbOlHxNM8S0ASCd9609LZHAD4UhQ1DMkGzvaRVXABO3xeY2J+ZT2vRZEKo3o1lsoMWA1oHqE+bhc=
  7
TQS_CALIBRI
  0
TEXT
  8
0
  6
CONTINUOUS
 10
0.000000
 20
-14.500000
 40
0.200000
  1
$PLWDWGfEw0IzV0QagkJN102w+RJZAcVjxdoZPixqLd4nraFDfLzQv9aA02yya3YKkvUc/+sncXWuesacqAx2GRRBePO3ds5Nf+Wq4zGqCo4IWS6kHJ1xwjS1gTu7RzstwYPcOxm7Dawy6esgO6ZwKUJgVGj4SSmeCnEamc+H/94VP8YH4=
  7
TQS_CALIBRI
  0
TEXT
  8
0
  6
CONTINUOUS
 10
0.000000
 20
-14.750000
 40
0.200000
  1
$PLWDWGoWw6vYbeMUbuWPcer/48SHSwMDVsNSbWfddVaGMasHlBhsfCG2hf3/XA4m+Mwt0x52+seYV5a6LUtL1aledFaS1pJMp7oxoj0d3IixnaVkZ1QPIlkynE0XZim3peqnvQHFJBmWGzadrrPfP+szh9EIcz87pG3Pmuxh8lpS6Dmu0=
  7
TQS_CALIBRI
  0
TEXT
  8
0
  6
CONTINUOUS
 10
0.000000
 20
-15.000000
 40
0.200000
  1
$PLWDWG+WSHr1RkTEEoEnon7wQXHZkPiN3jYNf4LVqc0tG+t1S5nvWL0QafXr497/3Xdh1Mz8KosYabxpVGKg2s53d7HGVNkAp9kBu7BLct0b/K3HmaUYY3+td7r7SHy0nvKbNDwn216vkaDPB/7PS8S0PkHLgOscg8Zhz9VReD2+Wj3C0=
  7
TQS_CALIBRI
  0
TEXT
  8
0
  6
CONTINUOUS
 10
0.000000
 20
-15.250000
 40
0.200000
  1
$PLWDWGjLtopiPQWUdIpRtkLfv91wnRSwp+kCdWRGbn2tjLrS3ON7w/uwVC2Md4vDhgbgaR5fkU8QcjBRBUw3BVMEr+TJQJ8pkN96+HV2z/CPOI7CpeNvye+Ki+/DtZOasrkzFmEfyEESwUNUhWMOuZlB+g7geQhciXk9jJUo+Bsaco//4=
  7
TQS_CALIBRI
  0
TEXT
  8
0
  6
CONTINUOUS
 10
0.000000
 20
-15.500000
 40
0.200000
  1
$PLWDWGOQOPyP0ESEgo7XvXX4yd7dBoRM7YF/ysnAmhMdhjH29X2bKWQRs5IjJXS9cb1fpRAnJXYXJbeJBCc0VedlVP/TgHCLOdEFA77bVadu7ZzdiExrx7+KLz/uIxGpSMElI/FCdc3hanfRVlLhXNKRB7/M1gbs0I9OWwxM2Jxx6Rp2o=
  7
TQS_CALIBRI
  0
TEXT
  8
0
  6
CONTINUOUS
 10
0.000000
 20
-15.750000
 40
0.200000
  1
$PLWDWGuIV7bcT6MQorS/sfH/99DqNlSgx2rFEWuQ9Ug64TGs1oRe16WglKlRHlqyMwo8g/fcXfGoG6V6PtILpbDW/P/sZaf2H/ua/A1kV+EqOJYzycubaoLuyQjbeDcSOqdU1wrdKD7PYQIJ4eqm+j6MbYTBegVjLlYdtKpSV9YHwO3Wg=
  7
TQS_CALIBRI
  0
TEXT
  8
0
  6
CONTINUOUS
 10
0.000000
 20
-16.000000
 40
0.200000
  1
$PLWDWGWFRr/nAWQAA6STVoWAqPAwE+4Qo4wO4K8o1HmhAU3iG0BHD3h7AoZhl860Zf4Tknter3PLHcdQ7lkWRT5L4/BN+9QcNwsDLZ3oXxR/VlEeibpoS3ft275u4B1Qyk8MtPseX9aq2B2lCtPWe43RHgYllvmvM6kTGiDYM4Lcd4dv4=
  7
TQS_CALIBRI
  0
TEXT
  8
0
  6
CONTINUOUS
 10
0.000000
 20
-16.250000
 40
0.200000
  1
$PLWDWGAIQQ3SmP7S6vhwncRJ9Mr3p8kbSo9uVA3RNuVPxSTFq9X9haDlDnEETCJkXpL3WR9DZseRj5YR841hqV0pDv3k9GdbyTEL9Zsd6GzcYRQpvSyEJnD/XPPk4Fc4ZETjNX3RArGOt64ABMuiyIXLO2mwAW0fE6tktA11XG2oPlLzY=
  7
TQS_CALIBRI
  0
TEXT
  8
0
  6
CONTINUOUS
 10
0.000000
 20
-16.500000
 40
0.200000
  1
$PLWDWGqM3eU0UjzvL4rlBqgMLinloWNN1sDq6ueRVZZYbB0Z4scek9NTcs4SpDywa8PpkY/vmPbVMaNUsmOXanLqDPesUgvcw+9IUcFN58Vm9f48MuIxy5mF9xROM/Y4wM1V6BGE8wA3pIV+0zf9j65zbz0VQKQo4zGrvD54b8wZEsWOE=
  7
TQS_CALIBRI
  0
TEXT
  8
0
  6
CONTINUOUS
 10
0.000000
 20
-16.750000
 40
0.200000
  1
$PLWDWGOfW9KTvdpQ/8tamJ0JAOeziZBdSuxnZM8M5ystuNkpUKTyBEuyuJ8AB38NYEW8z+XPfJVJ9M3WXr8yGyGAFchsQplxVLfwUWV0XYRYPkwuTmO4Z8cPxFWcICkGn8sFDk3k0wTHGt3l5dw6f5laIW5s9lVGh6kEiN/G9USXnf+hQ=
  7
TQS_CALIBRI
  0
TEXT
  8
0
  6
CONTINUOUS
 10
0.000000
 20
-17.000000
 40
0.200000
  1
$PLWDWGNrJOwazRHlS8vU5DFb2Gzx2naK9KM1w5DwBMPf/wrOjue58fNmLThg3q0NPa43mNLMhQ0R1YEq7U4RV+XnyY//L3LIJKIJqYCBUD/YskEJ5PAe6THLezZfSo3LqEmY47CVTPJ1NTaxYXOi5a7V16BkUM494SiEGfbeRaYKBaWEw=
  7
TQS_CALIBRI
  0
TEXT
  8
0
  6
CONTINUOUS
 10
0.000000
 20
-17.250000
 40
0.200000
  1
$PLWDWGOpeRPV+TBChRIrq64EO5cnlz7jnoBXxLPuOuFo0tmC8TmTtHzC8nQNWPzQMeq3vYf6j8B5bxF2x+a4wi6VCqm9BFVY49J7oWmv6AOaOvSwi8ZF2GpHlD4nkM8eYT6qGl6b46JI5zZjUAfJOFy8TaGJEC4TV7nykcTqJT7vaLWwQ=
  7
TQS_CALIBRI
  0
TEXT
  8
0
  6
CONTINUOUS
 10
0.000000
 20
-17.500000
 40
0.200000
  1
$PLWDWGx9nNF5mbYDdi1Ivt2i2vFvnlLrizy/M2wRSJxina6sGqON5RcqTHyUVGWVXl6tK/qrqHC/4lu0bSF0r86Eos96y7oXf8QyqsLzRADWirvDTf+aziKlYN8J98R8n1WsAuMhDW2hkIvHGZ7RacMrmGB64ocVb3W0mYBMuAyJ16cE4=
  7
TQS_CALIBRI
  0
TEXT
  8
0
  6
CONTINUOUS
 10
0.000000
 20
-17.750000
 40
0.200000
  1
$PLWDWGudYqKTlJBzlfRSDNHwG1wzbmMekPK/1az3doo29GmZBl30a8Yc4n1WLpMOyL7Kro7ryoenrk97kep2iav/34hNx5io+MEIZdmZg70CEt9bq7n/AskjS0eKX14TxylArRmwX6ULY5FneNm/cG1ZFYI1IpJKzI/knGUNuvWZAFiSI=
  7
TQS_CALIBRI
  0
TEXT
  8
0
  6
CONTINUOUS
 10
0.000000
 20
-18.000000
 40
0.200000
  1
$PLWDWGnIw1w83GJ1pm/kgePCoAwaBtgO6cXyKoAQJU70rVbzxOsMbLEIJwQGFRPUWqHfvy7KawdmYoe6sv7++cy43JjXN2ztyIhojOaz7n7A8x2jyhZbDxijWrLgj22yPUfyR+uMrb89ixpwQKhK19pO8BJERaxLsjtQEurrm+Y8mUW2o=
  7
TQS_CALIBRI
  0
TEXT
  8
0
  6
CONTINUOUS
 10
0.000000
 20
-18.250000
 40
0.200000
  1
$PLWDWGarBZAx4/yKqh8vhtAdr8N8og/scpkGColdDKRioICypViKhn7yNJ6BeTR+McsbGxV+z/5ZXxBXQ9UBwRecitr4unwnmv16jGLhU/dRu3AttMimgPvZ4vp+uPhUPxB0rptqvoxgDt+YGpIuu9oCgPTxnjYm1pn/DoQ7O/chRZ+OQ=
  7
TQS_CALIBRI
  0
TEXT
  8
0
  6
CONTINUOUS
 10
0.000000
 20
-18.500000
 40
0.200000
  1
$PLWDWGi238A/9jufnXik/jnXF9qoVrsI2Q8DxvPK8/3+lLS0CHCAld4TKshERGyZUOMTZApkqMS92dDjw9KvESzCwBxZWpshNVXgAUDBEj3rveFcbX3XI1yE6A+rqNje3jSBxtRK0PBP6RoopJVQE8ZhRTwuXu6vtwFJapO9zvG+tuIV8=
  7
TQS_CALIBRI
  0
TEXT
  8
0
  6
CONTINUOUS
 10
0.000000
 20
-18.750000
 40
0.200000
  1
$PLWDWGiSAarFHVIPG2VmQ2/NWeNGcsdJjMjoRkAMMbUH4wg+OXCuq0psPg1vzN8RqOAO2L4HhdWgPUflYKWBF2uCxXfuDR6UnGfNW5r+YDivVixaNguTAN8x29I2b2ovRMuUIgxJwSmLa73/MGrGCmka9bUauye9pw4FIhoCCf184rXK8=
  7
TQS_CALIBRI
  0
TEXT
  8
0
  6
CONTINUOUS
 10
0.000000
 20
-19.000000
 40
0.200000
  1
$PLWDWGgvUPN9mHDU8I/d7LHfq5jfS+Kfd0kk9bfNxD6VB/2BlGwOv7F4Vzj9m6VWgSWY5iTArShSer8jcWnTyGkK2LXiQTvmMxpY/IFzn2/qjc8xR0c4lLsz4tahRwrhaPg3VajImroJwfaONplRKMV7qSqf5/3+CEhFIN32KfvxB1OtM=
  7
TQS_CALIBRI
  0
TEXT
  8
0
  6
CONTINUOUS
 10
0.000000
 20
-19.250000
 40
0.200000
  1
$PLWDWGdchBli58Ky4x47mRS6iDV6NKrt4ymofxDiF+giQ8jKQQcw6ijolN3apoGyDTjKbXJGmCp61J65rteQLU40hK3E1tX5qMsOWonKMfzFnOF0MQki5dfmjQ0h5pENSjYNhLVTLK9uUmGRgEAAeSCyQrAdxF7zs+6VNKWm8PvuPI7bQ=
  7
TQS_CALIBRI
  0
TEXT
  8
0
  6
CONTINUOUS
 10
0.000000
 20
-19.500000
 40
0.200000
  1
$PLWDWGcrzJVsKw9r0ZQMHUzvUbOMpLtDOOZ/d8osu/WFiPvIs1lzmn7FDTFfAs8CbgbuZ/DPx2r+ggQ1XgK0hyiS1IFuX7k4cvi+7TVNxW4C6j/HoGycHVF0Z67FCYmkLj1ZWurLFZdUG/nKQLdaQr3ZcpIi3BAlOPhPWHON0l4IEsr0s=
  7
TQS_CALIBRI
  0
TEXT
  8
0
  6
CONTINUOUS
 10
0.000000
 20
-19.750000
 40
0.200000
  1
$PLWDWGJMho9JRR+U0IubEdhqKQkkC0EjUW8jggtW4/1MCSZjBCVgTLwFSWOlzfQKLQE+V38daeU+AofbKExUVqWvEOC3u9XSqLSWlkhF3sJI69RDXOPH41Pya46hrl51NIPKiF7rIKF7mwA/HpmX7ddr4DzX57PxxkDn+akjeUrWHZZz4=
  7
TQS_CALIBRI
  0
TEXT
  8
0
  6
CONTINUOUS
 10
0.000000
 20
-20.000000
 40
0.200000
  1
$PLWDWGhuJ/lE0ieUO05m7GTSHU2Viu9YcEmS6uyTCcVsIOPHNnnIYpgssJCSVnpc37AR7vPoY0FqoIGwQFZQHws7AJLJqiTXW5K5fHqnbRi0k/pBFg0OhANRnYuTiBTmmoPb3mXUfpGxrs7cD60/71P/N3BoR/ZstIR8NmPe66eJJ4V/s=
  7
TQS_CALIBRI
  0
TEXT
  8
0
  6
CONTINUOUS
 10
0.000000
 20
-20.250000
 40
0.200000
  1
$PLWDWGLlnmhOTDBx34nbzqNaffOUuh6e0fIE2uMutsldCyNHYL5Y0cmOppnvTadvEahmUQtxJQxvnwMUr9T8ODSbeKeBf7aTU0yg4y3u8JQqI7IWrqxIMC+SvTozuTT7vwb4ZUucbzROh8zf95ChfhEOACpdo5DhyPyVdvgDDxs9uRx18=
  7
TQS_CALIBRI
  0
TEXT
  8
0
  6
CONTINUOUS
 10
0.000000
 20
-20.500000
 40
0.200000
  1
$PLWDWGJQgfVyDjf1pvwe6w6/QPeymTlvSljypQSEkwZOuIo+GRxXghysDH+SSBcb5lfmXd7aWC+DtxvzX5xmf312Y4PurlkA8kSsICHT2sojqT5iyybXMb3r5NQJSOYimV0tYWS8te8Hk7kZYed0/EZGbhHSTrN27D6TQpn0ABak1WDXs=
  7
TQS_CALIBRI
  0
TEXT
  8
0
  6
CONTINUOUS
 10
0.000000
 20
-20.750000
 40
0.200000
  1
$PLWDWGBNT85UuVucJOLVb1aKRacAooM4H6wXmBhFTw7g5aKE/1ElSGBt8DffFnsztwenEHTCwKpfUzg0ki4e7aUjr1o+hAy7LwJwJZ53zZPSjO5JZa/+OFCCQU7WhQU6iihZuVGCoIS9puon/DLt3Nyw65/ikQel9XiMW+8RFgYYjGpqE=
  7
TQS_CALIBRI
  0
TEXT
  8
0
  6
CONTINUOUS
 10
0.000000
 20
-21.000000
 40
0.200000
  1
$PLWDWGsqAWkkW5QCql3GboRbZ4CLUXy/7jS+eSsfSUMbW77DE52t02sXr6a2WLL3LMGXsi7wf0P9y2Q37i16VYh7C58p1trXEqBFm+PofGr5DAQ2CkeiZ6O5an754m4Hs0G7JtDAKNGuB6/QFktL2zaXRnx48EpzUibojN1H9Tt7a94qA=
  7
TQS_CALIBRI
  0
TEXT
  8
0
  6
CONTINUOUS
 10
0.000000
 20
-21.250000
 40
0.200000
  1
$PLWDWGaD0HybK4IgT4vggZ6xb2nuz8CBL7w9zKbFBmlOJsogmFgQf7WOMdGNUNYy8DiAYjL/lYK7HXgdh86rnTzKSUDfRl5iarpSnVrdwRM9pzYomnE8tHvFmcfzhOGZsiLi6UZIsfl1YhQhlrOcz23rTmW0nHASlkDIj7B22cMRVRE0Y=
  7
TQS_CALIBRI
  0
TEXT
  8
0
  6
CONTINUOUS
 10
0.000000
 20
-21.500000
 40
0.200000
  1
$PLWDWGwjiM3YwpS2+uJa9gpV7TIZ7iMbAgu2H8ngwIsJQPffnIDW5XvVmPEzdzZvk+JdquTLqqXh2qXWD91aH592wjhrRpbjwBZMX0oBEeDqMdPIS9VFfOMe7at2J8InvEqSTgk4iwunWqh/q/GtZfeS1GoGKe6VUpOeMgXPoDm2tN6uI=
  7
TQS_CALIBRI
  0
TEXT
  8
0
  6
CONTINUOUS
 10
0.000000
 20
-21.750000
 40
0.200000
  1
$PLWDWGiwDBgLLt6XETfOGtwQ5GyCo0j75h2PpFOzXo3SYfTJeOz2cmlTFpcFZqrt7Oeu7JxD9woK1j3GPTH0GULuEmMMOjQ3ecVqPae3bm+n/bpeP9cD1Cl3D57snZ01tpaLHzMWuy2ci2f+i3YQFHE+6CqiiLBLCrseb0RuWjx1JFq/g=
  7
TQS_CALIBRI
  0
TEXT
  8
0
  6
CONTINUOUS
 10
0.000000
 20
-22.000000
 40
0.200000
  1
$PLWDWGc+Biv6YuDmnWFnXCbD17NakrV71//YjnC7HtlZObFNZQTCi2YS+pqcaRnSLU5BQIB7ghW5MF81YVUsOd8YFhftw84SaLkwqvTJ0K/p/fr321MrNcTGO3BTIrAnFshnh+YYlP9Ohs21xLRqulTDsb52LGLwpzzTOi3Lq6JSUADC8=
  7
TQS_CALIBRI
  0
TEXT
  8
0
  6
CONTINUOUS
 10
0.000000
 20
-22.250000
 40
0.200000
  1
$PLWDWGPoRJGW0Cdgvv5SM/jKbozJsLt9/EtdqOF700/bZTc0agL5FV1bhGcYiwf8JqkJyi61UBtpDlGFlbiF3jGjFfx88j9hQZv9X65jt06kIHmql1fd8/8P+wZ7HNMianXCnxQ/gBodLaVPYMU0CBDOJ1RWs6NKibvg2PXvHuCljTTGA=
  7
TQS_CALIBRI
  0
TEXT
  8
0
  6
CONTINUOUS
 10
0.000000
 20
-22.500000
 40
0.200000
  1
$PLWDWGHfysu7AZw3I+Y+2ZaoObID9Or9aookkoOZ7K7NmOvTuaOJ8QUkuZO5LYZP2PKd7Fi0Fj1FCGOy3SXm7A+EL645Bly5XNMH1ZE0lJUGdO9OseXn69Z6ifUxko9gQOyB6hpyoefx1h2L1DGD5/WviJhd3aefzq8k+aPpSzibMZSUA=
  7
TQS_CALIBRI
  0
TEXT
  8
0
  6
CONTINUOUS
 10
0.000000
 20
-22.750000
 40
0.200000
  1
$PLWDWGtfjo9sL9V99p/FjqSb6O3pncIEE4QemTokcyRVnVOiKIwpt56QsmPvf76dQSUIsXIQ7BGLt+zD9pMe2o/AKoW24z9Q8SmRinLUJe0R1EKZypzFqiaims1IfaFsraV8GtkcF5Oj2ZSZF4sdngsjgQlCG6BLyHucE6ChQOqnE83Ug=
  7
TQS_CALIBRI
  0
TEXT
  8
0
  6
CONTINUOUS
 10
0.000000
 20
-23.000000
 40
0.200000
  1
$PLWDWGpFmRR56QZVsgwtWiqIJVoZaoFZF0Brm/2odgDleZVQVrz3Le4A0Op69D4zrz10oba59ceIGLCCheNbN4IWgBFI5oXieeXdlKg+nJHeATjfBmnoj6eMfTAOmh/R70mvV/9A4PVJGZg9dSzkDGzSZfZ90/2YDHjo3lCq64m1oRi5Y=
  7
TQS_CALIBRI
  0
TEXT
  8
0
  6
CONTINUOUS
 10
0.000000
 20
-23.250000
 40
0.200000
  1
$PLWDWGW1RsYa4UOlqjOk3gtmFwRrb6ptvhgWd4oiPe51q755uAOQMutzoBePFi0SvqLjbLveGd1gyCRmVM5EiRtzaW2k9FidJw6QZQUMwq7ZmYuDGdOA9Xdt0B9MRTKWROQ9qlomDzy0l/n3ZKl0tgHL2RhwkuWej+C/SKlXH/xfa+u54=
  7
TQS_CALIBRI
  0
TEXT
  8
0
  6
CONTINUOUS
 10
0.000000
 20
-23.500000
 40
0.200000
  1
$PLWDWGJFvnKKT669C/n1OX+mwDnjJhCMDFsOsGtrFIN/dwuBCAC/jvbb/9K7tPrXxCkMXjwMaJQWM/GfGnoQNwIqlEjuGGgnYUT+pfCgf7ovrO8yxcWKPIK0HhyC5peBqxdfBumKyinAiiYS4c5cuTEc2tNW3bBbl6quF4qRmmVIGIg2Y=
  7
TQS_CALIBRI
  0
TEXT
  8
0
  6
CONTINUOUS
 10
0.000000
 20
-23.750000
 40
0.200000
  1
$PLWDWGctEXxZYvWGGW/F2J1+E9ksdUAJVSZC7pCHIyJD2anfgbX+y8X+iJI3pxL3Ht9YzsgnICivnCyhxTKpSUSx4C34CYB9lmRIuFyJzfAtsA5fYhf1HmXxg1w2dWQl5VqYq+URP4BJ/CYiCmobj4KKQCpHe9schtVrctnCILAbynypM=
  7
TQS_CALIBRI
  0
TEXT
  8
0
  6
CONTINUOUS
 10
0.000000
 20
-24.000000
 40
0.200000
  1
$PLWDWGw136YG72b/x2SBPUqLwhIURk5S1DAgTOtxSmSMttNtZfwf8OH9WvMmbyyvtx7Pbg6Itn7o25uLCca+iC1TMEmTQLkeIoQ825RiaoGpLm3RyExIlfsSOGWvtU9z2+0FbBgqyb7FsoClF0iElIvHZ/GgEu5lAcfkP9UGkyJufMvAs=
  7
TQS_CALIBRI
  0
TEXT
  8
0
  6
CONTINUOUS
 10
0.000000
 20
-24.250000
 40
0.200000
  1
$PLWDWG+1cDxAQ4mg67UbcwYdrBW+oMWn28vTkTyuCaBvKgSSl7KvGCj+5z2BekQLtw5JQOWtB9erOr0n9sz8MwJTwqJ9poZXOUXAcCacIziZlAhUiK/o4JcI3g/lDPjglLUXjzOF4/buUVZ1vo9JkNt0AoLJy72tJ2IOaZZQ5/CNf2qXI=
  7
TQS_CALIBRI
  0
TEXT
  8
0
  6
CONTINUOUS
 10
0.000000
 20
-24.500000
 40
0.200000
  1
$PLWDWGihvqIpCPvWZl/YlHvMq2kfODIilKy04cKtdt1DwaEK2hBE4DQWiHkPQLf0EZOUCfbD8iWMzf/KM3JfiuD8Da4jSwM6xaadTfKOJlhwLToVj5cnwmjSomBJR2F+4j+yFYrFU9BP0qsEGe2hoTb94FbW7+Fl7F2+jvvck79RYCDw8=
  7
TQS_CALIBRI
  0
TEXT
  8
0
  6
CONTINUOUS
 10
0.000000
 20
-24.750000
 40
0.200000
  1
$PLWDWG84zTDWxvw7K82X4GQjJxCs4sHxy//XfHIBWpZbzyAv04w7PvEcEwQPaT4FonjN4EWmwzSu4pMUC1NImU8ti+DaxVbGHBF0pA3dM182od63hqjsioEVlOQPX3rU1iXQ011Gqe2s04TxvNVnj9lUus6KfAcdaqj7TqNCQ+mTkwSYk=
  7
TQS_CALIBRI
  0
TEXT
  8
0
  6
CONTINUOUS
 10
0.000000
 20
-25.000000
 40
0.200000
  1
$PLWDWGDN4xBI0qmWdlIOh6PhLErzquNEnU+mt3pVPpztneTaeW2rWcoInC+1k0bHrcLGAQj4bfaJmcWdJV/DC2uHPnUYxVpG+ZkrldHx30ZppeUBcC9eFwkvpIyH/TNgxDeHn/Jq0deWENiUULU2nHqAPXdrJAazO/CFTzISDefNB9hPI=
  7
TQS_CALIBRI
  0
TEXT
  8
0
  6
CONTINUOUS
 10
0.000000
 20
-25.250000
 40
0.200000
  1
$PLWDWG3+F2I/Z2TMgIZ/pd9vPFtXujFtfR1Thzrdvz/ckuRFhVfQWgzb2zZ6HEGMmRvioymttwHmIdqmGZe6qeKEAkeRP1JVUf7Iymph6rv9uiFDM8fybxC0Ed3k+NnowNkDvVfMeyMh/MHf4auahqbfihijtnIP+6IdL2wZ8apnKjK4E=
  7
TQS_CALIBRI
  0
TEXT
  8
0
  6
CONTINUOUS
 10
0.000000
 20
-25.500000
 40
0.200000
  1
$PLWDWGJQsHBoL/eYzrzM6weISm6CbfIEdaFCwuIYamCTDMksRJgwzo2Sa9bq6NPKmH9kOSwslW1rALqSPZS2bhWAwXwG2jVs1BGs8FLYWR0XJZkFrE5Gy+Rjnf+rukZ5DumOyAcX/swiIXqzGuCPcgWj9q2kPidHCf+9Fx6t2d5nz/E28=
  7
TQS_CALIBRI
  0
TEXT
  8
0
  6
CONTINUOUS
 10
0.000000
 20
-25.750000
 40
0.200000
  1
$PLWDWGsG/1vytDWzleN4RRdPbEEnYVtQlXn3UPbcFD+7UCOTxYbdWuUWpWj50R/d3sIxhB5tfuaH8HFldEYPRUZQifOFpiGLnBtdjHFviwzlPwm/F6d82voSZNnaG6GzWhTh5NOXY2fDOIvZ09LXOVMZ/H2lGNs9478j4BponvwntQvw8=
  7
TQS_CALIBRI
  0
TEXT
  8
0
  6
CONTINUOUS
 10
0.000000
 20
-26.000000
 40
0.200000
  1
$PLWDWGiOVGNWvDQoLYmDa7bbn0V/gtAsfCQ+SeVq5NPgGPdwQ1cl6qkFWxsS5lUoBrIvvnkYgfLtX/m99wxujfLjuroZK7GaJ3ITiDKsTps+Rf5hjMHr8wwTvMHHYBB4DzFvSrocKJBGnU+HCg8ML4gnFE20yhHFtmlcfhrK7yFwJhy1o=
  7
TQS_CALIBRI
  0
TEXT
  8
0
  6
CONTINUOUS
 10
0.000000
 20
-26.250000
 40
0.200000
  1
$PLWDWGyy5+vZFEg1k1e2eLyhi7HRZ1CQ+YLCtBEp5ZvTD1phnAYhVhXSbPkz3lkZf1oW9xIJY41Nz6FcEnuKCIQ6UU+f81NE6JnMZAqwI/3p6HbPTf0RKkM4MHUpFvv237Sc3nYevbZNXTWsJbHVzLwgkguk2wT99e/Me4S8LnGI1NImU=
  7
TQS_CALIBRI
  0
TEXT
  8
0
  6
CONTINUOUS
 10
0.000000
 20
-26.500000
 40
0.200000
  1
$PLWDWG1WSBIRPHENwXlqKq2BKGfqn+H63QOx7/dFvnfk53Ky8DI7fEZnRbkRW2OzFp/Qndc0IKRqTFIcfYwPLOfx6+oGwOlsS3l9xzkVpL2+y3WFgTmT5TVT46/BVor7j19xelDf8Yqi4N61KpJAohUabPofKPwUiNq7fLsBYBCplQWf0=
  7
TQS_CALIBRI
  0
TEXT
  8
0
  6
CONTINUOUS
 10
0.000000
 20
-26.750000
 40
0.200000
  1
$PLWDWGen2pLp27WaH3bKc0vaTBWN1epB8TVnGMfB5N+n/tcm0W9pNb3wBipZi7DfA0nWKqr/0LRG3Lub7KMWCWT7weIMtFHP+PJV0WE5epClhTfvtwWTBWOSGA7px8tn2/6MgAJCpCmcectURHw9FaVRq2VlTEtcaTaAS8IJz0+88eTUA=
  7
TQS_CALIBRI
  0
TEXT
  8
0
  6
CONTINUOUS
 10
0.000000
 20
-27.000000
 40
0.200000
  1
$PLWDWGo0ph/oDsSkjcIvqwoWA5QBZF8insyJEMk5VpII0Zv4TYbzv0q51DbTBBIdG2baec75FUgKu2qBVBmjARitIhDFbC7F1z3GYT5ZdM/ujtfZCIm2NMebS4ViQnUXfT0eAxwhic1DifuRbLi/p7g3cgYJaDMDfukYx/wcDfhTihWFA=
  7
TQS_CALIBRI
  0
TEXT
  8
0
  6
CONTINUOUS
 10
0.000000
 20
-27.250000
 40
0.200000
  1
$PLWDWGYa7DTu3ZwI5JM6dNo91xejAHvrRxwbsFRUipwn9Kq1t6zwrFK2Gr9BXVEKDWhZYrN+eJTtF2nSxooZaKL4oSp4qclMz7d11SvUa25iMtjdnkoSdnWBC6CF+0s11Cefj8LNB53NtxL8Frw0/dOk09Fn8sCw7gPGCKxgNKVsZqU9s=
  7
TQS_CALIBRI
  0
TEXT
  8
0
  6
CONTINUOUS
 10
0.000000
 20
-27.500000
 40
0.200000
  1
$PLWDWGsIgR7dXE+b/bcYaGfULTzQ1inx89s6lDdPHfepBLFdgQKTKl5VA/yup1Gac9wSaedX3xTNwEC1SznKDXscruHZUvDlpDBX7ejKLyeGLOWv0b7hCa5v73VTDP2jzuuuxCkvCLIWO+uV7DsadnWflgInUaXjALP2iu5FzXSAj4KQg=
  7
TQS_CALIBRI
  0
TEXT
  8
0
  6
CONTINUOUS
 10
0.000000
 20
-27.750000
 40
0.200000
  1
$PLWDWGBus5lotDuRU2c1jmY6wK5N/aM2tUSGFkqCyafkhIS8hyVSO0tRiFHAYTM3Fvz6RkT+/mGuPw65ptDPEi+sr0HuDRXrjfH+YTN6oaCmaUei/eiXaR2EqKY7AJK0WkV34XHWjKleXEv5Mg7TWsIpJznLIVld0YeLitWUPwPzJAq6A=
  7
TQS_CALIBRI
  0
TEXT
  8
0
  6
CONTINUOUS
 10
0.000000
 20
-28.000000
 40
0.200000
  1
$PLWDWG5WNEg7KcNURkiwydYlL5kLq07NC9w+fWNsbwV+TpDgLjPzdpwK5xN4IxTB88RHTVhXJQptVkjlBLLTMYV9/XL+cERJkEciCucHmjgQ5GF9QuYDSucGxCNdXubQSZUxN8bgHLpFhhQ2JNho6mDaJ65VQ5u3+cUVyDziRl0aZ/coM=
  7
TQS_CALIBRI
  0
TEXT
  8
0
  6
CONTINUOUS
 10
0.000000
 20
-28.250000
 40
0.200000
  1
$PLWDWGTi8jTpnncB02Ytn05DEOMrxrXX50xDhvn0YD8RAjW3bwxByIQ4l5xdxKmQ6+nbltBORy43hF5xmosf76GHF3F4sndxg8nhPcSMsKfWkmDoTsXnFCEVd+f+QaTEl9Q4MwyP143yAQZXhYx7XZ3q3T7DpfmxdF/HsuRFNhe49nABI=
  7
TQS_CALIBRI
  0
TEXT
  8
0
  6
CONTINUOUS
 10
0.000000
 20
-28.500000
 40
0.200000
  1
$PLWDWGENBFomVVO6pCnhNTXPg9TgQz6zESnDUQuha3W9JA3mFP5NGuTWheCuY0dYvPSuqs5dQf9VXDhZIBqRpDVSF67ALW4l4axRMcW7dhvpVgRRgfGy9ehR7sn01HcRg00cVGHZE3N7MuOaNq1IODMmROZBg7zj7nXEYtqmuy3zkqvng=
  7
TQS_CALIBRI
  0
TEXT
  8
0
  6
CONTINUOUS
 10
0.000000
 20
-28.750000
 40
0.200000
  1
$PLWDWGOm8fhKBN6yA5wZuZRDa99T1xaH9VdVR0p8ge+9N2N9NGbuT9rJe7Fx5lYUquNHYaskMRzChcDMnK0peezfbx3NUHErB5FCl6uliLfa4OvXdTrjH9LmqZ44zlR4Kyst+9rU4lrk9vDGoaBsiP5+OyNcalZxrFzeIZ3yu2zJjPlYA=
  7
TQS_CALIBRI
  0
TEXT
  8
0
  6
CONTINUOUS
 10
0.000000
 20
-29.000000
 40
0.200000
  1
$PLWDWGKVfFWcljl0wvWpBb2bUXouq18Y2hozDSX3qvDObNzIFeKrQoJuXgJkEXkwJp8xlkDCqywEeMTUCAh/p89R72SE8OCenouzpA1txgZYJaj5T3TLUagFTm3wE22k9d84SyX7Tbzdc8GjaUPXTB0PzRpktvXaHCM9uuTpBI1QX9wI0=
  7
TQS_CALIBRI
  0
TEXT
  8
0
  6
CONTINUOUS
 10
0.000000
 20
-29.250000
 40
0.200000
  1
$PLWDWGsF0giGSICYVqy1lKWAe/8mcCG/j0YZzn7qsZR4nhtSTt3tvnnhY0C/aNlEnpXhmLm+CTgrpRWjzcFARFTFVsXiXPcVX8p6SG6NUJ4VFUf9ODLle8bhqqQmKm3r3Lh67zX6WYfs2fDCgdD4UqloO+Cfs7halCDA/kq5JGCie9EIU=
  7
TQS_CALIBRI
  0
TEXT
  8
0
  6
CONTINUOUS
 10
0.000000
 20
-29.500000
 40
0.200000
  1
$PLWDWGYa5MqYXiuP5P8fPpuxqWTqAep2ct1ij35zhCSrtr1uQjv5omzGdSJ8lw9EefH7+wBCLFK4h3ussMDPJaXhFTyRArl7RnsVgdZflnVdjUlaXVB+PiM1tDFnmjN+htAy6MilAQHhfMXfm4LBVzZg/U2UdQiqAZGGLnHZ+EdjSJZsg=
  7
TQS_CALIBRI
  0
TEXT
  8
0
  6
CONTINUOUS
 10
0.000000
 20
-29.750000
 40
0.200000
  1
$PLWDWGFM5rzkcSRT3spS2pA6j+i5q8lNHWZrr5+Y/tg2Ijox2xAZdIqymoK6MRQr2zt8Tid255ngmg6gRGvibRfx4pJFr9BvEF7bCBRYgurqVjqM7m6zS45QsL5HfmaTET/sZ2eEpVQYBdKV+dDefFW26E/GwbYkZs0aLcUXIcvQrMU5I=
  7
TQS_CALIBRI
  0
TEXT
  8
0
  6
CONTINUOUS
 10
0.000000
 20
-30.000000
 40
0.200000
  1
$PLWDWGg8iZmOj2BKevaU8Bo3n3ihl/sjhk8ty047Ew7Kjy8N6z0J5DcItgZc6LI7F+arBS+Lf7nQ5NhplrjS6NfadVxY4tp8paYqPaW49aQxr9QASa2wbEKdAnER827SphvLc8KEV3nA5kmuO71gfO80mvVD8amc6RHbWehp4iJDmTPrE=
  7
TQS_CALIBRI
  0
TEXT
  8
0
  6
CONTINUOUS
 10
0.000000
 20
-30.250000
 40
0.200000
  1
$PLWDWGnuGPomhaLVBEGgJ7x6JqF/JwYWWqQPMuDsey+JTWYiNMIRTjZikelpEJDdZ32xNu9wt8VLemdWKqMmJQKDyShwQFvMZ9rD0gc/AZxd1j7nIppA1L8vA2Fq0JwTW1+cLOCo7vX4KcsC5g1KUtBp9CI2MoLYK+P/shSUH2CudkxG4=
  7
TQS_CALIBRI
  0
TEXT
  8
0
  6
CONTINUOUS
 10
0.000000
 20
-30.500000
 40
0.200000
  1
$PLWDWGg/MwTp5b/ZnhdMsZ+TB0ZWn8qJW9o8ar8VmQ8N4Zp6/ZpjaGJtWkEt7DbbM+LZs4r0ht/YUjgM/0/4wLU11X8mMnunRTvwkq8tHA9GL10cF7HVIWCm/KyJQolRt6dVUYLmHRwOSMI3lCuCS5R2qCFHHE6+NHIR/n+dTspFpyVYU=
  7
TQS_CALIBRI
  0
TEXT
  8
0
  6
CONTINUOUS
 10
0.000000
 20
-30.750000
 40
0.200000
  1
$PLWDWGtB30pALG8usxvuPWVu1Z3fNfKd6rp2ud9UWhjRhV7lw57tuCJazviazj3jvFvAPhoUyCyY1yfovg/zi9WOFmef7iWxl/K4wesHMirGr06gkq9CICC+ICkTF6y+4bJWfnhWOD1pimBi7sm8yeJMfBHlwout4D97E8VBdrGTNUDy0=
  7
TQS_CALIBRI
  0
TEXT
  8
0
  6
CONTINUOUS
 10
0.000000
 20
-31.000000
 40
0.200000
  1
$PLWDWGlAsmK6D+fb71pUXU2wCk70/Qb6no4+wsqPxMgrK4ggCeQfkCLslhLO/v+mb/t27Bb8gO1x1VJ1b8jtl8OXlwHzybcDEn18yh7vB6Gqn0KSYWJIRcOLd+h/g2AO3J7ZmGj28yCmIsDoN0H156OaBAQJIVb/psTbaUES5VCs5XvqA=
  7
TQS_CALIBRI
  0
TEXT
  8
0
  6
CONTINUOUS
 10
0.000000
 20
-31.250000
 40
0.200000
  1
$PLWDWG2Z82F60J+oUYxcFsgCEPaZ2lfWkbouCJBWJUC45wXqI+ZKOzYlwCrMfnhhJr7ce4FSd1nJ++CDb8jgsvjPllqYYR2WfKmCGxttNJN138urWDnACfDR05OKWxHnD47s4NaLkCiAglRAfoEvtgG7g91QLtiqrO3R+9VGilbYpyUWI=
  7
TQS_CALIBRI
  0
TEXT
  8
0
  6
CONTINUOUS
 10
0.000000
 20
-31.500000
 40
0.200000
  1
$PLWDWGUiCI/wtGp/faGY5kcJncQYQffNVRmiMS9SY4gXaA7krlQY0jsAlQcpbcVwyHEdFo3XxNMorrqhnp6L2Yk1TK9BfziWmG3wWrf2jAxiEoS67V6x21RyEv7WyruFjZoI/6vtriP83qUwfjcKRuUFQxoPkpTa4ve8qu/NjpdGW/1yk=
  7
TQS_CALIBRI
  0
TEXT
  8
0
  6
CONTINUOUS
 10
0.000000
 20
-31.750000
 40
0.200000
  1
$PLWDWG9TdPtvhf25DsrZg6Nd/yqM4oORvElWZScIoTUIT6IdwxMZ8XAOShSqCyK9tRMRpRVY4yYIf8pcmEFFDPur+p91aPcDju8oqPjlm7K6JTxwvYD9wnXQkzJwccLa7XqP5ZUXrFFvfN3VfRgTduuBlqDTMj4325gS6dxAluezbzA/U=
  7
TQS_CALIBRI
  0
TEXT
  8
0
  6
CONTINUOUS
 10
0.000000
 20
-32.000000
 40
0.200000
  1
$PLWDWGcssjje6XbaoCaHGCY64K6CGHqfmGrgFD9Ke76JfIbhGOR+SfJlZkNS7kgKMWPgo790d1TimSlF032bd5Jh0DE4H9oA3MUewK7SxkgulGuppYSi+aJCe8DZTr2eXw5PqldGXg/LviZ0/uB/cbVWsn/R5g0zo2ju3SM7bsGbe8qtE=
  7
TQS_CALIBRI
  0
TEXT
  8
0
  6
CONTINUOUS
 10
0.000000
 20
-32.250000
 40
0.200000
  1
$PLWDWGakqZtOP4xf7DW2+YBZu64uLaCQAA0cyKRzMR3l+5EW8f+5Fcu9R/c0D6o8SUhQ1dRJAXB15ZSI9gs0AULRGVUHZODC8goMA/OH9JUdw2w7lfY0/m+hQQKmeCrea5lptvIcvh+W+GDEsBALtoeyUcJrbpLeCKoqvQbNIJKX3iudg=
  7
TQS_CALIBRI
  0
TEXT
  8
0
  6
CONTINUOUS
 10
0.000000
 20
-32.500000
 40
0.200000
  1
$PLWDWG0VEKL7xoPWl31TuTEPXboACqdTFr0Cf/FcYEYE4rYduJZBF665UnCpHvQJr3gPIy9Pxgg1o2BTWmsio3Ovwohm6qQSaomEsyQ6HiMxJhRNHkWOIbDRnfLyOc4SuDnaNTvv3V7Vvt8Bh5y/v/R8C5OSE+Skxlqsy/PLBu8qjq490=
  7
TQS_CALIBRI
  0
TEXT
  8
0
  6
CONTINUOUS
 10
0.000000
 20
-32.750000
 40
0.200000
  1
$PLWDWGKSSgJrWTN9PRqVWD1q49vUofXMLvSjD3SknE/vSj97NkQNeoSkKlr2tc5zWsB6J9FpV8QICo8Kuq+NzB+SX/AcrjX3kEVU5/U/1fVvJGaeW6bgPXGcOVbfUltanJwplCUHmqj6fEBGl0m9XDXReTQ1+GSQ7QfVIyRVkXhLfS0Kc=
  7
TQS_CALIBRI
  0
TEXT
  8
0
  6
CONTINUOUS
 10
0.000000
 20
-33.000000
 40
0.200000
  1
$PLWDWGv2m2r2R3LqY569cMhzL9cqM1Lp/s8IvI1I7trow09iBXDiG1ZQK9K88JJRF0R/O5WIRNd5xQTTlQubPyzxqRopNPoEwJ5FTfqjOiDfeRQhIgJNP0/G65eslDYy8q8A8gkfq2x6yUqo3YEh4tX4FY0sz3nRJ/ZByomgsYFUVid+A=
  7
TQS_CALIBRI
  0
TEXT
  8
0
  6
CONTINUOUS
 10
0.000000
 20
-33.250000
 40
0.200000
  1
$PLWDWG4zc4GlrUWWNWwzKI7jC5J3bdiQeoXGNBbR1bVXmh8EDkGczcA5GIVfRilPO58fP4rb3HEJucqTheLoGRCRe4ntV8jUETAm09x0mtKPvGkajpQCzhd03Vgdi6NfNpvlcTggoyK2FzEfmwZ6fDp+iuHKuS1435KcnOHFBxdDe8vag=
  7
TQS_CALIBRI
  0
TEXT
  8
0
  6
CONTINUOUS
 10
0.000000
 20
-33.500000
 40
0.200000
  1
$PLWDWGevb5j0pfRkFmzLlGBOKrWN18aEGg2/pHBMKLTtLKoZhkb5H7UDMGCLTZ0ggksQpfw0LKEZwhRmkkNvD7Ouz2hHXD2VQqM1CSUv2rs7E258PgbQVoGGbWW8qMBsyVCgnkVVQzwdWhBo1UxWF62UdYdMm+HRNGHCp3pnGAynA5j5Q=
  7
TQS_CALIBRI
  0
TEXT
  8
0
  6
CONTINUOUS
 10
0.000000
 20
-33.750000
 40
0.200000
  1
$PLWDWGP57uwc4wJImssvFpf5H9aNp9fXhqr6n7AbP8rUbycqiHvf0DsQOT7APq39EnPt9z13lgxZpPGHlaHg7dJhhgARhsKt9JiDnultOijOFAP8YMrCvPG9z3CrrrUNQKuYue2YeoR4uFs7STklBEC9R0wWgFId3XMKGSBqIzh8fDRqA=
  7
TQS_CALIBRI
  0
TEXT
  8
0
  6
CONTINUOUS
 10
0.000000
 20
-34.000000
 40
0.200000
  1
$PLWDWGYZGPlCsp1mqK3QpZQPD9qOEzfY7Eg7i0Ji0NLkIXvY/KtFK87Ie1bcj2GTRIDiD3N57b6s3j7pwOLFI+z4jBLfGB5ztw6edMl1dcSjl+SehI02UyG60p4eu/N8UTHJSC83ZE4/f0g0dyy9VbxhcsvvyKmuV/pakHT9IAq9e/CDs=
  7
TQS_CALIBRI
  0
TEXT
  8
0
  6
CONTINUOUS
 10
0.000000
 20
-34.250000
 40
0.200000
  1
$PLWDWGST437B7SnYjXustEOzX5rlV0Er0EWlWtYWUyypuSvDL1PONfHAN19lDcbqTiLMjb879UKe6uxeO8UIQbaQNWWftRPgVKQxsBeaSZAJ6FeVnqXamSVUFDhXAhci6lpFAgqFA9y1OhrU9Cek3v3gOBiceOj94cX8LYdBWc7AuR+bE=
  7
TQS_CALIBRI
  0
TEXT
  8
0
  6
CONTINUOUS
 10
0.000000
 20
-34.500000
 40
0.200000
  1
$PLWDWGjGqOzrBdXbVwQmm8bFVOws8viwVrI3arIHnwHJtoSmT/CYtAplyd4ZAs9mwmjF9l2LYOZJH7BoSiycNBdDJ+mOpy/M42TgUGmbKjWFfyo055gppKxLDC505DZQaMZMQ8jqB2w0tGuLmAslW7TC9CJvaSfJsnnBp62fCMzUAPjDU=
  7
TQS_CALIBRI
  0
TEXT
  8
0
  6
CONTINUOUS
 10
0.000000
 20
-34.750000
 40
0.200000
  1
$PLWDWG6utQ2Ur7M4R+gLVyVY9omGfU+W3zw6iKOnqUhi1kqAYNK0R8DUXCa8sxvja3drZEqZsRGcs08qSt0wUW3YqM35TTJP+w8NIfjy5bw/rJE94Om+ujvfvHumiJoyismlaUDgHshszx5SetibVwv9iy3c4Y77vJ0+h5LlKKmf9cOx0=
  7
TQS_CALIBRI
  0
TEXT
  8
0
  6
CONTINUOUS
 10
0.000000
 20
-35.000000
 40
0.200000
  1
$PLWDWGjL360YTXHHo9bEgRqL9fs3gAvmrkwgAPdeZDzg3MIC3kyUiILHLxCmzw06Z9GOSkbXm/+I1TpruqPh46ShS19f8YHtFd5OclvTQDvGiimaJVldr3Y6rTfJoeRQUnYXNeKaX3T3ISR65pYHCA+Fr9vMJm63/Som5DOq/SwiYlisM=
  7
TQS_CALIBRI
  0
TEXT
  8
0
  6
CONTINUOUS
 10
0.000000
 20
-35.250000
 40
0.200000
  1
$PLWDWGyIaM6yfuuz2/YuqgbR02t1gqsa/fEYl8/40Xn0MITwzQnaz3lj38tUS0gFkHkkg3Hh5AlN93/s+6OjLEZlB0iCukTnGrOUoFL8DMmWN3T+e1QaLhtsm1L34hxulQfu5Z7+2M2a/fh3tkPPdBw7df3tL6lelHFYUxb8qL0vPTatM=
  7
TQS_CALIBRI
  0
TEXT
  8
0
  6
CONTINUOUS
 10
0.000000
 20
-35.500000
 40
0.200000
  1
$PLWDWGJY9CxkyipYJi+DspL5j9RolNcYAYxs11Dscip+VWBBHTzAvKqyla62a8yan5R6HxRiSBDXOTX+5SfhB2Nq2yHGIcHLDcUczK3T68rWYv+Z42XAA9RfXG7FgolIS6l6PwwGy5E8gZpzVKS5WwS9v2c38bd32RNHwWWwCpJg2wngI=
  7
TQS_CALIBRI
  0
TEXT
  8
0
  6
CONTINUOUS
 10
0.000000
 20
-35.750000
 40
0.200000
  1
$PLWDWG1ONJLkHIIgxgLV/QXLJvuKjBtpIc4j2WiISWjmwabMj1vcZogYWolBDJxS4op6nc7TL1vEQLynHqEuG0z9U6wNlMobFCZJdgDPo1p7O/UsD7aWpuHDhvrLlFnCp3hEFql3Km1RoqjOLFly6bGVjYx+BHBN7KWm/O1FDfmECFWqM=
  7
TQS_CALIBRI
  0
TEXT
  8
0
  6
CONTINUOUS
 10
0.000000
 20
-36.000000
 40
0.200000
  1
$PLWDWGvPqAVxHN5NsrWZSOJoNyugB5V0aOcTsk59iiANbQa4UPzCuxHtjRPDiYjxYDpWEI9M1EJcZi9yMj//9uS06olXodeEE7bpULkuQ1wP5yHtHlJuoL3xGB1hDRyYGvdR7j0Cu9H3ZE7DrTUtD0CkvsAkq8dkZgV2npBNwL8ltyz6c=
  7
TQS_CALIBRI
  0
TEXT
  8
0
  6
CONTINUOUS
 10
0.000000
 20
-36.250000
 40
0.200000
  1
$PLWDWGFKvC4JoAQjvhWWS+fwtXE9vzvqxpEmltqteOLnM4CCqADl8/S+VcJ9TBT8B4x44ebQk7e0/a8HoU4e9yQws5LOPW+Gv/TfN9y4NsCYZ7R3y9QKZwNCuRQ3ewN8eUT/i99IlnCVtkDzBp4v3Vxk+cvR9uRli0wokcssxx3g9Mf00=
  7
TQS_CALIBRI
  0
TEXT
  8
0
  6
CONTINUOUS
 10
0.000000
 20
-36.500000
 40
0.200000
  1
$PLWDWGuTwPbtBqYmGkQoaj4wHFXJEvihWDHX4oEGMeXNyParnA7LtCnM9pjaJACoUUtyo0LMTN71fe2q9bOPuftu2UT1EgvHvO/bColOeWrpCiKwArHICwHt2bmWQHIzveNAuWkaSY/jawYyXq7AgQXdBwoQelpE54dtwofebZwVqVVWg=
  7
TQS_CALIBRI
  0
TEXT
  8
0
  6
CONTINUOUS
 10
0.000000
 20
-36.750000
 40
0.200000
  1
$PLWDWGHyrs2JNAqf4oZrLldbReM7sVhdm2AO6RZ3197yK12+KRPwF8qiob3olIBMSgOAHBe4IAbnJRBCjFsrxTJVqEAJ22lXED7ygMhvNSef+Mgp9yQX2odBIvp17MP2eSXtagdeE3dYEejdjETvvMduoOBFgdiueGqRtXz3XjjDjOuHw=
  7
TQS_CALIBRI
  0
TEXT
  8
0
  6
CONTINUOUS
 10
0.000000
 20
-37.000000
 40
0.200000
  1
$PLWDWGxQDhht7M8K53YjaVEqT5JL2TXvHFJ9v6oMuoR8J9u55ytlUkoxN9Z+dOOkHfZyH8Nhl38p7jsMlnvfLHDEj3CPJ+3tFgFJoSooPDr/OCJvnZgjzpEqxEpnJ6WkWQXIZ7iU6GuMI1b3wyCYzBsXYMcm0lREp5a7UThg11CQURHNc=
  7
TQS_CALIBRI
  0
TEXT
  8
0
  6
CONTINUOUS
 10
0.000000
 20
-37.250000
 40
0.200000
  1
$PLWDWGKWj09/sd4xTcgveUsQee4lgX6H5tGTIf71faXtgbrxT8NQFBA4Kt47JQBtkVjdrZ7sZ6Z+tIrVUjM18mrtxfwrRdRtbbM99uvHmjMYAWiV3Kj3J+6HqYSMixGqt4ThKy65VKWXSvGDMhrtGePPUtmYb7U2SgLHpDThCbOAUejTg=
  7
TQS_CALIBRI
  0
TEXT
  8
0
  6
CONTINUOUS
 10
0.000000
 20
-37.500000
 40
0.200000
  1
$PLWDWGNyprKb4bOZk/lCQ/Hq+bRw9KY79MuaxuowtFc55B0qh7FmbS7Ewqp7f5h+BwFpiJ60iUhFYccOdHyuQASSqequSLvtfPxFi1oAlnbG8Drg9KeeE+qq1q8wcu7Zt8xKb6c5UcQInYwkrz32xb50WdwdKu3wnUNg9JDJEpvy9ecu4=
  7
TQS_CALIBRI
  0
TEXT
  8
0
  6
CONTINUOUS
 10
0.000000
 20
-37.750000
 40
0.200000
  1
$PLWDWG8Jpbp+xKhcFApB0mM0TXIVoWqfJi/963WHzDTLxKDgzqFtqhezsfApoDPxv9hi+mSALAQW7p4hoNoSGil+XKsgKN60j/vWoDFF5COZTQSKX0iz0mHMh0icnsWVXvrAewKJd1JDQTQBwCN/sYAsk1SldjAZSu2VWECcKNY8dw02o=
  7
TQS_CALIBRI
  0
TEXT
  8
0
  6
CONTINUOUS
 10
0.000000
 20
-38.000000
 40
0.200000
  1
$PLWDWGWIDuPVKqEQGcWlZ4CZDpHr1Mwcap0t979/awAPLctEzeMsciH5UF09uPxfyJyR0DTBDqZFAEJwXHROiwsxP5OFkxLoqlp/gqZhG1R367R3yyV5pjiTkB3exxKqb6VlIM1MND/DJekh2FwTkpPgOkbDCaeBpI4A/ViRQ24e2Ymd0=
  7
TQS_CALIBRI
  0
TEXT
  8
0
  6
CONTINUOUS
 10
0.000000
 20
-38.250000
 40
0.200000
  1
$PLWDWGHkrKGcGgYlB6poVHBNX9vbnBfHEPURW2qGOGHYQL5tlu3gWWW41efbYbg4bx6/leoYKFuel0zN9nfuKRrCKDsKfjMi0tTdnqXiEA+aZ9tASvLK+7ROhgDPJDjbwL+kXSa+AdhgRFdxri//HPyBSr7Z9pr0oxksufUHUYDPW29KY=
  7
TQS_CALIBRI
  0
TEXT
  8
0
  6
CONTINUOUS
 10
0.000000
 20
-38.500000
 40
0.200000
  1
$PLWDWG+wz75QI1NC7EnbYupF7L+3GbhqUVRuRqX2aeYwNu9yMSo0hdNVSUtopPZ3s9Z3N3Ua86MtWoOTPtF08U45/x9zZ6ojHWOKgZwFx7mOXCZrM6DRhbCq5M149LoAyP7iSrVG3LRJLRLRDfjy8Zfjf6qlosc0wrr16Uh5XOwBSFB00=
  7
TQS_CALIBRI
  0
TEXT
  8
0
  6
CONTINUOUS
 10
0.000000
 20
-38.750000
 40
0.200000
  1
$PLWDWG1cfAraHyw7O9LHxLRZXZ58eGPOVxernFJKNsD29IhZzsDns1y01yOTlVDGG1/q+i6Bkq8O0rtdtLn9hWsoLwmHwUrYR01XN2RE1YeNzMQtyVdV6vjumKlvAD5ncyKn42uRIe1Y6GZjc2jQdCDhb6xcfVPz0cTjTGsH5zptBOuF8=
  7
TQS_CALIBRI
  0
TEXT
  8
0
  6
CONTINUOUS
 10
0.000000
 20
-39.000000
 40
0.200000
  1
$PLWDWGtOmx5HbgMgCcy+J3XJpeqNVvtcycxuUIeIQLIk3Lf+SHhv3ILjlpwtJdkSeq8WMwLTLqxNeOPRq9j54iC8FU5RDWgBDukc8388ifpP7k3JT8PSkCR8Zna+d7a3Mc+Mg8XsfnAcV6OgXtkxUbScg978jy/46xh/Nck8+Dxq2ZBYs=
  7
TQS_CALIBRI
  0
TEXT
  8
0
  6
CONTINUOUS
 10
0.000000
 20
-39.250000
 40
0.200000
  1
$PLWDWGqJm3Eiihu57hL3QY0esrH+lsdUl/5fmEeQoZ5uhoGohi2GM4giBg4I3w5XpvpBLhjKk5MxGbItZfA3tUT0ystQg5wwfz2mbcWWkGA/tTN8s08taSie/alqCv5PtOdkVAJ7+WelAYe1/IwpkTHjQFloJn5tfY+Rqd6Oyec+HXXBA=
  7
TQS_CALIBRI
  0
TEXT
  8
0
  6
CONTINUOUS
 10
0.000000
 20
-39.500000
 40
0.200000
  1
$PLWDWGKMHB/4LewmWLvxN0KM4atlwRZdVOUoJaTMXKhH0R851R30QR3TYYjqXk2Ad34MdQ5vGf17zuJELvdylpBq1+Uj23qQTviiSERzotaqItSNmYVwHep9R9HOXoIFjmBFRnr856cUH2aekPvhZoPiLTIbrQcdKnH1tZ8ov5jSgJaHw=
  7
TQS_CALIBRI
  0
TEXT
  8
0
  6
CONTINUOUS
 10
0.000000
 20
-39.750000
 40
0.200000
  1
$PLWDWGOCXTJhZLoemTFHA723EB1pH/oc+hkRIaHhsZN6pB5I0ngVEG1Sn3BwBRvbPVHwpr9JPWqxPgsQBoRr+KAJsDw6UMQs63m1oQ0rJBmeV1EVvdwFwsc20qD8TS3ZxIg40ba1KHnHwfuPbvRzuLm0SwPu4BAoJ0RlsOavkZAkk3IzE=
  7
TQS_CALIBRI
  0
TEXT
  8
0
  6
CONTINUOUS
 10
0.000000
 20
-40.000000
 40
0.200000
  1
$PLWDWGsnzyZD3dDrCmRYKSCU55gkhAG53C+7CzPXCRVy/gIQhYETpB8eGwQh9ifns2+FOKZDIhwDzXE0AMXbeY/YdjOoJWHC6HgG8uWeBh0twB8a/oVx+nbhkiQjda21IDUOH/nwRbl/e0ZqJ/PhbpYZ/9LbAAFhEAx0XftqOoilq/WvY=
  7
TQS_CALIBRI
  0
TEXT
  8
0
  6
CONTINUOUS
 10
0.000000
 20
-40.250000
 40
0.200000
  1
$PLWDWGnK25Sl0bG+7drMCSHT89M9WlNKqKMZumzbttFfGv4QW4eJ51dws35h7B41XHX8cOIbUp3J2Hg/PDNb7p7cKcZvQtEk8+renkaQNjkx4n6DuMtkvX3U2lkKwGNqw/VOS4PjTO85bJ8g3C+69OHT26qlG+a9jftzs8uK93h/vQ/H8=
  7
TQS_CALIBRI
  0
TEXT
  8
0
  6
CONTINUOUS
 10
0.000000
 20
-40.500000
 40
0.200000
  1
$PLWDWGNi7BzxTU6h4IQLXzlIuym4N6q1R9sXFTRq7G2uDu85TGf1s2Tnr9bKBNg8bGeloN9wuEX83RfCYApVycAvN+ViT8Fqq2D4h3qjZ0eysLzmRsXKuKi/boCXBhWRWbdH+gQIw7Nn4NGXpSMIZqK6UDFJVmOWIByUXRq6gDhc7uTfA=
  7
TQS_CALIBRI
  0
TEXT
  8
0
  6
CONTINUOUS
 10
0.000000
 20
-40.750000
 40
0.200000
  1
$PLWDWGDlD39/M4vWEemRYGZbAe+vcSSSTxL02dgO98vvqbuzf4v+x2o39BDySlRVlaa7q2Q24voGMHS4zSFNn47l23FgNg2YzdCCYD0QOhh81fdfXt+Z6p0++m6M0CZWl1dNkdMcBYR6Bacoh0uJGWoGlWwlL1B9GknNS9fFzG+3g6WB8=
  7
TQS_CALIBRI
  0
TEXT
  8
0
  6
CONTINUOUS
 10
0.000000
 20
-41.000000
 40
0.200000
  1
$PLWDWGzbLmCeRQ3tcoGXfI3rekOt59D1p/LW6q4RJcpgpiW7IDlGLJgTjTNCSb3Ua27XdX+rP0FEbSe87IW7YZow1bk58Twb1XOkF8rKqH+Fz2zLNgEuvvxKF+5c0DAGeFIadJmi189aD1DwJe3h8If8v4L8RJuArX3MkN2rk3sEg+w+w=
  7
TQS_CALIBRI
  0
TEXT
  8
0
  6
CONTINUOUS
 10
0.000000
 20
-41.250000
 40
0.200000
  1
$PLWDWG9ayxpRsw5hTbflqsXYb2IeLUW7ld+mr4uOqzfK6atTR1vBsYaBhaVruxrcutMSZaN1aczU72Rf5qv6mw+E+pE9JoUEzpuzGW2ahih3UBsS9myL1+yaNNohnv/herCr6pdfmD7g4Hfjdlwp/hZsuqyTXeiypNshlQrKca5j36bEI=
  7
TQS_CALIBRI
  0
TEXT
  8
0
  6
CONTINUOUS
 10
0.000000
 20
-41.500000
 40
0.200000
  1
$PLWDWG0OIR3XThQUDaWmj0Euch6XlZiPAHiOz5vsR5Y3I/HA1N31OshMMOl4ePbSvlnEQncugjeGHH+VRtAx9S3Ajw38+DGfbildFOc8s71lblEOB5P0BmM2Jsk1sCsD7ZSAGksAhdJpREj4NMPGClwAdFILwpt5G2pELIrucjbdaqnKI=
  7
TQS_CALIBRI
  0
TEXT
  8
0
  6
CONTINUOUS
 10
0.000000
 20
-41.750000
 40
0.200000
  1
$PLWDWG6I/kmwSX0rn3gOjBszWOmuokrbsFycyV8zvwT6/fB7QyzeFjVCA/vhZfji6wi6/uz8CkoQT9wlf49VMqUfz3xXiYGViJ+nh8fTTHv48XGr1D2nsugYumiY/zas5t0UfGIyN5sDBxRtdQWm++UlsrsVgTsW+8+C+7pkJW7+sK7YI=
  7
TQS_CALIBRI
  0
TEXT
  8
0
  6
CONTINUOUS
 10
0.000000
 20
-42.000000
 40
0.200000
  1
$PLWDWGUUTrbx1VXmsO+M9spuVItCjid8hzgDrF7jxFTTvCuW+OjHwN1C8nymhSl/HgR2T9/OCbo7Tnja3RN3wNBgzCbhx+FyBpqjTy6yEgSHLwkQa5t59FYelSTg3cBHat4suGD6Vu7izpA8QQ4Dmw2SIzIkRyczjSM9q8fMinev3G0yY=
  7
TQS_CALIBRI
  0
TEXT
  8
0
  6
CONTINUOUS
 10
0.000000
 20
-42.250000
 40
0.200000
  1
$PLWDWG+HEnhdb+VW9ZIiUXgQnjsVp1okSNd9vUxNItFtIr99aShKlnOxHy3kmlhiZC1a0JBiHAj806YG4AnRy1Y3+Da3rtdLk+rRCteoKKwjbmhWseywSFCAN13/Ok28F8ci0nVkBG07uqxPbIQjI94z+bH7UfdST+bxHpt52S7fmFMXQ=
  7
TQS_CALIBRI
  0
TEXT
  8
0
  6
CONTINUOUS
 10
0.000000
 20
-42.500000
 40
0.200000
  1
$PLWDWGe7shz/9IwCJ64fxU020b+We0ucJwXDatf7WVHjKGfNgVWnw6iuPLWg3YAIfTL5g7YnMAPqiIF8cHIbo3ajKm8xRqmZT2V/z2V91oWQQQ+uABJLd2Q4ROMy3oZZPPt0aCPSwz7hiBqim7NmD0DLzsUsRdMI4esdzYXr5hJF1ysJo=
  7
TQS_CALIBRI
  0
TEXT
  8
0
  6
CONTINUOUS
 10
0.000000
 20
-42.750000
 40
0.200000
  1
$PLWDWGIwUvE7q0sqRXIOTC6bNci0uREQyBsVEynYUPvmeJ3+QWtSCUVGs9rBHz/xSNt6HLi4C8cIJKlAp5LtNPiJl7MN0TrX/fFnf5MIQWI+m9yLrGbtQZw2Q6htldxNzC8JnfOysEw2/Gf3TaMZSM0vOKR3Lv7RMmp3ydM/7bf0DrzMc=
  7
TQS_CALIBRI
  0
TEXT
  8
0
  6
CONTINUOUS
 10
0.000000
 20
-43.000000
 40
0.200000
  1
$PLWDWGMXRDGYa9q2TKG6HpSyjtwyLQZZKFKKarQC7+vKv/mzu1hL0+Qbx00dVdy3bHXKWdkM2cxbg7shBoWSiF7eMXd33Foea0mI99b2WK2VzpCjdCqZHGO7emLfrDDjvPjMpd+lTk11MoCuolhjqhZpEfZnDtryipINuE1ZDH+rAhZG8=
  7
TQS_CALIBRI
  0
TEXT
  8
0
  6
CONTINUOUS
 10
0.000000
 20
-43.250000
 40
0.200000
  1
$PLWDWGVh1siRdKcQeOrowOYkDvU9DPGGZgQPCsUb4u6cK0lJEksiZpOqDlrCAzWnDrhaQbLsMHcypu9p2f8xYU9H20ms3MBqkutQy9wwzOjztkaM7GKGl8M0GXdPLlMS0+SL2DHwykbZGCY0IVlUgNoJ855Xb8pvUGapz7SEY0aCAXkMc=
  7
TQS_CALIBRI
  0
TEXT
  8
0
  6
CONTINUOUS
 10
0.000000
 20
-43.500000
 40
0.200000
  1
$PLWDWG+pcoIFgbVqHG1opFMPjhwXV5Y7NXJK7VtyYNd3rDfNlCSQoJEZcRaop7cxi8hEZAmq+OP7mlsEJtl8z/KPNgTIjyJuuZ6ZT9UI0zdls3qmoHWd7imc4UOO1KIrP1wCKwQbay1cGSIj9XT0+MUIWvPAohMouTIfGvrhBI3feN+Wc=
  7
TQS_CALIBRI
  0
TEXT
  8
0
  6
CONTINUOUS
 10
0.000000
 20
-43.750000
 40
0.200000
  1
$PLWDWG2+KcD2rt9KZmRm5OGqmkBVBWOHFzIrgMKwXschv40k6HVi6kgVbxoqPK759tuYhzzrY9psHJoqCagFM0DGwZSM/5HOo34LlYhzbvqdUXxPJYyF2aYhWjXU+6D1WWgdbP/njDOzVyBOz9tChxZ8WkizhKTAx5ws1LoBODlZf2DUE=
  7
TQS_CALIBRI
  0
TEXT
  8
0
  6
CONTINUOUS
 10
0.000000
 20
-44.000000
 40
0.200000
  1
$PLWDWGkhAonWI8+0XCNQkUl2jcbyUg+a4YOvyEjC2QioWHlzs5M8n3cC5L4Tj5EowdiqbUrFFX5nZXb4ZalYSrJFMNEYf5r5q9N3ZYC1/2ss5FOW+m8rl19FRFenHAzZvAJh/p0LoJ7hUV2VZjKZIpMKHMB1GMYv0inz/oF41FdAROQXM=
  7
TQS_CALIBRI
  0
TEXT
  8
0
  6
CONTINUOUS
 10
0.000000
 20
-44.250000
 40
0.200000
  1
$PLWDWGTc+nJ2+BQGrOSYMR+92CGZEr2dV87zBRAIErG5G16D2qLEy3/tftl5tT6DR+4KxeaKUoAQHl28Q/lan0kkUidWeOZkrSv4cw6qDaHPoSsbq2seL2EAd7rSWk1RDymi2jkB5/N8mcwy4svOYqn1ZpElUB/JFaGvO3U5lPU9sZOJI=
  7
TQS_CALIBRI
  0
TEXT
  8
0
  6
CONTINUOUS
 10
0.000000
 20
-44.500000
 40
0.200000
  1
$PLWDWG4SVRopTQmtO6Scvz6sdtxC+rxn60PzXla/XekAIsJ9IHLTtb34v4tPt+iL5ttjkYtGlpRvW3JwuZIwJupeyOfshN0GQABCf0VHEF2VHxzs3MRSRg38TdTrNH91VPGUz65ucK7CHHZGyLxJt44pQQXfHKS3aTEXc3dD9OtmWiaL0=
  7
TQS_CALIBRI
  0
TEXT
  8
0
  6
CONTINUOUS
 10
0.000000
 20
-44.750000
 40
0.200000
  1
$PLWDWGgbuABpOxwUJIW5oUFto3K5JTK3Cy7hzvTSghMzaokDO3rsr5otWlKL2hV5s6DU9Osna4g2052YZDc5yTDRcYaCFAW2TZc09y+ougG3Ij7Zbz0Vua7HfdkaYvk75GYmZTquR10fSCe5Xyk8186YD+nrUlQ6fX4Z5vZi5lodyndlI=
  7
TQS_CALIBRI
  0
TEXT
  8
0
  6
CONTINUOUS
 10
0.000000
 20
-45.000000
 40
0.200000
  1
$PLWDWGu0MoGV8V4MS0SChCZNkkvLZE9fe0aWZJ9YqPFvOnElvQVQAdlmbZc3Rjq1AQWji+M+/+WpJkkuPoxUMzYq7glWNHqADg7W+CJuOyOBWKGIo09362edk0wMGs8uQG0S8IH/xirQvVDXzrY1YUkBit/Kf7ufGG5/10nXA6xkxC6o0=
  7
TQS_CALIBRI
  0
TEXT
  8
0
  6
CONTINUOUS
 10
0.000000
 20
-45.250000
 40
0.200000
  1
$PLWDWGQMmRlmidvi5FYvzdDwRPxN2dtc+yrKoVhRxnmy9MgvCU1qNWWrdLXXy59gJE16mQ7jfW3JK6L7lnoVkOaeFD/EbE84nx7zLidpGJWs66a/eZQW3lgJ/P18rpAOqskA1PXheexr5opQQYq+ecIIm9z41UF1wP/Q20pgYIIKE0L3I=
  7
TQS_CALIBRI
  0
TEXT
  8
0
  6
CONTINUOUS
 10
0.000000
 20
-45.500000
 40
0.200000
  1
$PLWDWGx0+ptWntm2qrAHqMMmD+tJ7W+bCmpd2LinbNjaujLneanlslOoPS5/EoFes0rwlMm9YalftEub/m/NiGB/b5dd6TeJ7rUxbYZgJBreJwsXhyligZFHpFQBlVNF90IE3kSnylWxrwREAE2XqW/rzdqcy59uQMS0NAo9lO2014HtY=
  7
TQS_CALIBRI
  0
TEXT
  8
0
  6
CONTINUOUS
 10
0.000000
 20
-45.750000
 40
0.200000
  1
$PLWDWGztfE4Gj8QkA5YEZo5Mpw2xdV6OE8w8wZAMzm/4Ft+wsz7iaXKkDD3M0hm+p0xcW+fuyv0QQ3yPy6Xu3q9BLyK53OmKebQqrRVgNaC2d7E6WMVraWUaF2WaIXCL9EdUUjo95HBOp+kpmPaJzUFMAI48apKBfJdkhW4r+HWKoJvV8=
  7
TQS_CALIBRI
  0
TEXT
  8
0
  6
CONTINUOUS
 10
0.000000
 20
-46.000000
 40
0.200000
  1
$PLWDWGPkV0ILpR76PbR6QAhYv2wHzs/CiU/A3Fp+cugBdP1dOX8PnmwWwfPyo78iQuFRCGkaHmdJdicL+CNhe0M5+5unEespQseLm0H6+ZLo3VpqLJ8HgKHi3/I7qu+oIV+zTTJxd8OYcUW7IPvOd2iae/UTXRco/DcvUzHnKtnGAYtAY=
  7
TQS_CALIBRI
  0
TEXT
  8
0
  6
CONTINUOUS
 10
0.000000
 20
-46.250000
 40
0.200000
  1
$PLWDWGKKJtbJhzPlix5H32acwnSTIRs/zTFOvzE2o0fxCTnXzjqPEQfFMT7g2HBcSpRqFbrldY4M143JnM7Zm0B9zHpko7pukA63La4Avx8kNTolYhK3FosBZEYjFAhXOb0IxK1kHoDMYsoDu7aAKmXrehOe5YRofV8IdBifiCucyBekA=
  7
TQS_CALIBRI
  0
TEXT
  8
0
  6
CONTINUOUS
 10
0.000000
 20
-46.500000
 40
0.200000
  1
$PLWDWG2hxIZBZTa1cSey0hgP5eHIPcZDPYTHvoYvgk9Ylq0cSl7YrxaQ7RdCttBUEnJKXmKcgs5J7sAIDqDu1SeFrO584/A9Pu0/ZtSQVyU7nGMRQkHdQAl5ix4AOtILMm+XLb2Oo2nSpvl8/mWL0mu3vrT8/vu9CJyw86CbomS3CnTYE=
  7
TQS_CALIBRI
  0
TEXT
  8
0
  6
CONTINUOUS
 10
0.000000
 20
-46.750000
 40
0.200000
  1
$PLWDWGFdVnWmg2DqB/271i9PJOLo3bX7xKL0J4aFrGhNT3m/t1OmAw1WnmnjBYDml0g+H98NbILI8HnXC+1W4hQlpuF5SlY3UjSBfQGgLIhYusmZXHlkE8o6Sn6KfEZJYLv87DAvO8Px5POR2+vjg7KXRcDaTFWFnt+S9wJPrrxW8igyo=
  7
TQS_CALIBRI
  0
TEXT
  8
0
  6
CONTINUOUS
 10
0.000000
 20
-47.000000
 40
0.200000
  1
$PLWDWGU6lVTVO3KH6RWoXQRJAutFUPlHo0Bn2DY1MPvNYW9nYrqRRSDYN/odp8wBhomHl11NyTISy3g0NcLm8/izBcy/A9YjkXvzkf6aJ5nnRdvmY6RcmEpRlc2Z8I2P8/DC0C4tQdhmQ2ZtcbL5ehWuEgaY6RRKKzv/jdIj7ynHAr2rM=
  7
TQS_CALIBRI
  0
TEXT
  8
0
  6
CONTINUOUS
 10
0.000000
 20
-47.250000
 40
0.200000
  1
$PLWDWG+mk9kQKV35AYFa1EDjabe9Pcj8Z9w+QsrgAloSjBdoSJVwrsSa3jpMFETxA8EgDKV4NL0+6OKwgwm1dj6XxuOU68oZye/nV0bmBU6bY+TT9FGhQwvjoO+wjvqPdx2rfCRdSYkrFlZcPMU+ccP3GErsYT6mNP3qlfpmglQTgPTwU=
  7
TQS_CALIBRI
  0
TEXT
  8
0
  6
CONTINUOUS
 10
0.000000
 20
-47.500000
 40
0.200000
  1
$PLWDWGQqAr300F15RVvjNf96+Bd0xirEMWbtm2597EReq0VBIlUgNzIu8HAfI3o90s9POrFLKWjtVKsLdXC/7+Tc9d4tjXoZMrAPBHznGVnjFSXr61z1ZdqDCpxesYaATU9eJkgvT0ZS0H2y+yMsi1sBuEiOGRgBG6OnSts4AORRhALFY=
  7
TQS_CALIBRI
  0
TEXT
  8
0
  6
CONTINUOUS
 10
0.000000
 20
-47.750000
 40
0.200000
  1
$PLWDWGQLG8inp8gd40q2F9f85f9x8oc4Cg7ZzTwDrfr/3AfK3XY/tpQcNuCJ5b/zBRhkdAcf3SHneHI6N58bv+Y5AHyq6+dkTXowdqFdao4mVpxUI/Ky7wfYsvtJ2hG+TbddIHjImg5HwYXjOVNaTg+DgO6UnseSLcMaHH7ZUECq97k8c=
  7
TQS_CALIBRI
  0
TEXT
  8
0
  6
CONTINUOUS
 10
0.000000
 20
-48.000000
 40
0.200000
  1
$PLWDWGOT24fDr169D9/i6rBbHsSIcGK6ZYVqPpROs/iEXTtItaCgJDADFilEGAUlxxyX4ALaxqTpsdJf1Hk1ySnnwDduh5+x0uEkutGrKS0ObkBx+X8TP4YafYcml7WQWSXqfDs0Ln4NIPdxeadNeBMjNEzcEBvw7s1b2QAyUEqlzpw08=
  7
TQS_CALIBRI
  0
TEXT
  8
0
  6
CONTINUOUS
 10
0.000000
 20
-48.250000
 40
0.200000
  1
$PLWDWGyg1KlyGSvZVdCSlAK5q+0cSpXKiND4uMbApqNZYYoA1r6JJTxhoYHMtBoDU3w6pf8vYKaUEOgKjypse+R3HPYPv0fnYV922t1ZLkWd7V2eeNwTXjK7OTa8xhiOMdfxZtWt9vTTZ9tZjL5mhrtZB0rIgjw0ZV/F+5S05gCHiGBAc=
  7
TQS_CALIBRI
  0
TEXT
  8
0
  6
CONTINUOUS
 10
0.000000
 20
-48.500000
 40
0.200000
  1
$PLWDWGQckpYoSC2bH2RLOfappZD2plL7rCP+1QOxNDNuTwYfsYj8owJsA19LuXiLPXPEoQYvCQ4Ii1Q7Ejmj0dK6JS6bg+OqwqUarHTuYRZmYQOyKrQVvBd4CXYOe6v/dPAWSDseNFxHfw4YlEShBuH4yw9G0o67kcyYcdIT8tpIh60Rw=
  7
TQS_CALIBRI
  0
TEXT
  8
0
  6
CONTINUOUS
 10
0.000000
 20
-48.750000
 40
0.200000
  1
$PLWDWGyGbL/7d0XWaxHDfNnlb22WN6dXqU/sYw7LwvKCxjYSXS9D3LzOWkBV41LNsDEuG1jXX7oQ4GLYPlKe+zVf3x/eEWE8b+NBN5rjzhlNQ/F31riHBcqQoipEzZdrs26kEOxNHERSPCgYeEZsdiEY2bFzAQgqSQIBge1iP8FRp3ts4=
  7
TQS_CALIBRI
  0
TEXT
  8
0
  6
CONTINUOUS
 10
0.000000
 20
-49.000000
 40
0.200000
  1
$PLWDWGCfuNd+PWrU0hMPc+XJeUofYK6/paoBIigZzJq8rQPyMXvHnuY29/gjHBE5rtDZmQLEuSHyJebPNJIjhPmB9+xmiv/wgyBQHy0gR1GB+B60m0zOXOIPHRRz42T76UqdKRcPulkgneFWS0l9Yi/Wo/EoQy+/Gy5rIkf227llqxdV8=
  7
TQS_CALIBRI
  0
TEXT
  8
0
  6
CONTINUOUS
 10
0.000000
 20
-49.250000
 40
0.200000
  1
$PLWDWG4XwswICA2iz81TdGYzhVPPUfqlzOZLgAyUrcyC/T3Um7Dm0Ns1CJRDdYQD+Vg04xmbAUq2g/YFH6bjPkwcU22u6j1bEjmhfufgwO//qRWq4IWhcFaUXUYtGj3e8jucnMtnZfBuUh+n7h9zPgWu0pMyL9BQ5V+cz3GF4vsb4fZjs=
  7
TQS_CALIBRI
  0
TEXT
  8
0
  6
CONTINUOUS
 10
0.000000
 20
-49.500000
 40
0.200000
  1
$PLWDWGbpTe3AI+Ut+++4k5seyxLxRxEg8gRr54A57Nll1qsgGAtZAGdfwjg7LUOQp7mZZhzQth3gunAC7ns62KPnRuHWygNtS9WrsevFxSwQ9DfqjwHHJuruiLe4Ttl1x2egkT+l0GrWrXDSe+oJdGeVjBhQKgKvMGDN5tkoPeQqEyV94=
  7
TQS_CALIBRI
  0
TEXT
  8
0
  6
CONTINUOUS
 10
0.000000
 20
-49.750000
 40
0.200000
  1
$PLWDWGqrgAWWu/MFHc5YAiTwtDPkUuxSqq/ok0WyUiV2yTRTlu9pT8LTvTEmBUqCpHg5KFVP3uXeJP0Nw7Hd7vU2fpfLxgFGBFSQqvFWxCJhFnj1v47bxMJthDQJXnabfpfOeHxTDPc6KXIKSCt5iV9nck6ZDCtohQ/YpLrJHJU11JIzQ=
  7
TQS_CALIBRI
  0
TEXT
  8
0
  6
CONTINUOUS
 10
0.000000
 20
-50.000000
 40
0.200000
  1
$PLWDWGPECRgqRQOHp2GfJdspa+nCQnusRNvtclByujegQai8IXg0LU4Oxf1A/abLb+/Wi0aTYUMsJsi2La7hDCUgeg3sagsXbgtwBztsaFgoxv1Cz34LnFWiq44dRQve6zwv4JuI2R2/LMwjpuW4aD2AhTlRIiZlRiq5Wpz+MpZwm+YDc=
  7
TQS_CALIBRI
  0
TEXT
  8
0
  6
CONTINUOUS
 10
0.000000
 20
-50.250000
 40
0.200000
  1
$PLWDWGp8EjemVAlsZxi2uHZHy3JfFEzKD0qmQuMJ6FQSTAEoWUuMxZiiGjO+i1QUbADwz2TEsWTXkwhtXyKbq1Gwmia2HmXfYFodjSjbf34nH9ZIIRnNCaxK15V9Dz/d4tHsfuOcDUnUQMV5mGrfMvjmRWfNTjT7Hked5YpB33LUVQ81o=
  7
TQS_CALIBRI
  0
TEXT
  8
0
  6
CONTINUOUS
 10
0.000000
 20
-50.500000
 40
0.200000
  1
$PLWDWGld0RQG5oMkTO0MYWyPuNGnR0nmW/0jqibgJSlHrwikire1LlMseIGAbLi0Ne/yPAHEXFEWCIt7WgLKsH92ccBbr+ULB6aFntiFQSXUyWF7xv1d8wrtU/cxDA2tx6ih3YoHygaJeoRFbKlYAlKlw/fIWN8PvQt7BZoc4/tNNbpeQ=
  7
TQS_CALIBRI
  0
TEXT
  8
0
  6
CONTINUOUS
 10
0.000000
 20
-50.750000
 40
0.200000
  1
$PLWDWGgeiJT5JvhlBwwViU/JTDajvo83IP0NLBLDLyI6jEOlMP4gNZnsIETN/WiW1DDD8+XdFw0m3ztO50Dkx60FV1nrmzBUgc16iVlrp7Y5X/HXwlOSdLcYqzrManbH8F1KJhXcM/w8kpL8afLKY9KmJRb7/vP4LPRE9drBx3veyjox0=
  7
TQS_CALIBRI
  0
TEXT
  8
0
  6
CONTINUOUS
 10
0.000000
 20
-51.000000
 40
0.200000
  1
$PLWDWG9WolKrqDNhlmsXd0LGduZbtiudiQVvjG9GPZ/D0uii8Rc9C5xUs4G6bMxtcGKjC+bXPvetamqa/vrttX3hqbtIs2/cRqWhzg8U2EbfP2E/+p4oj1/C8Ki9y53K5kXUHeVlFlViL6I22g9SksrU9P2EyYvWC65TvSXkELsw708dc=
  7
TQS_CALIBRI
  0
TEXT
  8
0
  6
CONTINUOUS
 10
0.000000
 20
-51.250000
 40
0.200000
  1
$PLWDWGpCzEZEgkwpsNQh7U4SC6bKPwFrhbdZqHehF+9QoP0uWRy5zlZ6eVFWv7zAmApjh/YLWDAik1lhK0hPdcBcZO1/RvKQ77PfVw5j5HtMGh46k01tdCVItJIRr5aDF1/fAGQNBrfwoK/x/zB4xrEzc7uk8nb8wZBgBCINEAF2k53uE=
  7
TQS_CALIBRI
  0
TEXT
  8
0
  6
CONTINUOUS
 10
0.000000
 20
-51.500000
 40
0.200000
  1
$PLWDWG3VifXGJuSH7RzXpb2r+NSFeKDFJw/a+lqkMWeTHQr+SS73E/shg+Z07iMTuqGscAo0IyTYnP4u0DsLSx9zi84MkBuGQKB1YJBEJEkiGlHyt0uBHu1wJul11CT7/WRyQt5Qhx9nQ3xINvvCsfbi3kLzf47WvC+VLl1B82MJEtbXI=
  7
TQS_CALIBRI
  0
TEXT
  8
0
  6
CONTINUOUS
 10
0.000000
 20
-51.750000
 40
0.200000
  1
$PLWDWGuuz3dyuoVR+P2TTUH4TXvTbwyh3WEnKEd1cqtViY8rq5cbLJi9UiyZAgl6oyN+IPViuPPFlBu1Th8VAJpu0t7aBhCWs9nz2uFwaUsq71APPedKIzpKrltd4nrRvD9FK+v6XxMS+XolhD4Vz8836lIzA4toRga3HQtp2IP8SXRkA=
  7
TQS_CALIBRI
  0
TEXT
  8
0
  6
CONTINUOUS
 10
0.000000
 20
-52.000000
 40
0.200000
  1
$PLWDWGHjdY8CoWpvC/h0xKQ6TrktjxDaWrAypp20o5d3rLeX5+DxMxtwpO5v/anbVu+FS9/4yHt1EvQtYAdAqh5JGMIu7Zf8x/fZDMbajjZ2a3N8qL+TeAv+7KCNW1g5evJVLz6KDoXk8eXBfZTx6cQ7QUuBLErWp+oFng3i86o6/TPuU=
  7
TQS_CALIBRI
  0
TEXT
  8
0
  6
CONTINUOUS
 10
0.000000
 20
-52.250000
 40
0.200000
  1
$PLWDWGWk5O3WbuGFvsg/qXgizOHKvBXDifbCam4uJildTDWF5o+fmB3dw0jdHTFBolwGRuzAeLkHYJYBqeMb7Zl4k35Q81piq7kmFro6UxsFi6xhafJ2nt/esbkNtAgyqrOPWPDARSiJrfeb5aH0SG2sdSgOmiWCb9ZPe29GjW4cFROE0=
  7
TQS_CALIBRI
  0
TEXT
  8
0
  6
CONTINUOUS
 10
0.000000
 20
-52.500000
 40
0.200000
  1
$PLWDWGU7v18zj6wpZ/dOO8YlTMfgjCWsk1jmrsCCm2+ZnvKVYS4bFHXA7a0EjOqX6dG12qq3jdd0Uj7yIJL4M07OfWNhDc1LhcWTXsfNRHklFgpGj1GhxvzQkXQUycaK+HucyEkLp1it96ZZCho/nGPV6IXmk+ltPAqr3MuconQtL/zDw=
  7
TQS_CALIBRI
  0
TEXT
  8
0
  6
CONTINUOUS
 10
0.000000
 20
-52.750000
 40
0.200000
  1
$PLWDWGa355TXsnvlCqDvjBK49s8N0vP1GDI7kDxvzlLKBY7GWm2tBA3KibexDXmkx8mAE8xK8jg5AOSYo9ias/Vz5O48JddI28IMVkgGMh/sAU3dCo0rCt13KG6AHkXsYMnjXK8DOp5q+/Gh41OZbjWnhD1FAsmJM0SubKvRX6ZsaRWas=
  7
TQS_CALIBRI
  0
TEXT
  8
0
  6
CONTINUOUS
 10
0.000000
 20
-53.000000
 40
0.200000
  1
$PLWDWGUweBER4CopwYFRgJqx2r/Ay6EK7S0oAs9Pfgk5SsnYExVs6ked9jBtqF0BkBk4oXK4XaM9uv+onGsHm7R3Srj9OBC99p7mYg4BBpu9P2y2BtliwwQK9gqIiq7yBbO1Xhf147UVbJwNn0SFA6mD5cYGF9LVpfFeUYbd2BxrYLgrw=
  7
TQS_CALIBRI
  0
TEXT
  8
0
  6
CONTINUOUS
 10
0.000000
 20
-53.250000
 40
0.200000
  1
$PLWDWG65v3eEKKrwsE622268QEK/vhbyP/KW1Voo3c1NzebzwAl9GU0vHg6yOhicjWwXud3h/HzrN02U8LJpcnyv+Mh6dpcfaMcIz+VSrWbHdI/REWnbCdOPp78BxgCY7mtG2ZKiva1hGljYY1aAcsek+UF/bjgLHzI1Y3JW5M/dhVdzw=
  7
TQS_CALIBRI
  0
TEXT
  8
0
  6
CONTINUOUS
 10
0.000000
 20
-53.500000
 40
0.200000
  1
$PLWDWGEs7hjHUJUZhJAlMeXRPux6akUkm7Zk/+Rt83LFixr7a38KmRUSHEMwek70C5VMffzISGLZf/hQGBM2Xiw+taUGb3LTnLBIlVZsrYohuzI5zBzLj90ulL9B4TKxvFW2HKXuz4Z145Ggal2JhxjxBXeNJ3zBGq3TpzN/vvzo27ZPc=
  7
TQS_CALIBRI
  0
TEXT
  8
0
  6
CONTINUOUS
 10
0.000000
 20
-53.750000
 40
0.200000
  1
$PLWDWGBIP6FzrhTY1PD3BV7jPnT4AnF1R5wJ9m/FQzCf6jv5yek49djgkXGSorWfg9qAHxp1ElgxNwCcN2mwZAdyn5s0FWH6KYsGr1WX+qfFdcJcB3OFOXVvBycOqNT+sOgam8SHVoyAXLI/iKnW7Lmm+8bM4Srjuqo93BVrMoMjG6wvA=
  7
TQS_CALIBRI
  0
TEXT
  8
0
  6
CONTINUOUS
 10
0.000000
 20
-54.000000
 40
0.200000
  1
$PLWDWG80RxtYbi1DYxp9Jlg06fv/Nfe+mmiclZjeLVJgpDiIupCSpOc6gjQBh6bww6kNgxeNKmUHKZ8+rIumZwnLJAGFBvMiEOyYlSll8AdVC3avDJZVTtbdKmgrJ08kbeKo0a+kH0DNkNNzZW3eqMME0yU2lMwugNxOGgrrFWulWXBAI=
  7
TQS_CALIBRI
  0
TEXT
  8
0
  6
CONTINUOUS
 10
0.000000
 20
-54.250000
 40
0.200000
  1
$PLWDWGwkyI9oGaEP3JhqHzS3b5FzKBjrTfWw6k+g2MKHmidNCUw82t6uHgGAueRBviwvOCeyu1SwYGfOxXqD863JCVdMV3CK8+/y8d7Y81Q6MbIUDM/NkceqEKlbo08lMiRJycx4GUV2RKZOWce8w/cafZjrK3X8YMDSSju0df8gR1xCA=
  7
TQS_CALIBRI
  0
TEXT
  8
0
  6
CONTINUOUS
 10
0.000000
 20
-54.500000
 40
0.200000
  1
$PLWDWGVJb+PdqGbeEZ/m/6b+q934UvXgQ2OLBny8j9650cI1gkFwvP0smJ/RQ5yTKO8QEDX6csijsu1urtQZ+JgmTSRFxdL3LVToglAwOIp4qpUxUznQ92aPgHgTg9gtQxVsXqMqY6wZh1CqQbD8OxdzabXv0x9IxLqXc+e45egtZku/E=
  7
TQS_CALIBRI
  0
TEXT
  8
0
  6
CONTINUOUS
 10
0.000000
 20
-54.750000
 40
0.200000
  1
$PLWDWG22X5jsNoQKxbKavhqA4xpzMmAMA02pfcXrx5LYgUvsdSQXiUV+2bisSoUYfDlQcfZ14pUBDNYcN4sPeiUi4s1WSgLQxCgydJe42y5L9CORPycYGB4NGGh0RL7Dj+twZB7Kljab6GNxRrpds0jDevasbvw+DxxtoV1DieX5jFZHE=
  7
TQS_CALIBRI
  0
TEXT
  8
0
  6
CONTINUOUS
 10
0.000000
 20
-55.000000
 40
0.200000
  1
$PLWDWG6WNElkNtENREQIeXe4y0C1mt9LZld/6cmbWQGcOu9JdN6Bvw7F9V4cxGgq21Oa5N7zdp/02tXzw6ydP7ZJAx3qlPdkRv+NJzXWcaIetSSYV6PhfEEbdXcvp3K+ceETzZTxqDAxwDCSs7vTgMz2w+8prhCqTDQzLM6Nt3vA1SRl0=
  7
TQS_CALIBRI
  0
TEXT
  8
0
  6
CONTINUOUS
 10
0.000000
 20
-55.250000
 40
0.200000
  1
$PLWDWGKv11ZSiX2ZzzTvnZJmcFp5m3e1uiYXu0wyMQP9myjdl3llNqai0ydxrp8+lvccx0zk94vHKgBhBrqDSbVQKBGLEdkJhc866KRu8TJBAD4k1xdYG3xoMDA/dDs4CLKLNWAY8xlWeerLDwMJmtM+uuyqngr2LA3FX5sb/0VuguRg0=
  7
TQS_CALIBRI
  0
TEXT
  8
0
  6
CONTINUOUS
 10
0.000000
 20
-55.500000
 40
0.200000
  1
$PLWDWGe1j3X+s3jHKkJF6qz8isTu0tvWaPIt6hCdJ1xQOz1RpO2Hh7pS8a1fOSNWq0IzV+l2rea3O8Ea4wQ62R0VK0nqPR/eplKC7Xbj7Evt2sXvLFAdmud8nGN8nBUY2I9mJqv19A8/GNW4bNxCxPrgvl8LhVGgxTwbnCYYKoaPLi7U4=
  7
TQS_CALIBRI
  0
TEXT
  8
0
  6
CONTINUOUS
 10
0.000000
 20
-55.750000
 40
0.200000
  1
$PLWDWG0AbwF9IZhrF4QpuPgs54mxboS/FllvOl1C78vCmn14dUH4tWxT6GgKfAkYzqsxRcq0pecSRDUddzOVc8FGTFQuMDv9ygTZQvbJzD4hU4KNPmtnYXSvCcIn35vUq15Wd9EMxo0eGYNPRoxm1pMZ+9SuQ4ea+o6wPk/c6LOMRxugw=
  7
TQS_CALIBRI
  0
TEXT
  8
0
  6
CONTINUOUS
 10
0.000000
 20
-56.000000
 40
0.200000
  1
$PLWDWGq7hwU4Qb7Jv9+m4ucAZ33HYkm7Uia5haej775ZaLPqQ3Fz9QPeDQSUinKaJ3JnRYgktjChWaMVIAq0ZFKf909yFl8ti9gQtZZMpUtHKqNUBv18/D1vv9Xu4+PHPIFcaa443x31PPuxCpDi/t0Avuxq6aKWeMT1H5V+75JldDYNA=
  7
TQS_CALIBRI
  0
TEXT
  8
0
  6
CONTINUOUS
 10
0.000000
 20
-56.250000
 40
0.200000
  1
$PLWDWGwLzllftvcH0a/3QfXhnjBXKzWeZ3Ulp1u7SZFegR5tPRpyZFFeJoRs59zCYC3QNLLxDfIWjFwH5P2afpYeQSAOvQwVppvr2vBySbAXwuXlpIKaa+uBqQwLAianQxYgxS9tqPJJDvoPksj+LLVwD23L9Y/VrgaNpPBVsfk+v9nMA=
  7
TQS_CALIBRI
  0
TEXT
  8
0
  6
CONTINUOUS
 10
0.000000
 20
-56.500000
 40
0.200000
  1
$PLWDWG7KtwBRbVjALO76mxkDLufnna75zRzDmxN79ogtLs5qRnfht5SlvTp2qwhfXzzp7QCyUAONz6z+LlHlgr8xyg+35Cqdldkeb13xZciB/dKYjcT8TaHh+x+1fCP+LhCBaL7d12+HZGnRCB6PBPi8M3V0kbv5LWHxm/Yxa8QhrdZ2A=
  7
TQS_CALIBRI
  0
TEXT
  8
0
  6
CONTINUOUS
 10
0.000000
 20
-56.750000
 40
0.200000
  1
$PLWDWGNShfKArPN6fm+YlGDUhyuiPLtDcdnBYiFTBQA04lun7DAKFdRqS+qV4r8i9aunObhFJAK6uNH5TOiui0Ba6dqaEK49YLZ8LYP7WTbjR4mEUr82+rW5QKkMmeWoDxEYqX/LeAusGprJ3cZycQNydQPQbLLTS/s+YTMkqBhHRmwlY=
  7
TQS_CALIBRI
  0
TEXT
  8
0
  6
CONTINUOUS
 10
0.000000
 20
-57.000000
 40
0.200000
  1
$PLWDWG2eOiyGP51/0dKb04CpIoWYTRkdYU0CuSc8yrJkQLX+fkPRfzAYLDXi7ZDbklQS28Pu3xAwpL+V17vqemg6GavyhlcHhh+9VEe41f3Emd71fGKRRpn34UQEQEev8ZwhXIL0ZssIwvbYnmUMokmBsOFlK15l3vnyUGi0VFgJM2kFQ=
  7
TQS_CALIBRI
  0
TEXT
  8
0
  6
CONTINUOUS
 10
0.000000
 20
-57.250000
 40
0.200000
  1
$PLWDWG+PxX00NGT0/3Aspo3kPc9ibFjRpGQvN9mq3i3vSdVJkkCSUPd+SNbWfmhp0MwaG/OwvB/maQ/zGRip3+K5p1oS/ir3ukjZdUmohyQu1EiiWIiKiNip3pKSe3kOzipuCHqPX5JbzqJ56x6mJKEJraXT8PepO5nwos/CokwShd35Q=
  7
TQS_CALIBRI
  0
TEXT
  8
0
  6
CONTINUOUS
 10
0.000000
 20
-57.500000
 40
0.200000
  1
$PLWDWG1Uw5Afxl0ZsYyGwhAKeYZGy8K1DKjOWaxGVlffSTjg7PiHW5M1HnpJiN14XProtlrrJdS0XQJ0DvhnDu82XQ5cclaR3S2snxCMq63QNMxgN+BgTIDLpc5xfyPI6lKvGKCt5Q+pggX3eZAg7Z6imGWIIdX6z6V9FDPs2v4Cu2LKE=
  7
TQS_CALIBRI
  0
TEXT
  8
0
  6
CONTINUOUS
 10
0.000000
 20
-57.750000
 40
0.200000
  1
$PLWDWGEq+eV9pLJhjOP4Q0VLsFA5+e7fHmYdxgQ7nWK3OlwAlu6oDjruNpbKA6juRFEJWgO43iPpSD+gt9rcczUiH+vdlJCl+ajM7BygaqvD7LOfRN7BhTZsS1EiNoPWDJmdPNg1aBI21yP53ymrZXnnp4CL2f0eh8k2WK3VOHzezcqrE=
  7
TQS_CALIBRI
  0
TEXT
  8
0
  6
CONTINUOUS
 10
0.000000
 20
-58.000000
 40
0.200000
  1
$PLWDWGpMq8UCVT7Ch5hF/Yf7/DR81O3focT5HchE9s/NqDapeMdIyA7sxeoxSqiUIX+43sga7UTh1dJ+d4lcj0cTuG9FHFdR0S0d55L63HkYRHg3yMwZmaFiZICH1cW+oddbc73XLCGZv7lCqTPfaIuiXVBi8T9+jL+ypAR9z15Ga9Uz8=
  7
TQS_CALIBRI
  0
TEXT
  8
0
  6
CONTINUOUS
 10
0.000000
 20
-58.250000
 40
0.200000
  1
$PLWDWGuypD40P1oNmnx0jsi41MqlhcA4QhauSsDG03mh1JW42sPbtj+g77u1BaB/rCL35x0YPw7r0KrhQ1Ql6d47XYF4UncwWbvDaYr07Wlfo9cD6F0o9wqk1QD9j+NO6QT0ZZht5sclgfyG0/pi5oSloouYYCE9HSPqgYGboFdZSLFLs=
  7
TQS_CALIBRI
  0
TEXT
  8
0
  6
CONTINUOUS
 10
0.000000
 20
-58.500000
 40
0.200000
  1
$PLWDWGIGd8gCG5RGuGUyYsxS2PpA699xSnAcmto3Gb/8fF3iABr8LDNkT1Et4Lx4C+cd9EUkF3MEqzOJTyyk2VsWMo79pmR7TYHvOXj5FC44XWnpWeItoRwwpSwqOBC59hZgvQnnFiQ6VH76lpqHZeQI4hJ2ycYu5dI0JV+KvyRgMvaHU=
  7
TQS_CALIBRI
  0
TEXT
  8
0
  6
CONTINUOUS
 10
0.000000
 20
-58.750000
 40
0.200000
  1
$PLWDWGPCBpZz/zX8eU4Fq3Web4PfydBLv2C5lrrvB1QdGkaveyfmbAJORR9RpEcRnA6IjtEtLcxNQ4QYmZ4BbghCKEMYijovk2AdloC7cLY2uCsMyz4cP/0CQT1NN7k2e3Nixs3KtoXm6qDbs2Vlar2CfnHEpCBxD1U6C2n0fQUGZGbNc=
  7
TQS_CALIBRI
  0
TEXT
  8
0
  6
CONTINUOUS
 10
0.000000
 20
-59.000000
 40
0.200000
  1
$PLWDWG9EcXIaxi45Jj1QSLTL+vRtBpOEBVJbEg4SvGrola3LdCd/6kHN8q5cwJ9NZ+F/ipM2epPYYnKMnV2WIZHbtMlo5/0WRlR52B/jEpOWa97iDgGWfwsuGHnGTRimhl3W1wTrhDIh0QPYehv5QGFtnuKlwr+gX/HvS+OQ4ZNNUEq5c=
  7
TQS_CALIBRI
  0
TEXT
  8
0
  6
CONTINUOUS
 10
0.000000
 20
-59.250000
 40
0.200000
  1
$PLWDWG9NYovXulYoA2zAE6EJ3KiRil+MBa22qyr3ngGCvAgO3pmwKPtB4geEKJ4RHy9J4SroVwQ1oNMC/kJs8sLwXYJVANN65dIfXlMjapAmcmkpj+b38xqjZp7XHvl4FjSzupHgm1EQkjqRvX7MZXUaLilPnucJqPvMhIoIphS+8Y4OI=
  7
TQS_CALIBRI
  0
TEXT
  8
0
  6
CONTINUOUS
 10
0.000000
 20
-59.500000
 40
0.200000
  1
$PLWDWG2ucGiTGTDHtpafmObIAo3G/zl9EY3MJskh6wt1zlXZ34xYYGtfbVurGni7zwRc4Xg6epAArzqyZGTqiNYeimxXkrJXKkqEwgdnCv3aTIS6w5wg9MiTQKo6EFjLQ6F90eKv09KoJesm+C5h6LLZ5W8agcs3ZvqwH5gF+qkVc8BOw=
  7
TQS_CALIBRI
  0
TEXT
  8
0
  6
CONTINUOUS
 10
0.000000
 20
-59.750000
 40
0.200000
  1
$PLWDWGzgRubsd1TVi9k0jpy9Uq1q2Cx8/ygjxKoYKwac78Uz+MDggprdfG+lleNoDRovww+CFcWjcd9eEpQ8bUHeAqWa9QLVZ+l+xLKxmJ7J8j1vsZaOgihv+mn4bSOewoMTGU55Npz84FDCRju0p9vOdEdc1Ea0ELr85mfng0M9x70wE=
  7
TQS_CALIBRI
  0
TEXT
  8
0
  6
CONTINUOUS
 10
0.000000
 20
-60.000000
 40
0.200000
  1
$PLWDWGa9v0eh5ydM49RggcqSK+t79JwY1/HKFIPf75hG0FECmxoc3FCkjmEN6J65UxPoL7qjg33Q0cepsew+weNN8r5xUpuunGUsL84UtEMFGV4b8GcQBJNFh4QmMSXGuibPvV3+/Z0tavrHFR5yaldatJT53ToAmMB5xWJ5UBB86QcaM=
  7
TQS_CALIBRI
  0
TEXT
  8
0
  6
CONTINUOUS
 10
0.000000
 20
-60.250000
 40
0.200000
  1
$PLWDWGrhCeTXlpfqru5A2/ZzdAlRG4f/1OVZjnXDMDcxyuNkBj3iNaAe8PZdZK0r+lUumRNWZFNl0Lr3PXnZsp3qbiosDYNoodQ4L0oOdNkzyiGXahFIPqvOasivfjUtzRWcx1JwhvgNvqIT4l/u3pqo+lqaa4Usutf72mJnr2weef2/E=
  7
TQS_CALIBRI
  0
TEXT
  8
0
  6
CONTINUOUS
 10
0.000000
 20
-60.500000
 40
0.200000
  1
$PLWDWGbE28+J/8NIzy8JoCyGdNQR7LM0XdZh77cpotAVTMjJKEt1lClgbO7/ZNViFRIM5eWIMebtjzMDXJ/YbKIYPGoysmI4fhjh6BfuN4xWU6ucvw5cqN+eKmWZ3K+D7j1/0CGpb8faqo3neZFKB8MMiDjBFUc5A/ouC8Ihk8fog0SUA=
  7
TQS_CALIBRI
  0
TEXT
  8
0
  6
CONTINUOUS
 10
0.000000
 20
-60.750000
 40
0.200000
  1
$PLWDWGkVIDr95s4xNX7V3+6C9pkn4AlwBDX7W7lxThcXkyogtg8XHFUo9o/0+z0+sJd/TRtPM3hRO8LWFI7mDkihUncaS3+UFwzp/kdO93OXqyEyo/4Q7Alxe2yBiB3oLotlJW29xtS8F+17lVstgWjCHDywJ+UVSZSbVWeHKbHNT5Q2Y=
  7
TQS_CALIBRI
  0
TEXT
  8
0
  6
CONTINUOUS
 10
0.000000
 20
-61.000000
 40
0.200000
  1
$PLWDWGdo7ZYKvt//i2Rt1l/V27EmmF+2n/4Ee7w9/arVVqH7PPuXVZOCLSCkrt59Giu6dMfvLjyEqxotJgp04gp37QqFVZmtfgfh7JdfbQHDzkYCRtOVnFn8EVb4LMWyv+VuwnFtVnmDmZOsh+A8W6PFWEV3Xh8uO2Mku90l8/ceD7/BQ=
  7
TQS_CALIBRI
  0
TEXT
  8
0
  6
CONTINUOUS
 10
0.000000
 20
-61.250000
 40
0.200000
  1
$PLWDWGvOepA7ZNBdM9njLypJuTShxcPmh9svKhULizfHARyWzA2EzP2Y3uCKiClRK2d49gwZHAQeN23GMiBf3K6YjTkhR6WC45v3QySE6Luj5dhzWU6DqxRQKdEVnYfdqO+nYmDvVc08Zj8IewDb0OUzkTcITOuvp4F7DJAfargrPdOfE=
  7
TQS_CALIBRI
  0
TEXT
  8
0
  6
CONTINUOUS
 10
0.000000
 20
-61.500000
 40
0.200000
  1
$PLWDWGDA/eNDdcGeEtx3imJ46y1+EtXk+3sNDHQxuBlAhHR94snGojUYQQv/4H5hhSnUiMwtVB4zjysB1V1MoYMTdegNFnuYgQx8a5GHxfYsvNEC8GppiEDlCtH4Yj6YV6kyEze/FS/RY//lYi18C/c7whbcfmobLDIQezDEy/0sAK6eE=
  7
TQS_CALIBRI
  0
TEXT
  8
0
  6
CONTINUOUS
 10
0.000000
 20
-61.750000
 40
0.200000
  1
$PLWDWG0S/jw5+SMKT0YoSGfPH9WpTavGthFnfyUeWcipGOBMpdqA2LWzJhmAXy2FT/QwKpnd8X2kRIlOSvKpjvyP1szLY0yjFCNWYvSBaUNM7Vovv3YC4q3q6WU1QiiWkN3NkZ1GzLtoh71cteMghpfO8bSqEvS6NZSJPGkydiv7NirQE=
  7
TQS_CALIBRI
  0
TEXT
  8
0
  6
CONTINUOUS
 10
0.000000
 20
-62.000000
 40
0.200000
  1
$PLWDWGejQOaW+5EJ4dJZZ++UhOAWp4By8Ldc+gZhu5723iDGeTKNXXpq0JdwtBqE1xOzhVXdYnUOgRg50k9RP5dvhCevaqwBOqPsXqLPvexDa70PTXLXYTY820K5VNGZpBQwq1YiSfCKTjviTo7GpyC+sRSNc/PklDc/AFvegOv3z9q0E=
  7
TQS_CALIBRI
  0
TEXT
  8
0
  6
CONTINUOUS
 10
0.000000
 20
-62.250000
 40
0.200000
  1
$PLWDWGXoXBgd5uvPZWSyBhfh5UQ2+LQM8361BMZUy6nVzq+eR555ZucesgJ+T0eDwRcWGrynMA5pF7yfsqnO6pEs0WKhNRKYdyfi5A/k3kU1Cv7eXpN/yN2VtTv/J1bOTK9gcxwMuEjZcnDNndz6gCdnnn9wauVqcvrRSZ6/66liv7LJE=
  7
TQS_CALIBRI
  0
TEXT
  8
0
  6
CONTINUOUS
 10
0.000000
 20
-62.500000
 40
0.200000
  1
$PLWDWGQONvvUXOmEZMNJeXF2NMHpCsSGZ8kwxMQiB0IWH7PmbkOunEyzOKz3Mu+mZxKkl8Nzh+lwlQxAKeWUaOcvbZMUl6/bn8iOMewsEY/2/r4NbwAVc/nSfMYOSrlEORU1jOXRp/6aWRjNqPtLa6zq6hjjxHAndRS9ALBXfJOCzY32s=
  7
TQS_CALIBRI
  0
TEXT
  8
0
  6
CONTINUOUS
 10
0.000000
 20
-62.750000
 40
0.200000
  1
$PLWDWGscx+YhxOH+vamacbxLYaZ1bWB0GuEnDBjO7dMxZh0nqYZ1aouavWa8QYSK9oH5rR8v5x+/lzm9BxE8F10eQ1pctuakc4+dUBkUHRb+GA5MEtDrQfZQeeV3emeETjXe40y1LsNoSJkhGGTwRLu0Bn78t+OIrlB3HtUjAjbOHwDR8=
  7
TQS_CALIBRI
  0
TEXT
  8
0
  6
CONTINUOUS
 10
0.000000
 20
-63.000000
 40
0.200000
  1
$PLWDWG/JoZ5JbmWXRynaUUJft81QcVoUa8vvFBwRFw1eMQFoS9RWvMjnWECck4yMjeu5uRXI0/LgqbZ4gmuSDlyXCDCCnqQqNIogAuUwYaTg3+t04aaBqjgG8LES5/yi/rEn8FI7z3C4cmZUnHpdk9NLnUxB7bAJnaYctTKYv3W4YQtlQ=
  7
TQS_CALIBRI
  0
TEXT
  8
0
  6
CONTINUOUS
 10
0.000000
 20
-63.250000
 40
0.200000
  1
$PLWDWGqAPaxgWqxiF/0kN9eIjjKCWbdclZxeZ8uwjk/qMyTiRhwnmpKhtKt09GqPSEVxw2VKIxnfYmxeE5uG3ayE6NM8kFBZnKPtddamYErK9TKpktr2RCJIjXvhp40imNDhoWmtSFcRQcHJYHp16fE+DB78ZX1K4vyBAX4fu4u3NLAoM=
  7
TQS_CALIBRI
  0
TEXT
  8
0
  6
CONTINUOUS
 10
0.000000
 20
-63.500000
 40
0.200000
  1
$PLWDWG2BF0/1R6tWVkX7jAM4p2mRuLDxQs6uMomYYYUMHWNqHiIcYkqLycKrIxiqS9TQvLx8+rCYJjFLg6tMsIPHTReUsoJq4EpkhrANfCppfjjlt2Ds14QvykQ/LpqAyA7CxGr6TcqRUjrPDs+RSX2pBRCp4cV0VCAtrtnh3cKmw527Q=
  7
TQS_CALIBRI
  0
TEXT
  8
0
  6
CONTINUOUS
 10
0.000000
 20
-63.750000
 40
0.200000
  1
$PLWDWGKDoGatPoqlLLqKF8i6f0QSBxCrooMD2wpZLURnS/vs5UkrvMg7Kl5qZ+P1nw9m6ubJGXbP4jqg515Luq+Lh+ptvvJ0eZNYydJnklCI82a9u90S6YPZTCVmmaY/pcHQfu/gNmivlXMwNomC1uPpBhbqOWMpJq7FJycobyyATM1kc=
  7
TQS_CALIBRI
  0
TEXT
  8
0
  6
CONTINUOUS
 10
0.000000
 20
-64.000000
 40
0.200000
  1
$PLWDWGwUMANOvttroB5rf4F0m7Ki2Q9YQwwpmo1XFC5AF5bR87zFixPs1FmCRCwEzlfj8diFOcGG6ROwqbg1NmXQy4XmrW11GEFp07Z8DhFiUMRW7qM825soQOXufFVh7Qfz6929uTx8iqGop06kD1jChkn93xOk4N114rrO1BrIrASFE=
  7
TQS_CALIBRI
  0
TEXT
  8
0
  6
CONTINUOUS
 10
0.000000
 20
-64.250000
 40
0.200000
  1
$PLWDWGBxsdFIlC34BuoVtacIa9ffJFpxzPUXPjyEUkJFOb0orYLOM+/SKLtK0drwjO6BEfWzGv8fjJUk40sZN2pmYwarwW8zX5Ilw9kIC2srxg2E5VD1XxghYreMBGtmLm0bF3tZZHCNdveiI2kFhzDfAtQHQgJOqjaFNtNgrS9R8sLeE=
  7
TQS_CALIBRI
  0
TEXT
  8
0
  6
CONTINUOUS
 10
0.000000
 20
-64.500000
 40
0.200000
  1
$PLWDWGX7NjPVXeXQG6d82SYnJpK/BQeS/mIoMe65c0kFu4KCIgNMJmYXvLk+rRhgqkzCerSvxUDW8auecJ3fcbNhhHZhrFsI1iZy88QbjjGigur/0Ze8V1E6lMTRjWvfz8gZ3IK6FbdDA7CY1VVQtKhKa0jZQsHhYmmFsjZLl/7LVGgwY=
  7
TQS_CALIBRI
  0
TEXT
  8
0
  6
CONTINUOUS
 10
0.000000
 20
-64.750000
 40
0.200000
  1
$PLWDWGNSPaE4OdSlKQwj9MMXsF4Rf0D3pGsqpWv/ith0SYavh1mJ0UuffeLPx5p+Qr53quC6YGyEmxsVf8BKJsoTGkmARCWFvGot7+miJJtfx40RRKR7v8aVHJQ/h78JUOYfQdaALh99d26DQK9JSrczTK9JcQfgy1zMgLTxgvrjs2HIw=
  7
TQS_CALIBRI
  0
TEXT
  8
0
  6
CONTINUOUS
 10
0.000000
 20
-65.000000
 40
0.200000
  1
$PLWDWGDF36ROrbgNIMPVF7fks9tTct35DInoeso9lZgb4xeYnhlsRhHASHFRh4PjNnusedZg7Dinay5WIBoFoS4BiNQ+xOk+7TbT9SFyS99J9R95OcyD5dQ14hb5ONPA4Upez+pQaT2qiz64Hz1jwW2TueMVZlwzdsJ8dF/YkjHUA43LA=
  7
TQS_CALIBRI
  0
TEXT
  8
0
  6
CONTINUOUS
 10
0.000000
 20
-65.250000
 40
0.200000
  1
$PLWDWG6Zd4+8lFyOgVp3qdjjMnlgCYYCiZ3Wdjto0SVa6qL64DX43lT4GpdL8ZnY6o0YnOnUjKCesYrrxKi/st743Ctxe22SfBT1hO5HqyXtYOTlhzs26jr/Ag1hZeG72Gpujah2XXnFLEvh3mTMZm7qJo+NG0pBMbmFzTG2uZkNCiRZw=
  7
TQS_CALIBRI
  0
TEXT
  8
0
  6
CONTINUOUS
 10
0.000000
 20
-65.500000
 40
0.200000
  1
$PLWDWGGxhloGxl5OMILT6vjCqoEhs6im/GlEDpY7I4jUZoW9BBPQzngb7xe4fSHMc6hV3J/HauQY3vwQhgg6PwJejlYyHBPQ/vrF6+DLfMyNLAs3ESrsFPxKroAdryZVaV5q3Pl9PjdgVtBfZB0lG09W/Kqqfd8NwLd13WZN4dDfzvs+s=
  7
TQS_CALIBRI
  0
TEXT
  8
0
  6
CONTINUOUS
 10
0.000000
 20
-65.750000
 40
0.200000
  1
$PLWDWG5X1spDHCj5QkduKm4iFJPEx+GEiYz5JPAzkEBF60JIKSh8s4RpWFFn+Ke8lXq+golIzh40rOeoeLMUWdnfa9/TXHG3eeb1laefa5R75nvCSm4sVE9WQa5ZRniggf6c+nxoEy/I/ddNGF4rUXk3YYFI1VSUAU8IiacmTIONIcHG8=
  7
TQS_CALIBRI
  0
TEXT
  8
0
  6
CONTINUOUS
 10
0.000000
 20
-66.000000
 40
0.200000
  1
$PLWDWGyJRtVNLNnPNY8SRTsrzcapv1FjiVxRjy+tZ9PZHvphaNHcf4hgkL6qX79ulJVroPwNorHh45QMMR3d+so765BA2C0J8UWZKaL4b4URHAaG8F+k66SLs2++e/lEwnOS7EnYvWgsiCAVUnDQPeJMjPJUdwFLDJdfXHG+2eipRwn/o=
  7
TQS_CALIBRI
  0
TEXT
  8
0
  6
CONTINUOUS
 10
0.000000
 20
-66.250000
 40
0.200000
  1
$PLWDWGBXFXG/xj4wTSwnHuAsP8SOPsql6ISu7gTiyic6PhGjIaaZMPpAQ4JphlbQDMHXz1ksJEKN9W5B4aDzOnwmu36aKTrlV7fb0qslHWIZi21Utcc69fchaIBVlp0z5x47XShLeDtu9JcOnj/6bAhBxlO2e6oueYuiJhnO/bUvfnFIY=
  7
TQS_CALIBRI
  0
TEXT
  8
0
  6
CONTINUOUS
 10
0.000000
 20
-66.500000
 40
0.200000
  1
$PLWDWGBWd77tIveFwp84xNJPuTJ7opOo0xIwEBXinewSrKesU4vqAfhkDhq/u9NlpiBNJpjhTbydqYPKGkhYuA+ulBoRyp5LXxE6WmhrspRJ9ojR7G6vQbkr8JRtLdqCrg12zv+7BhlkWL9XsqizcQ6OwZKwSmC8Pl2su5lram+HxWsHQ=
  7
TQS_CALIBRI
  0
TEXT
  8
0
  6
CONTINUOUS
 10
0.000000
 20
-66.750000
 40
0.200000
  1
$PLWDWG5KOpJFDSgl+eAjjW0HE9vmReP3vOBIa7FfvCa8TfGY7sZQgWH0B9Puf9KweEe5AalZYc7MWVHxaEMItifu2X2YshM+bXgcCbkgVxGAVoG0OOqqAwXV4WY0pLvgrZK8Frw/1XXe7IgMtHdybkVKjrR5g4CWmbigy9958zeB85FmU=
  7
TQS_CALIBRI
  0
TEXT
  8
0
  6
CONTINUOUS
 10
0.000000
 20
-67.000000
 40
0.200000
  1
$PLWDWGuPYSpvbpY3yZi0sRC7mxDzfTvfqHDn8aFxTbIk/DI6di/tYxImCuJnifjrUw3l9tS6SqzVlmfqU9u5mBzuh3sTvCsgpMREA0K3dYIlfzR2yj/gdRHWw3l2YMBmDGuxmSviw2xrsr2YQY4qV8SbKxPHguaMRnmg0HK4Jaxi5daAI=
  7
TQS_CALIBRI
  0
TEXT
  8
0
  6
CONTINUOUS
 10
0.000000
 20
-67.250000
 40
0.200000
  1
$PLWDWGx94tsR2M9xqawc1STKwJNwAAAADrHSqWt77uSl5sFz95RgSkmsHNUkysCTcAAAAA
  7
TQS_CALIBRI
  0
ENDBLK
  8
0
  0
ENDSEC
  0
SECTION
  2
ENTITIES
  0
SOLID
  8
9
  6
CONTINUOUS
 10
28.138384
 20
20.160232
 11
28.734301
 21
20.230110
 12
28.664423
 22
20.826027
 13
28.664423
 23
20.826027
  0
SOLID
  8
9
  6
CONTINUOUS
 10
28.138384
 20
20.160232
 11
28.664423
 21
20.826027
 12
28.068506
 22
20.756149
 13
28.068506
 23
20.756149
  0
SOLID
  8
9
  6
CONTINUOUS
 10
28.138384
 20
20.160232
 11
28.068506
 21
20.756149
 12
28.138384
 22
20.160232
 13
28.138384
 23
20.160232
  0
SOLID
  8
9
  6
CONTINUOUS
 10
25.413442
 20
43.399393
 11
26.009360
 21
43.469271
 12
25.939482
 22
44.065188
 13
25.939482
 23
44.065188
  0
SOLID
  8
9
  6
CONTINUOUS
 10
25.413442
 20
43.399393
 11
25.939482
 21
44.065188
 12
25.343565
 22
43.995311
 13
25.343565
 23
43.995311
  0
SOLID
  8
9
  6
CONTINUOUS
 10
25.413442
 20
43.399393
 11
25.343565
 21
43.995311
 12
25.413442
 22
43.399393
 13
25.413442
 23
43.399393
  0
SOLID
  8
9
  6
CONTINUOUS
 10
45.078932
 20
45.705287
 11
45.674849
 21
45.775165
 12
45.604972
 22
46.371082
 13
45.604972
 23
46.371082
  0
SOLID
  8
9
  6
CONTINUOUS
 10
45.078932
 20
45.705287
 11
45.604972
 21
46.371082
 12
45.009055
 22
46.301204
 13
45.009055
 23
46.301204
  0
SOLID
  8
9
  6
CONTINUOUS
 10
45.078932
 20
45.705287
 11
45.009055
 21
46.301204
 12
45.078932
 22
45.705287
 13
45.078932
 23
45.705287
  0
SOLID
  8
9
  6
CONTINUOUS
 10
47.803874
 20
22.466126
 11
48.399791
 21
22.536003
 12
48.329913
 22
23.131920
 13
48.329913
 23
23.131920
  0
SOLID
  8
9
  6
CONTINUOUS
 10
47.803874
 20
22.466126
 11
48.329913
 21
23.131920
 12
47.733996
 22
23.062043
 13
47.733996
 23
23.062043
  0
SOLID
  8
9
  6
CONTINUOUS
 10
47.803874
 20
22.466126
 11
47.733996
 21
23.062043
 12
47.803874
 22
22.466126
 13
47.803874
 23
22.466126
  0
SOLID
  8
9
  6
CONTINUOUS
 10
74.709192
 20
25.620895
 11
75.305109
 21
25.690773
 12
75.235232
 22
26.286690
 13
75.235232
 23
26.286690
  0
SOLID
  8
9
  6
CONTINUOUS
 10
74.709192
 20
25.620895
 11
75.235232
 21
26.286690
 12
74.639315
 22
26.216812
 13
74.639315
 23
26.216812
  0
SOLID
  8
9
  6
CONTINUOUS
 10
74.709192
 20
25.620895
 11
74.639315
 21
26.216812
 12
74.709192
 22
25.620895
 13
74.709192
 23
25.620895
  0
SOLID
  8
9
  6
CONTINUOUS
 10
76.758285
 20
49.419835
 11
77.354202
 21
49.489713
 12
77.284324
 22
50.085630
 13
77.284324
 23
50.085630
  0
SOLID
  8
9
  6
CONTINUOUS
 10
76.758285
 20
49.419835
 11
77.284324
 21
50.085630
 12
76.688407
 22
50.015752
 13
76.688407
 23
50.015752
  0
SOLID
  8
9
  6
CONTINUOUS
 10
76.758285
 20
49.419835
 11
76.688407
 21
50.015752
 12
76.758285
 22
49.419835
 13
76.758285
 23
49.419835
  0
SOLID
  8
9
  6
CONTINUOUS
 10
12.191955
 20
18.391035
 11
12.143519
 21
18.788091
 12
11.746462
 22
18.739656
 13
11.746462
 23
18.739656
  0
SOLID
  8
9
  6
CONTINUOUS
 10
12.191955
 20
18.391035
 11
11.746462
 21
18.739656
 12
11.794898
 22
18.342599
 13
11.794898
 23
18.342599
  0
SOLID
  8
9
  6
CONTINUOUS
 10
12.191955
 20
18.391035
 11
11.794898
 21
18.342599
 12
12.191955
 22
18.391035
 13
12.191955
 23
18.391035
  0
SOLID
  8
9
  6
CONTINUOUS
 10
9.358458
 20
41.617466
 11
9.310022
 21
42.014523
 12
8.912966
 22
41.966087
 13
8.912966
 23
41.966087
  0
SOLID
  8
9
  6
CONTINUOUS
 10
9.358458
 20
41.617466
 11
8.912966
 21
41.966087
 12
8.961402
 22
41.569030
 13
8.961402
 23
41.569030
  0
SOLID
  8
9
  6
CONTINUOUS
 10
9.358458
 20
41.617466
 11
8.961402
 21
41.569030
 12
9.358458
 22
41.617466
 13
9.358458
 23
41.617466
  0
SOLID
  8
9
  6
CONTINUOUS
 10
64.994294
 20
24.582377
 11
64.956873
 21
24.980623
 12
64.558627
 22
24.943202
 13
64.558627
 23
24.943202
  0
SOLID
  8
9
  6
CONTINUOUS
 10
64.994294
 20
24.582377
 11
64.558627
 21
24.943202
 12
64.596048
 22
24.544956
 13
64.596048
 23
24.544956
  0
SOLID
  8
9
  6
CONTINUOUS
 10
64.994294
 20
24.582377
 11
64.596048
 21
24.544956
 12
64.994294
 22
24.582377
 13
64.994294
 23
24.582377
  0
SOLID
  8
9
  6
CONTINUOUS
 10
62.809596
 20
47.884768
 11
62.772175
 21
48.283014
 12
62.373929
 22
48.245593
 13
62.373929
 23
48.245593
  0
SOLID
  8
9
  6
CONTINUOUS
 10
62.809596
 20
47.884768
 11
62.373929
 21
48.245593
 12
62.411350
 22
47.847347
 13
62.411350
 23
47.847347
  0
SOLID
  8
9
  6
CONTINUOUS
 10
62.809596
 20
47.884768
 11
62.411350
 21
47.847347
 12
62.809596
 22
47.884768
 13
62.809596
 23
47.884768
  0
SOLID
  8
9
  6
CONTINUOUS
 10
8.121581
 20
51.753377
 11
8.024710
 21
52.547490
 12
7.627653
 22
52.499054
 13
7.627653
 23
52.499054
  0
SOLID
  8
9
  6
CONTINUOUS
 10
8.121581
 20
51.753377
 11
7.627653
 21
52.499054
 12
7.724525
 22
51.704941
 13
7.724525
 23
51.704941
  0
SOLID
  8
9
  6
CONTINUOUS
 10
8.121581
 20
51.753377
 11
7.724525
 21
51.704941
 12
8.121581
 22
51.753377
 13
8.121581
 23
51.753377
  0
SOLID
  8
9
  6
CONTINUOUS
 10
13.490591
 20
7.742733
 11
13.393719
 21
8.536846
 12
12.996662
 22
8.488410
 13
12.996662
 23
8.488410
  0
SOLID
  8
9
  6
CONTINUOUS
 10
13.490591
 20
7.742733
 11
12.996662
 21
8.488410
 12
13.093534
 22
7.694297
 13
13.093534
 23
7.694297
  0
SOLID
  8
9
  6
CONTINUOUS
 10
13.490591
 20
7.742733
 11
13.093534
 21
7.694297
 12
13.490591
 22
7.742733
 13
13.490591
 23
7.742733
  0
SOLID
  8
9
  6
CONTINUOUS
 10
21.323904
 20
8.562560
 11
22.118430
 21
8.655980
 12
22.071720
 22
9.053243
 13
22.071720
 23
9.053243
  0
SOLID
  8
9
  6
CONTINUOUS
 10
21.323904
 20
8.562560
 11
22.071720
 21
9.053243
 12
21.277194
 22
8.959823
 13
21.277194
 23
8.959823
  0
SOLID
  8
9
  6
CONTINUOUS
 10
21.323904
 20
8.562560
 11
21.277194
 21
8.959823
 12
21.323904
 22
8.562560
 13
21.323904
 23
8.562560
  0
SOLID
  8
9
  6
CONTINUOUS
 10
45.794829
 20
11.172715
 11
46.589356
 21
11.266134
 12
46.542646
 22
11.663398
 13
46.542646
 23
11.663398
  0
SOLID
  8
9
  6
CONTINUOUS
 10
45.794829
 20
11.172715
 11
46.542646
 21
11.663398
 12
45.748119
 22
11.569978
 13
45.748119
 23
11.569978
  0
SOLID
  8
9
  6
CONTINUOUS
 10
45.794829
 20
11.172715
 11
45.748119
 21
11.569978
 12
45.794829
 22
11.172715
 13
45.794829
 23
11.172715
  0
SOLID
  8
9
  6
CONTINUOUS
 10
65.663806
 20
13.301173
 11
66.061069
 21
13.347883
 12
65.967649
 22
14.142410
 13
65.967649
 23
14.142410
  0
SOLID
  8
9
  6
CONTINUOUS
 10
65.663806
 20
13.301173
 11
65.967649
 21
14.142410
 12
65.570386
 22
14.095700
 13
65.570386
 23
14.095700
  0
SOLID
  8
9
  6
CONTINUOUS
 10
65.663806
 20
13.301173
 11
65.570386
 21
14.095700
 12
65.663806
 22
13.301173
 13
65.663806
 23
13.301173
  0
SOLID
  8
9
  6
CONTINUOUS
 10
89.353455
 20
16.199675
 11
90.147982
 21
16.293094
 12
90.101272
 22
16.690358
 13
90.101272
 23
16.690358
  0
SOLID
  8
9
  6
CONTINUOUS
 10
89.353455
 20
16.199675
 11
90.101272
 21
16.690358
 12
89.306745
 22
16.596938
 13
89.306745
 23
16.596938
  0
SOLID
  8
9
  6
CONTINUOUS
 10
89.353455
 20
16.199675
 11
89.306745
 21
16.596938
 12
89.353455
 22
16.199675
 13
89.353455
 23
16.199675
  0
SOLID
  8
9
  6
CONTINUOUS
 10
61.437990
 20
58.324361
 11
61.835254
 21
58.371071
 12
61.741834
 22
59.165598
 13
61.741834
 23
59.165598
  0
SOLID
  8
9
  6
CONTINUOUS
 10
61.437990
 20
58.324361
 11
61.741834
 21
59.165598
 12
61.344570
 22
59.118888
 13
61.344570
 23
59.118888
  0
SOLID
  8
9
  6
CONTINUOUS
 10
61.437990
 20
58.324361
 11
61.344570
 21
59.118888
 12
61.437990
 22
58.324361
 13
61.437990
 23
58.324361
  0
SOLID
  8
9
  6
CONTINUOUS
 10
85.561210
 20
61.555798
 11
85.958474
 21
61.602508
 12
85.911764
 22
61.999772
 13
85.911764
 23
61.999772
  0
SOLID
  8
9
  6
CONTINUOUS
 10
85.561210
 20
61.555798
 11
85.911764
 21
61.999772
 12
85.514500
 22
61.953062
 13
85.514500
 23
61.953062
  0
SOLID
  8
9
  6
CONTINUOUS
 10
85.561210
 20
61.555798
 11
85.514500
 21
61.953062
 12
85.561210
 22
61.555798
 13
85.561210
 23
61.555798
  0
SOLID
  8
9
  6
CONTINUOUS
 10
43.914317
 20
56.494394
 11
44.311580
 21
56.541104
 12
44.264870
 22
56.938367
 13
44.264870
 23
56.938367
  0
SOLID
  8
9
  6
CONTINUOUS
 10
43.914317
 20
56.494394
 11
44.264870
 21
56.938367
 12
43.867607
 22
56.891657
 13
43.867607
 23
56.891657
  0
SOLID
  8
9
  6
CONTINUOUS
 10
43.914317
 20
56.494394
 11
43.867607
 21
56.891657
 12
43.914317
 22
56.494394
 13
43.914317
 23
56.494394
  0
SOLID
  8
9
  6
CONTINUOUS
 10
63.227081
 20
24.760532
 11
63.189660
 21
25.158778
 12
62.791414
 22
25.121357
 13
62.791414
 23
25.121357
  0
SOLID
  8
9
  6
CONTINUOUS
 10
63.227081
 20
24.760532
 11
62.791414
 21
25.121357
 12
62.828835
 22
24.723111
 13
62.828835
 23
24.723111
  0
SOLID
  8
9
  6
CONTINUOUS
 10
63.227081
 20
24.760532
 11
62.828835
 21
24.723111
 12
63.227081
 22
24.760532
 13
63.227081
 23
24.760532
  0
SOLID
  8
9
  6
CONTINUOUS
 10
61.074245
 20
47.672518
 11
61.036825
 21
48.070764
 12
60.638579
 22
48.033343
 13
60.638579
 23
48.033343
  0
SOLID
  8
9
  6
CONTINUOUS
 10
61.074245
 20
47.672518
 11
60.638579
 21
48.033343
 12
60.676000
 22
47.635097
 13
60.676000
 23
47.635097
  0
SOLID
  8
9
  6
CONTINUOUS
 10
61.074245
 20
47.672518
 11
60.676000
 21
47.635097
 12
61.074245
 22
47.672518
 13
61.074245
 23
47.672518
  0
SOLID
  8
9
  6
CONTINUOUS
 10
63.921054
 20
13.099774
 11
64.318317
 21
13.146484
 12
64.224897
 22
13.941010
 13
64.224897
 23
13.941010
  0
SOLID
  8
9
  6
CONTINUOUS
 10
63.921054
 20
13.099774
 11
64.224897
 21
13.941010
 12
63.827634
 22
13.894301
 13
63.827634
 23
13.894301
  0
SOLID
  8
9
  6
CONTINUOUS
 10
63.921054
 20
13.099774
 11
63.827634
 21
13.894301
 12
63.921054
 22
13.099774
 13
63.921054
 23
13.099774
  0
SOLID
  8
9
  6
CONTINUOUS
 10
59.706307
 20
58.006567
 11
60.103570
 21
58.053277
 12
60.010150
 22
58.847804
 13
60.010150
 23
58.847804
  0
SOLID
  8
9
  6
CONTINUOUS
 10
59.706307
 20
58.006567
 11
60.010150
 21
58.847804
 12
59.612887
 22
58.801094
 13
59.612887
 23
58.801094
  0
SOLID
  8
9
  6
CONTINUOUS
 10
59.706307
 20
58.006567
 11
59.612887
 21
58.801094
 12
59.706307
 22
58.006567
 13
59.706307
 23
58.006567
  0
SOLID
  8
9
  6
CONTINUOUS
 10
92.965643
 20
51.418187
 11
93.362921
 21
51.464772
 12
93.316336
 22
51.862050
 13
93.316336
 23
51.862050
  0
SOLID
  8
9
  6
CONTINUOUS
 10
92.965643
 20
51.418187
 11
93.316336
 21
51.862050
 12
92.919058
 22
51.815465
 13
92.919058
 23
51.815465
  0
SOLID
  8
9
  6
CONTINUOUS
 10
92.965643
 20
51.418187
 11
92.919058
 21
51.815465
 12
92.965643
 22
51.418187
 13
92.965643
 23
51.418187
  0
SOLID
  8
9
  6
CONTINUOUS
 10
95.741963
 20
28.084392
 11
96.139241
 21
28.130977
 12
96.069364
 22
28.726894
 13
96.069364
 23
28.726894
  0
SOLID
  8
9
  6
CONTINUOUS
 10
95.741963
 20
28.084392
 11
96.069364
 21
28.726894
 12
95.672086
 22
28.680309
 13
95.672086
 23
28.680309
  0
SOLID
  8
9
  6
CONTINUOUS
 10
95.741963
 20
28.084392
 11
95.672086
 21
28.680309
 12
95.741963
 22
28.084392
 13
95.741963
 23
28.084392
  0
SOLID
  8
9
  6
CONTINUOUS
 10
74.977227
 20
60.314437
 11
75.970386
 21
60.431212
 12
75.923676
 22
60.828475
 13
75.923676
 23
60.828475
  0
SOLID
  8
9
  6
CONTINUOUS
 10
74.977227
 20
60.314437
 11
75.923676
 21
60.828475
 12
74.930518
 22
60.711701
 13
74.930518
 23
60.711701
  0
SOLID
  8
9
  6
CONTINUOUS
 10
74.977227
 20
60.314437
 11
74.930518
 21
60.711701
 12
74.977227
 22
60.314437
 13
74.977227
 23
60.314437
  0
SOLID
  8
9
  6
CONTINUOUS
 10
80.477539
 20
15.111573
 11
81.272066
 21
15.204993
 12
81.225356
 22
15.602256
 13
81.225356
 23
15.602256
  0
SOLID
  8
9
  6
CONTINUOUS
 10
80.477539
 20
15.111573
 11
81.225356
 21
15.602256
 12
80.430829
 22
15.508837
 13
80.430829
 23
15.508837
  0
SOLID
  8
9
  6
CONTINUOUS
 10
80.477539
 20
15.111573
 11
80.430829
 21
15.508837
 12
80.477539
 22
15.111573
 13
80.477539
 23
15.111573
  0
SOLID
  8
9
  6
CONTINUOUS
 10
10.768689
 20
30.056447
 11
10.720253
 21
30.453503
 12
10.323197
 22
30.405067
 13
10.323197
 23
30.405067
  0
SOLID
  8
9
  6
CONTINUOUS
 10
10.768689
 20
30.056447
 11
10.323197
 21
30.405067
 12
10.371633
 22
30.008011
 13
10.371633
 23
30.008011
  0
SOLID
  8
9
  6
CONTINUOUS
 10
10.768689
 20
30.056447
 11
10.371633
 21
30.008011
 12
10.768689
 22
30.056447
 13
10.768689
 23
30.056447
  0
SOLID
  8
9
  6
CONTINUOUS
 10
62.166237
 20
36.074182
 11
62.128816
 21
36.472428
 12
61.730571
 22
36.435007
 13
61.730571
 23
36.435007
  0
SOLID
  8
9
  6
CONTINUOUS
 10
62.166237
 20
36.074182
 11
61.730571
 21
36.435007
 12
61.767991
 22
36.036762
 13
61.767991
 23
36.036762
  0
SOLID
  8
9
  6
CONTINUOUS
 10
62.166237
 20
36.074182
 11
61.767991
 21
36.036762
 12
62.166237
 22
36.074182
 13
62.166237
 23
36.074182
  0
SOLID
  8
9
  6
CONTINUOUS
 10
63.894301
 20
36.285796
 11
63.856880
 21
36.684042
 12
63.458634
 22
36.646621
 13
63.458634
 23
36.646621
  0
SOLID
  8
9
  6
CONTINUOUS
 10
63.894301
 20
36.285796
 11
63.458634
 21
36.646621
 12
63.496055
 22
36.248375
 13
63.496055
 23
36.248375
  0
SOLID
  8
9
  6
CONTINUOUS
 10
63.894301
 20
36.285796
 11
63.496055
 21
36.248375
 12
63.894301
 22
36.285796
 13
63.894301
 23
36.285796
  0
SOLID
  8
9
  6
CONTINUOUS
 10
94.346279
 20
39.815813
 11
94.743557
 21
39.862398
 12
94.627094
 22
40.855593
 13
94.627094
 23
40.855593
  0
SOLID
  8
9
  6
CONTINUOUS
 10
94.346279
 20
39.815813
 11
94.627094
 21
40.855593
 12
94.229816
 22
40.809008
 13
94.229816
 23
40.809008
  0
SOLID
  8
9
  6
CONTINUOUS
 10
94.346279
 20
39.815813
 11
94.229816
 21
40.809008
 12
94.346279
 22
39.815813
 13
94.346279
 23
39.815813
  0
SOLID
  8
9
  6
CONTINUOUS
 10
96.841026
 20
18.849563
 11
97.238304
 21
18.896148
 12
97.145134
 22
19.690704
 13
97.145134
 23
19.690704
  0
SOLID
  8
9
  6
CONTINUOUS
 10
96.841026
 20
18.849563
 11
97.145134
 21
19.690704
 12
96.747856
 22
19.644119
 13
96.747856
 23
19.644119
  0
SOLID
  8
9
  6
CONTINUOUS
 10
96.841026
 20
18.849563
 11
96.747856
 21
19.644119
 12
96.841026
 22
18.849563
 13
96.841026
 23
18.849563
  0
SOLID
  8
9
  6
CONTINUOUS
 10
31.962715
 20
9.699345
 11
32.757242
 21
9.792764
 12
32.710532
 22
10.190028
 13
32.710532
 23
10.190028
  0
SOLID
  8
9
  6
CONTINUOUS
 10
31.962715
 20
9.699345
 11
32.710532
 21
10.190028
 12
31.916005
 22
10.096608
 13
31.916005
 23
10.096608
  0
SOLID
  8
9
  6
CONTINUOUS
 10
31.962715
 20
9.699345
 11
31.916005
 21
10.096608
 12
31.962715
 22
9.699345
 13
31.962715
 23
9.699345
  0
SOLID
  8
9
  6
CONTINUOUS
 10
56.223821
 20
12.282740
 11
56.621085
 21
12.329450
 12
56.574375
 22
12.726713
 13
56.574375
 23
12.726713
  0
SOLID
  8
9
  6
CONTINUOUS
 10
56.223821
 20
12.282740
 11
56.574375
 21
12.726713
 12
56.177111
 22
12.680003
 13
56.177111
 23
12.680003
  0
SOLID
  8
9
  6
CONTINUOUS
 10
56.223821
 20
12.282740
 11
56.177111
 21
12.680003
 12
56.223821
 22
12.282740
 13
56.223821
 23
12.282740
  0
SOLID
  8
9
  6
CONTINUOUS
 10
73.063206
 20
14.207435
 11
73.857732
 21
14.300854
 12
73.811022
 22
14.698118
 13
73.811022
 23
14.698118
  0
SOLID
  8
9
  6
CONTINUOUS
 10
73.063206
 20
14.207435
 11
73.811022
 21
14.698118
 12
73.016496
 22
14.604698
 13
73.016496
 23
14.604698
  0
SOLID
  8
9
  6
CONTINUOUS
 10
73.063206
 20
14.207435
 11
73.016496
 21
14.604698
 12
73.063206
 22
14.207435
 13
73.063206
 23
14.207435
  0
SOLID
  8
9
  6
CONTINUOUS
 10
24.880343
 20
54.190413
 11
25.873501
 21
54.307188
 12
25.826792
 22
54.704451
 13
25.826792
 23
54.704451
  0
SOLID
  8
9
  6
CONTINUOUS
 10
24.880343
 20
54.190413
 11
25.826792
 21
54.704451
 12
24.833633
 22
54.587676
 13
24.833633
 23
54.587676
  0
SOLID
  8
9
  6
CONTINUOUS
 10
24.880343
 20
54.190413
 11
24.833633
 21
54.587676
 12
24.880343
 22
54.190413
 13
24.880343
 23
54.190413
  0
SOLID
  8
9
  6
CONTINUOUS
 10
35.473817
 20
55.472056
 11
35.871080
 21
55.518766
 12
35.824370
 22
55.916030
 13
35.824370
 23
55.916030
  0
SOLID
  8
9
  6
CONTINUOUS
 10
35.473817
 20
55.472056
 11
35.824370
 21
55.916030
 12
35.427107
 22
55.869320
 13
35.427107
 23
55.869320
  0
SOLID
  8
9
  6
CONTINUOUS
 10
35.473817
 20
55.472056
 11
35.427107
 21
55.869320
 12
35.473817
 22
55.472056
 13
35.473817
 23
55.472056
  0
SOLID
  8
9
  6
CONTINUOUS
 10
78.114557
 20
37.852487
 11
78.710474
 21
37.922365
 12
78.640596
 22
38.518282
 13
78.640596
 23
38.518282
  0
SOLID
  8
9
  6
CONTINUOUS
 10
78.114557
 20
37.852487
 11
78.640596
 21
38.518282
 12
78.044679
 22
38.448404
 13
78.044679
 23
38.448404
  0
SOLID
  8
9
  6
CONTINUOUS
 10
78.114557
 20
37.852487
 11
78.044679
 21
38.448404
 12
78.114557
 22
37.852487
 13
78.114557
 23
37.852487
  0
SOLID
  8
9
  6
CONTINUOUS
 10
26.769807
 20
31.832066
 11
27.365724
 21
31.901944
 12
27.295846
 22
32.497861
 13
27.295846
 23
32.497861
  0
SOLID
  8
9
  6
CONTINUOUS
 10
26.769807
 20
31.832066
 11
27.295846
 21
32.497861
 12
26.699929
 22
32.427983
 13
26.699929
 23
32.427983
  0
SOLID
  8
9
  6
CONTINUOUS
 10
26.769807
 20
31.832066
 11
26.699929
 21
32.427983
 12
26.769807
 22
31.832066
 13
26.769807
 23
31.832066
  0
SOLID
  8
9
  6
CONTINUOUS
 10
46.435228
 20
34.137952
 11
47.031145
 21
34.207830
 12
46.961267
 22
34.803747
 13
46.961267
 23
34.803747
  0
SOLID
  8
9
  6
CONTINUOUS
 10
46.435228
 20
34.137952
 11
46.961267
 21
34.803747
 12
46.365350
 22
34.733869
 13
46.365350
 23
34.733869
  0
SOLID
  8
9
  6
CONTINUOUS
 10
46.435228
 20
34.137952
 11
46.365350
 21
34.733869
 12
46.435228
 22
34.137952
 13
46.435228
 23
34.137952
  0
SOLID
  8
9
  6
CONTINUOUS
 10
91.870182
 20
60.618226
 11
92.267460
 21
60.664811
 12
92.174290
 22
61.459367
 13
92.174290
 23
61.459367
  0
SOLID
  8
9
  6
CONTINUOUS
 10
91.870182
 20
60.618226
 11
92.174290
 21
61.459367
 12
91.777012
 22
61.412782
 13
91.777012
 23
61.412782
  0
SOLID
  8
9
  6
CONTINUOUS
 10
91.870182
 20
60.618226
 11
91.777012
 21
61.412782
 12
91.870182
 22
60.618226
 13
91.870182
 23
60.618226
  0
SOLID
  8
9
  6
CONTINUOUS
 10
16.805375
 20
53.210397
 11
17.401270
 21
53.280462
 12
17.354560
 22
53.677725
 13
17.354560
 23
53.677725
  0
SOLID
  8
9
  6
CONTINUOUS
 10
16.805375
 20
53.210397
 11
17.354560
 21
53.677725
 12
16.758665
 22
53.607660
 13
16.758665
 23
53.607660
  0
SOLID
  8
9
  6
CONTINUOUS
 10
16.805375
 20
53.210397
 11
16.758665
 21
53.607660
 12
16.805375
 22
53.210397
 13
16.805375
 23
53.210397
  0
SOLID
  8
9
  6
CONTINUOUS
 10
85.555131
 20
26.892635
 11
86.151048
 21
26.962513
 12
86.081170
 22
27.558430
 13
86.081170
 23
27.558430
  0
SOLID
  8
9
  6
CONTINUOUS
 10
85.555131
 20
26.892635
 11
86.081170
 21
27.558430
 12
85.485253
 22
27.488552
 13
85.485253
 23
27.488552
  0
SOLID
  8
9
  6
CONTINUOUS
 10
85.555131
 20
26.892635
 11
85.485253
 21
27.488552
 12
85.555131
 22
26.892635
 13
85.555131
 23
26.892635
  0
SOLID
  8
6
  6
CONTINUOUS
 10
78.761939
 20
38.016572
 11
78.787011
 21
37.802759
 12
79.115483
 22
38.058029
 13
79.115483
 23
38.058029
  0
SOLID
  8
6
  6
CONTINUOUS
 10
78.787011
 20
37.802759
 11
79.140555
 21
37.844216
 12
79.115483
 22
38.058029
 13
79.115483
 23
38.058029
  0
SOLID
  8
6
  6
CONTINUOUS
 10
79.115483
 20
38.058029
 11
79.140555
 21
37.844216
 12
79.595445
 22
38.005933
 13
79.595445
 23
38.005933
  0
SOLID
  8
6
  6
CONTINUOUS
 10
79.140555
 20
37.844216
 11
79.152539
 21
37.742012
 12
79.595445
 22
38.005933
 13
79.595445
 23
38.005933
  0
SOLID
  8
6
  6
CONTINUOUS
 10
79.115483
 20
38.058029
 11
79.595445
 21
38.005933
 12
79.103499
 22
38.160232
 13
79.103499
 23
38.160232
  0
SOLID
  8
6
  6
CONTINUOUS
 10
35.973166
 20
33.204010
 11
35.998238
 21
32.990197
 12
36.326710
 22
33.245467
 13
36.326710
 23
33.245467
  0
SOLID
  8
6
  6
CONTINUOUS
 10
35.998238
 20
32.990197
 11
36.351782
 21
33.031653
 12
36.326710
 22
33.245467
 13
36.326710
 23
33.245467
  0
SOLID
  8
6
  6
CONTINUOUS
 10
36.326710
 20
33.245467
 11
36.351782
 21
33.031653
 12
36.806672
 22
33.193371
 13
36.806672
 23
33.193371
  0
SOLID
  8
6
  6
CONTINUOUS
 10
36.351782
 20
33.031653
 11
36.363766
 21
32.929450
 12
36.806672
 22
33.193371
 13
36.806672
 23
33.193371
  0
SOLID
  8
6
  6
CONTINUOUS
 10
36.326710
 20
33.245467
 11
36.806672
 21
33.193371
 12
36.314726
 22
33.347670
 13
36.314726
 23
33.347670
  0
SOLID
  8
13
  6
CONTINUOUS
 10
102.095046
 20
10.244446
 11
102.095046
 21
9.498246
 12
101.971546
 22
9.498246
 13
101.971546
 23
9.498246
  0
SOLID
  8
13
  6
CONTINUOUS
 10
102.095046
 20
10.244446
 11
101.971546
 21
9.498246
 12
101.971546
 22
11.162246
 13
101.971546
 23
11.162246
  0
SOLID
  8
13
  6
CONTINUOUS
 10
102.095046
 20
10.244446
 11
101.971546
 21
11.162246
 12
102.095046
 22
11.162246
 13
102.095046
 23
11.162246
  0
SOLID
  8
13
  6
CONTINUOUS
 10
102.095046
 20
10.244446
 11
102.095046
 21
11.162246
 12
102.095046
 22
10.244446
 13
102.095046
 23
10.244446
  0
SOLID
  8
13
  6
CONTINUOUS
 10
102.522746
 20
10.230979
 11
102.522746
 21
9.498246
 12
102.095046
 22
9.498246
 13
102.095046
 23
9.498246
  0
SOLID
  8
13
  6
CONTINUOUS
 10
102.522746
 20
10.230979
 11
102.095046
 21
9.498246
 12
102.095046
 22
10.244446
 13
102.095046
 23
10.244446
  0
SOLID
  8
13
  6
CONTINUOUS
 10
102.522746
 20
10.230979
 11
102.095046
 21
10.244446
 12
102.143544
 22
10.248642
 13
102.143544
 23
10.248642
  0
SOLID
  8
13
  6
CONTINUOUS
 10
102.522746
 20
10.230979
 11
102.143544
 21
10.248642
 12
102.211078
 22
10.252071
 13
102.211078
 23
10.252071
  0
SOLID
  8
13
  6
CONTINUOUS
 10
102.522746
 20
10.230979
 11
102.211078
 21
10.252071
 12
102.259959
 22
10.252484
 13
102.259959
 23
10.252484
  0
SOLID
  8
13
  6
CONTINUOUS
 10
102.522746
 20
10.230979
 11
102.259959
 21
10.252484
 12
102.290321
 22
10.252141
 13
102.290321
 23
10.252141
  0
SOLID
  8
13
  6
CONTINUOUS
 10
102.522746
 20
10.230979
 11
102.290321
 21
10.252141
 12
102.334203
 22
10.250668
 13
102.334203
 23
10.250668
  0
SOLID
  8
13
  6
CONTINUOUS
 10
102.522746
 20
10.230979
 11
102.334203
 21
10.250668
 12
102.394518
 22
10.246747
 13
102.394518
 23
10.246747
  0
SOLID
  8
13
  6
CONTINUOUS
 10
102.522746
 20
10.230979
 11
102.394518
 21
10.246747
 12
102.446340
 22
10.241621
 13
102.446340
 23
10.241621
  0
SOLID
  8
13
  6
CONTINUOUS
 10
102.522746
 20
10.230979
 11
102.446340
 21
10.241621
 12
102.490083
 22
10.235974
 13
102.490083
 23
10.235974
  0
SOLID
  8
13
  6
CONTINUOUS
 10
102.522746
 20
10.230979
 11
102.490083
 21
10.235974
 12
102.522746
 22
10.230979
 13
102.522746
 23
10.230979
  0
SOLID
  8
13
  6
CONTINUOUS
 10
102.594246
 20
10.217654
 11
102.594246
 21
9.498246
 12
103.021946
 22
9.498246
 13
103.021946
 23
9.498246
  0
SOLID
  8
13
  6
CONTINUOUS
 10
102.594246
 20
10.217654
 11
103.021946
 21
9.498246
 12
103.021946
 22
10.064184
 13
103.021946
 23
10.064184
  0
SOLID
  8
13
  6
CONTINUOUS
 10
102.594246
 20
10.217654
 11
103.021946
 21
10.064184
 12
103.003898
 22
10.073542
 13
103.003898
 23
10.073542
  0
SOLID
  8
13
  6
CONTINUOUS
 10
102.594246
 20
10.217654
 11
103.003898
 21
10.073542
 12
102.981716
 22
10.084501
 13
102.981716
 23
10.084501
  0
SOLID
  8
13
  6
CONTINUOUS
 10
102.594246
 20
10.217654
 11
102.981716
 21
10.084501
 12
102.953307
 22
10.098271
 13
102.953307
 23
10.098271
  0
SOLID
  8
13
  6
CONTINUOUS
 10
102.594246
 20
10.217654
 11
102.953307
 21
10.098271
 12
102.912865
 22
10.116383
 13
102.912865
 23
10.116383
  0
SOLID
  8
13
  6
CONTINUOUS
 10
102.594246
 20
10.217654
 11
102.912865
 21
10.116383
 12
102.885024
 22
10.128001
 13
102.885024
 23
10.128001
  0
SOLID
  8
13
  6
CONTINUOUS
 10
102.594246
 20
10.217654
 11
102.885024
 21
10.128001
 12
102.844071
 22
10.144755
 13
102.844071
 23
10.144755
  0
SOLID
  8
13
  6
CONTINUOUS
 10
102.594246
 20
10.217654
 11
102.844071
 21
10.144755
 12
102.813490
 22
10.155923
 13
102.813490
 23
10.155923
  0
SOLID
  8
13
  6
CONTINUOUS
 10
102.594246
 20
10.217654
 11
102.813490
 21
10.155923
 12
102.778388
 22
10.168156
 13
102.778388
 23
10.168156
  0
SOLID
  8
13
  6
CONTINUOUS
 10
102.594246
 20
10.217654
 11
102.778388
 21
10.168156
 12
102.744083
 22
10.178793
 13
102.744083
 23
10.178793
  0
SOLID
  8
13
  6
CONTINUOUS
 10
102.594246
 20
10.217654
 11
102.744083
 21
10.178793
 12
102.703465
 22
10.191172
 13
102.703465
 23
10.191172
  0
SOLID
  8
13
  6
CONTINUOUS
 10
102.594246
 20
10.217654
 11
102.703465
 21
10.191172
 12
102.665141
 22
10.201162
 13
102.665141
 23
10.201162
  0
SOLID
  8
13
  6
CONTINUOUS
 10
102.594246
 20
10.217654
 11
102.665141
 21
10.201162
 12
102.624819
 22
10.210970
 13
102.624819
 23
10.210970
  0
SOLID
  8
13
  6
CONTINUOUS
 10
102.594246
 20
10.217654
 11
102.624819
 21
10.210970
 12
102.594246
 22
10.217654
 13
102.594246
 23
10.217654
  0
SOLID
  8
13
  6
CONTINUOUS
 10
103.093446
 20
10.024343
 11
103.093446
 21
9.498246
 12
103.521146
 22
9.498246
 13
103.521146
 23
9.498246
  0
SOLID
  8
13
  6
CONTINUOUS
 10
103.093446
 20
10.024343
 11
103.521146
 21
9.498246
 12
103.521146
 22
9.661030
 13
103.521146
 23
9.661030
  0
SOLID
  8
13
  6
CONTINUOUS
 10
103.093446
 20
10.024343
 11
103.521146
 21
9.661030
 12
103.507797
 22
9.676793
 13
103.507797
 23
9.676793
  0
SOLID
  8
13
  6
CONTINUOUS
 10
103.093446
 20
10.024343
 11
103.507797
 21
9.676793
 12
103.495964
 22
9.690528
 13
103.495964
 23
9.690528
  0
SOLID
  8
13
  6
CONTINUOUS
 10
103.093446
 20
10.024343
 11
103.495964
 21
9.690528
 12
103.473877
 22
9.715277
 13
103.473877
 23
9.715277
  0
SOLID
  8
13
  6
CONTINUOUS
 10
103.093446
 20
10.024343
 11
103.473877
 21
9.715277
 12
103.454164
 22
9.736530
 13
103.454164
 23
9.736530
  0
SOLID
  8
13
  6
CONTINUOUS
 10
103.093446
 20
10.024343
 11
103.454164
 21
9.736530
 12
103.434048
 22
9.757502
 13
103.434048
 23
9.757502
  0
SOLID
  8
13
  6
CONTINUOUS
 10
103.093446
 20
10.024343
 11
103.434048
 21
9.757502
 12
103.410015
 22
9.781535
 13
103.410015
 23
9.781535
  0
SOLID
  8
13
  6
CONTINUOUS
 10
103.093446
 20
10.024343
 11
103.410015
 21
9.781535
 12
103.399294
 22
9.791943
 13
103.399294
 23
9.791943
  0
SOLID
  8
13
  6
CONTINUOUS
 10
103.093446
 20
10.024343
 11
103.399294
 21
9.791943
 12
103.388429
 22
9.802406
 13
103.388429
 23
9.802406
  0
SOLID
  8
13
  6
CONTINUOUS
 10
103.093446
 20
10.024343
 11
103.388429
 21
9.802406
 12
103.359952
 22
9.828752
 13
103.359952
 23
9.828752
  0
SOLID
  8
13
  6
CONTINUOUS
 10
103.093446
 20
10.024343
 11
103.359952
 21
9.828752
 12
103.325139
 22
9.859181
 13
103.325139
 23
9.859181
  0
SOLID
  8
13
  6
CONTINUOUS
 10
103.093446
 20
10.024343
 11
103.325139
 21
9.859181
 12
103.286846
 22
9.890826
 13
103.286846
 23
9.890826
  0
SOLID
  8
13
  6
CONTINUOUS
 10
103.093446
 20
10.024343
 11
103.286846
 21
9.890826
 12
103.251036
 22
9.918745
 13
103.251036
 23
9.918745
  0
SOLID
  8
13
  6
CONTINUOUS
 10
103.093446
 20
10.024343
 11
103.251036
 21
9.918745
 12
103.200839
 22
9.955427
 13
103.200839
 23
9.955427
  0
SOLID
  8
13
  6
CONTINUOUS
 10
103.093446
 20
10.024343
 11
103.200839
 21
9.955427
 12
103.134352
 22
9.999676
 13
103.134352
 23
9.999676
  0
SOLID
  8
13
  6
CONTINUOUS
 10
103.093446
 20
10.024343
 11
103.134352
 21
9.999676
 12
103.093446
 22
10.024343
 13
103.093446
 23
10.024343
  0
SOLID
  8
13
  6
CONTINUOUS
 10
102.522746
 20
10.635283
 11
102.522746
 21
11.162246
 12
102.095046
 22
11.162246
 13
102.095046
 23
11.162246
  0
SOLID
  8
13
  6
CONTINUOUS
 10
102.522746
 20
10.635283
 11
102.095046
 21
11.162246
 12
102.095046
 22
10.995122
 13
102.095046
 23
10.995122
  0
SOLID
  8
13
  6
CONTINUOUS
 10
102.522746
 20
10.635283
 11
102.095046
 21
10.995122
 12
102.153689
 22
10.929235
 13
102.153689
 23
10.929235
  0
SOLID
  8
13
  6
CONTINUOUS
 10
102.522746
 20
10.635283
 11
102.153689
 21
10.929235
 12
102.237359
 22
10.846559
 13
102.237359
 23
10.846559
  0
SOLID
  8
13
  6
CONTINUOUS
 10
102.522746
 20
10.635283
 11
102.237359
 21
10.846559
 12
102.308389
 22
10.784730
 13
102.308389
 23
10.784730
  0
SOLID
  8
13
  6
CONTINUOUS
 10
102.522746
 20
10.635283
 11
102.308389
 21
10.784730
 12
102.366624
 22
10.739274
 13
102.366624
 23
10.739274
  0
SOLID
  8
13
  6
CONTINUOUS
 10
102.522746
 20
10.635283
 11
102.366624
 21
10.739274
 12
102.406322
 22
10.710064
 13
102.406322
 23
10.710064
  0
SOLID
  8
13
  6
CONTINUOUS
 10
102.522746
 20
10.635283
 11
102.406322
 21
10.710064
 12
102.455827
 22
10.676682
 13
102.455827
 23
10.676682
  0
SOLID
  8
13
  6
CONTINUOUS
 10
102.522746
 20
10.635283
 11
102.455827
 21
10.676682
 12
102.493954
 22
10.652515
 13
102.493954
 23
10.652515
  0
SOLID
  8
13
  6
CONTINUOUS
 10
102.522746
 20
10.635283
 11
102.493954
 21
10.652515
 12
102.522746
 22
10.635283
 13
102.522746
 23
10.635283
  0
SOLID
  8
13
  6
CONTINUOUS
 10
103.021946
 20
10.443678
 11
103.021946
 21
11.162246
 12
102.594246
 22
11.162246
 13
102.594246
 23
11.162246
  0
SOLID
  8
13
  6
CONTINUOUS
 10
103.021946
 20
10.443678
 11
102.594246
 21
11.162246
 12
102.594246
 22
10.595859
 13
102.594246
 23
10.595859
  0
SOLID
  8
13
  6
CONTINUOUS
 10
103.021946
 20
10.443678
 11
102.594246
 21
10.595859
 12
102.663800
 22
10.561766
 13
102.663800
 23
10.561766
  0
SOLID
  8
13
  6
CONTINUOUS
 10
103.021946
 20
10.443678
 11
102.663800
 21
10.561766
 12
102.744359
 22
10.527375
 13
102.744359
 23
10.527375
  0
SOLID
  8
13
  6
CONTINUOUS
 10
103.021946
 20
10.443678
 11
102.744359
 21
10.527375
 12
102.812197
 22
10.501464
 13
102.812197
 23
10.501464
  0
SOLID
  8
13
  6
CONTINUOUS
 10
103.021946
 20
10.443678
 11
102.812197
 21
10.501464
 12
102.889458
 22
10.476967
 13
102.889458
 23
10.476967
  0
SOLID
  8
13
  6
CONTINUOUS
 10
103.021946
 20
10.443678
 11
102.889458
 21
10.476967
 12
102.950702
 22
10.460007
 13
102.950702
 23
10.460007
  0
SOLID
  8
13
  6
CONTINUOUS
 10
103.021946
 20
10.443678
 11
102.950702
 21
10.460007
 12
103.021946
 22
10.443678
 13
103.021946
 23
10.443678
  0
SOLID
  8
13
  6
CONTINUOUS
 10
103.093446
 20
10.430307
 11
103.093446
 21
11.162246
 12
103.521146
 22
11.162246
 13
103.521146
 23
11.162246
  0
SOLID
  8
13
  6
CONTINUOUS
 10
103.093446
 20
10.430307
 11
103.521146
 21
11.162246
 12
103.521146
 22
10.417580
 13
103.521146
 23
10.417580
  0
SOLID
  8
13
  6
CONTINUOUS
 10
103.093446
 20
10.430307
 11
103.521146
 21
10.417580
 12
103.476372
 22
10.413637
 13
103.476372
 23
10.413637
  0
SOLID
  8
13
  6
CONTINUOUS
 10
103.093446
 20
10.430307
 11
103.476372
 21
10.413637
 12
103.416577
 22
10.410480
 13
103.416577
 23
10.410480
  0
SOLID
  8
13
  6
CONTINUOUS
 10
103.093446
 20
10.430307
 11
103.416577
 21
10.410480
 12
103.366788
 22
10.409453
 13
103.366788
 23
10.409453
  0
SOLID
  8
13
  6
CONTINUOUS
 10
103.093446
 20
10.430307
 11
103.366788
 21
10.409453
 12
103.336830
 22
10.409453
 13
103.336830
 23
10.409453
  0
SOLID
  8
13
  6
CONTINUOUS
 10
103.093446
 20
10.430307
 11
103.336830
 21
10.409453
 12
103.286182
 22
10.410821
 13
103.286182
 23
10.410821
  0
SOLID
  8
13
  6
CONTINUOUS
 10
103.093446
 20
10.430307
 11
103.286182
 21
10.410821
 12
103.241261
 22
10.413321
 13
103.241261
 23
10.413321
  0
SOLID
  8
13
  6
CONTINUOUS
 10
103.093446
 20
10.430307
 11
103.241261
 21
10.413321
 12
103.205545
 22
10.416539
 13
103.205545
 23
10.416539
  0
SOLID
  8
13
  6
CONTINUOUS
 10
103.093446
 20
10.430307
 11
103.205545
 21
10.416539
 12
103.155349
 22
10.421044
 13
103.155349
 23
10.421044
  0
SOLID
  8
13
  6
CONTINUOUS
 10
103.093446
 20
10.430307
 11
103.155349
 21
10.421044
 12
103.093446
 22
10.430307
 13
103.093446
 23
10.430307
  0
SOLID
  8
13
  6
CONTINUOUS
 10
102.594246
 20
9.498246
 11
102.594246
 21
11.162246
 12
102.522746
 22
11.162246
 13
102.522746
 23
11.162246
  0
SOLID
  8
13
  6
CONTINUOUS
 10
102.594246
 20
9.498246
 11
102.522746
 21
11.162246
 12
102.522746
 22
9.498246
 13
102.522746
 23
9.498246
  0
SOLID
  8
13
  6
CONTINUOUS
 10
102.594246
 20
9.498246
 11
102.522746
 21
9.498246
 12
102.522746
 22
9.498246
 13
102.522746
 23
9.498246
  0
SOLID
  8
13
  6
CONTINUOUS
 10
103.021946
 20
11.162246
 11
103.093446
 21
11.162246
 12
103.093446
 22
9.498246
 13
103.093446
 23
9.498246
  0
SOLID
  8
13
  6
CONTINUOUS
 10
103.021946
 20
11.162246
 11
103.093446
 21
9.498246
 12
103.021946
 22
9.498246
 13
103.021946
 23
9.498246
  0
SOLID
  8
13
  6
CONTINUOUS
 10
103.021946
 20
11.162246
 11
103.021946
 21
9.498246
 12
103.021946
 22
11.162246
 13
103.021946
 23
11.162246
  0
SOLID
  8
13
  6
CONTINUOUS
 10
103.521146
 20
9.498246
 11
103.635546
 21
9.498246
 12
103.635546
 22
11.162246
 13
103.635546
 23
11.162246
  0
SOLID
  8
13
  6
CONTINUOUS
 10
103.521146
 20
9.498246
 11
103.635546
 21
11.162246
 12
103.521146
 22
11.162246
 13
103.521146
 23
11.162246
  0
SOLID
  8
13
  6
CONTINUOUS
 10
103.521146
 20
9.498246
 11
103.521146
 21
11.162246
 12
103.521146
 22
9.498246
 13
103.521146
 23
9.498246
  0
POLYLINE
  8
3
  6
CONTINUOUS
 66
     1
  0
VERTEX
  8
3
  6
CONTINUOUS
 10
21.276640
 20
8.964528
  0
VERTEX
  8
3
  6
CONTINUOUS
 10
13.442489
 20
8.137055
  0
SEQEND
  8
3
  6
CONTINUOUS
  0
POLYLINE
  8
3
  6
CONTINUOUS
 66
     1
  0
VERTEX
  8
3
  6
CONTINUOUS
 10
13.318142
 20
7.721696
  0
VERTEX
  8
3
  6
CONTINUOUS
 10
21.323354
 20
8.567237
  0
SEQEND
  8
3
  6
CONTINUOUS
  0
POLYLINE
  8
3
  6
CONTINUOUS
 66
     1
  0
VERTEX
  8
3
  6
CONTINUOUS
 10
31.915509
 20
10.100827
  0
VERTEX
  8
3
  6
CONTINUOUS
 10
22.072214
 20
9.049046
  0
SEQEND
  8
3
  6
CONTINUOUS
  0
POLYLINE
  8
3
  6
CONTINUOUS
 66
     1
  0
VERTEX
  8
3
  6
CONTINUOUS
 10
22.118926
 20
8.651760
  0
VERTEX
  8
3
  6
CONTINUOUS
 10
31.962222
 20
9.703542
  0
SEQEND
  8
3
  6
CONTINUOUS
  0
POLYLINE
  8
3
  6
CONTINUOUS
 66
     1
  0
VERTEX
  8
3
  6
CONTINUOUS
 10
45.747608
 20
11.574330
  0
VERTEX
  8
3
  6
CONTINUOUS
 10
32.711041
 20
10.185700
  0
SEQEND
  8
3
  6
CONTINUOUS
  0
POLYLINE
  8
3
  6
CONTINUOUS
 66
     1
  0
VERTEX
  8
3
  6
CONTINUOUS
 10
32.757754
 20
9.788413
  0
VERTEX
  8
3
  6
CONTINUOUS
 10
45.794320
 20
11.177042
  0
SEQEND
  8
3
  6
CONTINUOUS
  0
POLYLINE
  8
3
  6
CONTINUOUS
 66
     1
  0
VERTEX
  8
3
  6
CONTINUOUS
 10
56.177030
 20
12.680694
  0
VERTEX
  8
3
  6
CONTINUOUS
 10
46.543176
 20
11.658892
  0
SEQEND
  8
3
  6
CONTINUOUS
  0
POLYLINE
  8
3
  6
CONTINUOUS
 66
     1
  0
VERTEX
  8
3
  6
CONTINUOUS
 10
46.589889
 20
11.261603
  0
VERTEX
  8
3
  6
CONTINUOUS
 10
56.223743
 20
12.283405
  0
SEQEND
  8
3
  6
CONTINUOUS
  0
POLYLINE
  8
3
  6
CONTINUOUS
 66
     1
  0
VERTEX
  8
3
  6
CONTINUOUS
 10
63.874337
 20
13.497098
  0
VERTEX
  8
3
  6
CONTINUOUS
 10
56.574825
 20
12.722886
  0
SEQEND
  8
3
  6
CONTINUOUS
  0
POLYLINE
  8
3
  6
CONTINUOUS
 66
     1
  0
VERTEX
  8
3
  6
CONTINUOUS
 10
56.621538
 20
12.325597
  0
VERTEX
  8
3
  6
CONTINUOUS
 10
63.924183
 20
13.100142
  0
SEQEND
  8
3
  6
CONTINUOUS
  0
POLYLINE
  8
3
  6
CONTINUOUS
 66
     1
  0
VERTEX
  8
3
  6
CONTINUOUS
 10
16.758883
 20
53.605810
  0
VERTEX
  8
3
  6
CONTINUOUS
 10
8.024711
 20
52.547483
  0
SEQEND
  8
3
  6
CONTINUOUS
  0
POLYLINE
  8
3
  6
CONTINUOUS
 66
     1
  0
VERTEX
  8
3
  6
CONTINUOUS
 10
8.073146
 20
52.150426
  0
VERTEX
  8
3
  6
CONTINUOUS
 10
16.805593
 20
53.208544
  0
SEQEND
  8
3
  6
CONTINUOUS
  0
POLYLINE
  8
3
  6
CONTINUOUS
 66
     1
  0
VERTEX
  8
3
  6
CONTINUOUS
 10
24.834032
 20
54.584282
  0
VERTEX
  8
3
  6
CONTINUOUS
 10
17.354530
 20
53.677985
  0
SEQEND
  8
3
  6
CONTINUOUS
  0
POLYLINE
  8
3
  6
CONTINUOUS
 66
     1
  0
VERTEX
  8
3
  6
CONTINUOUS
 10
17.401240
 20
53.280719
  0
VERTEX
  8
3
  6
CONTINUOUS
 10
24.880742
 20
54.187016
  0
SEQEND
  8
3
  6
CONTINUOUS
  0
POLYLINE
  8
3
  6
CONTINUOUS
 66
     1
  0
VERTEX
  8
3
  6
CONTINUOUS
 10
35.427256
 20
55.868051
  0
VERTEX
  8
3
  6
CONTINUOUS
 10
25.826776
 20
54.704582
  0
SEQEND
  8
3
  6
CONTINUOUS
  0
POLYLINE
  8
3
  6
CONTINUOUS
 66
     1
  0
VERTEX
  8
3
  6
CONTINUOUS
 10
25.873486
 20
54.307317
  0
VERTEX
  8
3
  6
CONTINUOUS
 10
35.473966
 20
55.470785
  0
SEQEND
  8
3
  6
CONTINUOUS
  0
POLYLINE
  8
3
  6
CONTINUOUS
 66
     1
  0
VERTEX
  8
3
  6
CONTINUOUS
 10
43.867692
 20
56.890936
  0
VERTEX
  8
3
  6
CONTINUOUS
 10
35.824353
 20
55.916175
  0
SEQEND
  8
3
  6
CONTINUOUS
  0
POLYLINE
  8
3
  6
CONTINUOUS
 66
     1
  0
VERTEX
  8
3
  6
CONTINUOUS
 10
35.871063
 20
55.518909
  0
VERTEX
  8
3
  6
CONTINUOUS
 10
43.914402
 20
56.493670
  0
SEQEND
  8
3
  6
CONTINUOUS
  0
POLYLINE
  8
3
  6
CONTINUOUS
 66
     1
  0
VERTEX
  8
3
  6
CONTINUOUS
 10
59.612908
 20
58.800913
  0
VERTEX
  8
3
  6
CONTINUOUS
 10
44.264786
 20
56.939083
  0
SEQEND
  8
3
  6
CONTINUOUS
  0
POLYLINE
  8
3
  6
CONTINUOUS
 66
     1
  0
VERTEX
  8
3
  6
CONTINUOUS
 10
44.311496
 20
56.541817
  0
VERTEX
  8
3
  6
CONTINUOUS
 10
59.659512
 20
58.403634
  0
SEQEND
  8
3
  6
CONTINUOUS
  0
POLYLINE
  8
3
  6
CONTINUOUS
 66
     1
  0
VERTEX
  8
3
  6
CONTINUOUS
 10
11.794892
 20
18.342598
  0
VERTEX
  8
3
  6
CONTINUOUS
 10
12.996680
 20
8.488412
  0
SEQEND
  8
3
  6
CONTINUOUS
  0
POLYLINE
  8
3
  6
CONTINUOUS
 66
     1
  0
VERTEX
  8
3
  6
CONTINUOUS
 10
13.393737
 20
8.536848
  0
VERTEX
  8
3
  6
CONTINUOUS
 10
12.191949
 20
18.391034
  0
SEQEND
  8
3
  6
CONTINUOUS
  0
POLYLINE
  8
3
  6
CONTINUOUS
 66
     1
  0
VERTEX
  8
3
  6
CONTINUOUS
 10
10.371782
 20
30.008029
  0
VERTEX
  8
3
  6
CONTINUOUS
 10
11.746461
 20
18.739655
  0
SEQEND
  8
3
  6
CONTINUOUS
  0
POLYLINE
  8
3
  6
CONTINUOUS
 66
     1
  0
VERTEX
  8
3
  6
CONTINUOUS
 10
12.143518
 20
18.788091
  0
VERTEX
  8
3
  6
CONTINUOUS
 10
10.768838
 20
30.056465
  0
SEQEND
  8
3
  6
CONTINUOUS
  0
POLYLINE
  8
3
  6
CONTINUOUS
 66
     1
  0
VERTEX
  8
3
  6
CONTINUOUS
 10
8.961403
 20
41.569031
  0
VERTEX
  8
3
  6
CONTINUOUS
 10
10.323343
 20
30.405085
  0
SEQEND
  8
3
  6
CONTINUOUS
  0
POLYLINE
  8
3
  6
CONTINUOUS
 66
     1
  0
VERTEX
  8
3
  6
CONTINUOUS
 10
10.720399
 20
30.453521
  0
VERTEX
  8
3
  6
CONTINUOUS
 10
9.358460
 20
41.617467
  0
SEQEND
  8
3
  6
CONTINUOUS
  0
POLYLINE
  8
3
  6
CONTINUOUS
 66
     1
  0
VERTEX
  8
3
  6
CONTINUOUS
 10
7.724547
 20
51.704944
  0
VERTEX
  8
3
  6
CONTINUOUS
 10
8.912958
 20
41.966086
  0
SEQEND
  8
3
  6
CONTINUOUS
  0
POLYLINE
  8
3
  6
CONTINUOUS
 66
     1
  0
VERTEX
  8
3
  6
CONTINUOUS
 10
9.310014
 20
42.014522
  0
VERTEX
  8
3
  6
CONTINUOUS
 10
8.121604
 20
51.753380
  0
SEQEND
  8
3
  6
CONTINUOUS
  0
POLYLINE
  8
3
  6
CONTINUOUS
 66
     1
  0
VERTEX
  8
3
  6
CONTINUOUS
 10
74.930498
 20
60.711863
  0
VERTEX
  8
3
  6
CONTINUOUS
 10
61.741834
 20
59.165599
  0
SEQEND
  8
3
  6
CONTINUOUS
  0
POLYLINE
  8
3
  6
CONTINUOUS
 66
     1
  0
VERTEX
  8
3
  6
CONTINUOUS
 10
61.788544
 20
58.768336
  0
VERTEX
  8
3
  6
CONTINUOUS
 10
74.977208
 20
60.314600
  0
SEQEND
  8
3
  6
CONTINUOUS
  0
POLYLINE
  8
3
  6
CONTINUOUS
 66
     1
  0
VERTEX
  8
3
  6
CONTINUOUS
 10
85.514489
 20
61.953154
  0
VERTEX
  8
3
  6
CONTINUOUS
 10
75.923693
 20
60.828327
  0
SEQEND
  8
3
  6
CONTINUOUS
  0
POLYLINE
  8
3
  6
CONTINUOUS
 66
     1
  0
VERTEX
  8
3
  6
CONTINUOUS
 10
75.970403
 20
60.431064
  0
VERTEX
  8
3
  6
CONTINUOUS
 10
85.561199
 20
61.555890
  0
SEQEND
  8
3
  6
CONTINUOUS
  0
POLYLINE
  8
3
  6
CONTINUOUS
 66
     1
  0
VERTEX
  8
3
  6
CONTINUOUS
 10
92.024675
 20
62.716681
  0
VERTEX
  8
3
  6
CONTINUOUS
 10
85.911767
 20
61.999747
  0
SEQEND
  8
3
  6
CONTINUOUS
  0
POLYLINE
  8
3
  6
CONTINUOUS
 66
     1
  0
VERTEX
  8
3
  6
CONTINUOUS
 10
85.958476
 20
61.602484
  0
VERTEX
  8
3
  6
CONTINUOUS
 10
91.674662
 20
62.272889
  0
SEQEND
  8
3
  6
CONTINUOUS
  0
POLYLINE
  8
3
  6
CONTINUOUS
 66
     1
  0
VERTEX
  8
3
  6
CONTINUOUS
 10
62.830896
 20
24.723305
  0
VERTEX
  8
3
  6
CONTINUOUS
 10
63.841846
 20
13.895972
  0
SEQEND
  8
3
  6
CONTINUOUS
  0
POLYLINE
  8
3
  6
CONTINUOUS
 66
     1
  0
VERTEX
  8
3
  6
CONTINUOUS
 10
64.295242
 20
13.342738
  0
VERTEX
  8
3
  6
CONTINUOUS
 10
63.229142
 20
24.760726
  0
SEQEND
  8
3
  6
CONTINUOUS
  0
POLYLINE
  8
3
  6
CONTINUOUS
 66
     1
  0
VERTEX
  8
3
  6
CONTINUOUS
 10
61.767990
 20
36.036761
  0
VERTEX
  8
3
  6
CONTINUOUS
 10
62.793595
 20
25.121562
  0
SEQEND
  8
3
  6
CONTINUOUS
  0
POLYLINE
  8
3
  6
CONTINUOUS
 66
     1
  0
VERTEX
  8
3
  6
CONTINUOUS
 10
63.191841
 20
25.158983
  0
VERTEX
  8
3
  6
CONTINUOUS
 10
62.166236
 20
36.074182
  0
SEQEND
  8
3
  6
CONTINUOUS
  0
POLYLINE
  8
3
  6
CONTINUOUS
 66
     1
  0
VERTEX
  8
3
  6
CONTINUOUS
 10
60.678178
 20
47.635302
  0
VERTEX
  8
3
  6
CONTINUOUS
 10
61.730571
 20
36.435007
  0
SEQEND
  8
3
  6
CONTINUOUS
  0
POLYLINE
  8
3
  6
CONTINUOUS
 66
     1
  0
VERTEX
  8
3
  6
CONTINUOUS
 10
62.128816
 20
36.472428
  0
VERTEX
  8
3
  6
CONTINUOUS
 10
61.076424
 20
47.672722
  0
SEQEND
  8
3
  6
CONTINUOUS
  0
POLYLINE
  8
3
  6
CONTINUOUS
 66
     1
  0
VERTEX
  8
3
  6
CONTINUOUS
 10
60.623766
 20
48.214395
  0
VERTEX
  8
3
  6
CONTINUOUS
 10
60.640758
 20
48.033547
  0
SEQEND
  8
3
  6
CONTINUOUS
  0
POLYLINE
  8
3
  6
CONTINUOUS
 66
     1
  0
VERTEX
  8
3
  6
CONTINUOUS
 10
61.039004
 20
48.070968
  0
VERTEX
  8
3
  6
CONTINUOUS
 10
61.022012
 20
48.251814
  0
SEQEND
  8
3
  6
CONTINUOUS
  0
POLYLINE
  8
3
  6
CONTINUOUS
 66
     1
  0
VERTEX
  8
3
  6
CONTINUOUS
 10
59.659512
 20
58.403634
  0
VERTEX
  8
3
  6
CONTINUOUS
 10
60.623778
 20
48.214262
  0
SEQEND
  8
3
  6
CONTINUOUS
  0
POLYLINE
  8
3
  6
CONTINUOUS
 66
     1
  0
VERTEX
  8
3
  6
CONTINUOUS
 10
61.021999
 20
48.251947
  0
VERTEX
  8
3
  6
CONTINUOUS
 10
60.094555
 20
58.052217
  0
SEQEND
  8
3
  6
CONTINUOUS
  0
POLYLINE
  8
3
  6
CONTINUOUS
 66
     1
  0
VERTEX
  8
3
  6
CONTINUOUS
 10
61.021999
 20
48.251947
  0
VERTEX
  8
3
  6
CONTINUOUS
 10
61.022012
 20
48.251814
  0
SEQEND
  8
3
  6
CONTINUOUS
  0
POLYLINE
  8
3
  6
CONTINUOUS
 66
     1
  0
VERTEX
  8
3
  6
CONTINUOUS
 10
60.623778
 20
48.214262
  0
VERTEX
  8
3
  6
CONTINUOUS
 10
60.623766
 20
48.214395
  0
SEQEND
  8
3
  6
CONTINUOUS
  0
POLYLINE
  8
3
  6
CONTINUOUS
 66
     1
  0
VERTEX
  8
3
  6
CONTINUOUS
 10
64.595825
 20
24.544936
  0
VERTEX
  8
3
  6
CONTINUOUS
 10
65.579538
 20
14.096776
  0
SEQEND
  8
3
  6
CONTINUOUS
  0
POLYLINE
  8
3
  6
CONTINUOUS
 66
     1
  0
VERTEX
  8
3
  6
CONTINUOUS
 10
66.014630
 20
13.742846
  0
VERTEX
  8
3
  6
CONTINUOUS
 10
64.994071
 20
24.582356
  0
SEQEND
  8
3
  6
CONTINUOUS
  0
POLYLINE
  8
3
  6
CONTINUOUS
 66
     1
  0
VERTEX
  8
3
  6
CONTINUOUS
 10
64.545171
 20
25.082939
  0
VERTEX
  8
3
  6
CONTINUOUS
 10
64.558330
 20
24.943174
  0
SEQEND
  8
3
  6
CONTINUOUS
  0
POLYLINE
  8
3
  6
CONTINUOUS
 66
     1
  0
VERTEX
  8
3
  6
CONTINUOUS
 10
64.956576
 20
24.980595
  0
VERTEX
  8
3
  6
CONTINUOUS
 10
64.943410
 20
25.120434
  0
SEQEND
  8
3
  6
CONTINUOUS
  0
POLYLINE
  8
3
  6
CONTINUOUS
 66
     1
  0
VERTEX
  8
3
  6
CONTINUOUS
 10
63.496054
 20
36.248375
  0
VERTEX
  8
3
  6
CONTINUOUS
 10
64.545167
 20
25.082977
  0
SEQEND
  8
3
  6
CONTINUOUS
  0
POLYLINE
  8
3
  6
CONTINUOUS
 66
     1
  0
VERTEX
  8
3
  6
CONTINUOUS
 10
64.943413
 20
25.120397
  0
VERTEX
  8
3
  6
CONTINUOUS
 10
63.894300
 20
36.285796
  0
SEQEND
  8
3
  6
CONTINUOUS
  0
POLYLINE
  8
3
  6
CONTINUOUS
 66
     1
  0
VERTEX
  8
3
  6
CONTINUOUS
 10
62.406246
 20
47.846868
  0
VERTEX
  8
3
  6
CONTINUOUS
 10
63.458634
 20
36.646621
  0
SEQEND
  8
3
  6
CONTINUOUS
  0
POLYLINE
  8
3
  6
CONTINUOUS
 66
     1
  0
VERTEX
  8
3
  6
CONTINUOUS
 10
63.856880
 20
36.684042
  0
VERTEX
  8
3
  6
CONTINUOUS
 10
62.804492
 20
47.884288
  0
SEQEND
  8
3
  6
CONTINUOUS
  0
POLYLINE
  8
3
  6
CONTINUOUS
 66
     1
  0
VERTEX
  8
3
  6
CONTINUOUS
 10
62.356852
 20
48.372556
  0
VERTEX
  8
3
  6
CONTINUOUS
 10
62.368827
 20
48.245113
  0
SEQEND
  8
3
  6
CONTINUOUS
  0
POLYLINE
  8
3
  6
CONTINUOUS
 66
     1
  0
VERTEX
  8
3
  6
CONTINUOUS
 10
62.767072
 20
48.282534
  0
VERTEX
  8
3
  6
CONTINUOUS
 10
62.755098
 20
48.409975
  0
SEQEND
  8
3
  6
CONTINUOUS
  0
POLYLINE
  8
3
  6
CONTINUOUS
 66
     1
  0
VERTEX
  8
3
  6
CONTINUOUS
 10
61.391280
 20
58.721625
  0
VERTEX
  8
3
  6
CONTINUOUS
 10
62.356840
 20
48.372686
  0
SEQEND
  8
3
  6
CONTINUOUS
  0
POLYLINE
  8
3
  6
CONTINUOUS
 66
     1
  0
VERTEX
  8
3
  6
CONTINUOUS
 10
62.755110
 20
48.409845
  0
VERTEX
  8
3
  6
CONTINUOUS
 10
61.825828
 20
58.369963
  0
SEQEND
  8
3
  6
CONTINUOUS
  0
POLYLINE
  8
3
  6
CONTINUOUS
 66
     1
  0
VERTEX
  8
3
  6
CONTINUOUS
 10
64.943413
 20
25.120397
  0
VERTEX
  8
3
  6
CONTINUOUS
 10
64.943410
 20
25.120434
  0
SEQEND
  8
3
  6
CONTINUOUS
  0
POLYLINE
  8
3
  6
CONTINUOUS
 66
     1
  0
VERTEX
  8
3
  6
CONTINUOUS
 10
64.545167
 20
25.082977
  0
VERTEX
  8
3
  6
CONTINUOUS
 10
64.545171
 20
25.082939
  0
SEQEND
  8
3
  6
CONTINUOUS
  0
POLYLINE
  8
3
  6
CONTINUOUS
 66
     1
  0
VERTEX
  8
3
  6
CONTINUOUS
 10
62.755110
 20
48.409845
  0
VERTEX
  8
3
  6
CONTINUOUS
 10
62.755098
 20
48.409975
  0
SEQEND
  8
3
  6
CONTINUOUS
  0
POLYLINE
  8
3
  6
CONTINUOUS
 66
     1
  0
VERTEX
  8
3
  6
CONTINUOUS
 10
62.356840
 20
48.372686
  0
VERTEX
  8
3
  6
CONTINUOUS
 10
62.356852
 20
48.372556
  0
SEQEND
  8
3
  6
CONTINUOUS
  0
POLYLINE
  8
3
  6
CONTINUOUS
 66
     1
  0
VERTEX
  8
3
  6
CONTINUOUS
 10
73.016880
 20
14.601430
  0
VERTEX
  8
3
  6
CONTINUOUS
 10
66.014250
 20
13.746078
  0
SEQEND
  8
3
  6
CONTINUOUS
  0
POLYLINE
  8
3
  6
CONTINUOUS
 66
     1
  0
VERTEX
  8
3
  6
CONTINUOUS
 10
66.060960
 20
13.348811
  0
VERTEX
  8
3
  6
CONTINUOUS
 10
73.063590
 20
14.204163
  0
SEQEND
  8
3
  6
CONTINUOUS
  0
POLYLINE
  8
3
  6
CONTINUOUS
 66
     1
  0
VERTEX
  8
3
  6
CONTINUOUS
 10
80.431040
 20
15.507050
  0
VERTEX
  8
3
  6
CONTINUOUS
 10
73.810986
 20
14.698428
  0
SEQEND
  8
3
  6
CONTINUOUS
  0
POLYLINE
  8
3
  6
CONTINUOUS
 66
     1
  0
VERTEX
  8
3
  6
CONTINUOUS
 10
73.857696
 20
14.301161
  0
VERTEX
  8
3
  6
CONTINUOUS
 10
80.477750
 20
15.109782
  0
SEQEND
  8
3
  6
CONTINUOUS
  0
POLYLINE
  8
3
  6
CONTINUOUS
 66
     1
  0
VERTEX
  8
3
  6
CONTINUOUS
 10
89.306977
 20
16.594970
  0
VERTEX
  8
3
  6
CONTINUOUS
 10
81.225125
 20
15.604221
  0
SEQEND
  8
3
  6
CONTINUOUS
  0
POLYLINE
  8
3
  6
CONTINUOUS
 66
     1
  0
VERTEX
  8
3
  6
CONTINUOUS
 10
81.271836
 20
15.206953
  0
VERTEX
  8
3
  6
CONTINUOUS
 10
89.353687
 20
16.197702
  0
SEQEND
  8
3
  6
CONTINUOUS
  0
POLYLINE
  8
3
  6
CONTINUOUS
 66
     1
  0
VERTEX
  8
3
  6
CONTINUOUS
 10
96.997915
 20
17.537038
  0
VERTEX
  8
3
  6
CONTINUOUS
 10
90.101046
 20
16.692283
  0
SEQEND
  8
3
  6
CONTINUOUS
  0
POLYLINE
  8
3
  6
CONTINUOUS
 66
     1
  0
VERTEX
  8
3
  6
CONTINUOUS
 10
90.147756
 20
16.295015
  0
VERTEX
  8
3
  6
CONTINUOUS
 10
97.442215
 20
17.188469
  0
SEQEND
  8
3
  6
CONTINUOUS
  0
POLYLINE
  8
3
  6
CONTINUOUS
 66
     1
  0
VERTEX
  8
3
  6
CONTINUOUS
 10
96.841720
 20
18.849644
  0
VERTEX
  8
3
  6
CONTINUOUS
 10
96.997915
 20
17.537038
  0
SEQEND
  8
3
  6
CONTINUOUS
  0
POLYLINE
  8
3
  6
CONTINUOUS
 66
     1
  0
VERTEX
  8
3
  6
CONTINUOUS
 10
97.442215
 20
17.188469
  0
VERTEX
  8
3
  6
CONTINUOUS
 10
97.238999
 20
18.896229
  0
SEQEND
  8
3
  6
CONTINUOUS
  0
POLYLINE
  8
3
  6
CONTINUOUS
 66
     1
  0
VERTEX
  8
3
  6
CONTINUOUS
 10
95.742813
 20
28.084491
  0
VERTEX
  8
3
  6
CONTINUOUS
 10
96.747190
 20
19.644041
  0
SEQEND
  8
3
  6
CONTINUOUS
  0
POLYLINE
  8
3
  6
CONTINUOUS
 66
     1
  0
VERTEX
  8
3
  6
CONTINUOUS
 10
97.144469
 20
19.690626
  0
VERTEX
  8
3
  6
CONTINUOUS
 10
96.140091
 20
28.131076
  0
SEQEND
  8
3
  6
CONTINUOUS
  0
POLYLINE
  8
3
  6
CONTINUOUS
 66
     1
  0
VERTEX
  8
3
  6
CONTINUOUS
 10
94.346890
 20
39.815885
  0
VERTEX
  8
3
  6
CONTINUOUS
 10
95.671917
 20
28.680289
  0
SEQEND
  8
3
  6
CONTINUOUS
  0
POLYLINE
  8
3
  6
CONTINUOUS
 66
     1
  0
VERTEX
  8
3
  6
CONTINUOUS
 10
96.069196
 20
28.726874
  0
VERTEX
  8
3
  6
CONTINUOUS
 10
94.744169
 20
39.862470
  0
SEQEND
  8
3
  6
CONTINUOUS
  0
POLYLINE
  8
3
  6
CONTINUOUS
 66
     1
  0
VERTEX
  8
3
  6
CONTINUOUS
 10
92.966321
 20
51.418267
  0
VERTEX
  8
3
  6
CONTINUOUS
 10
94.228734
 20
40.808881
  0
SEQEND
  8
3
  6
CONTINUOUS
  0
POLYLINE
  8
3
  6
CONTINUOUS
 66
     1
  0
VERTEX
  8
3
  6
CONTINUOUS
 10
94.626012
 20
40.855466
  0
VERTEX
  8
3
  6
CONTINUOUS
 10
93.363600
 20
51.464852
  0
SEQEND
  8
3
  6
CONTINUOUS
  0
POLYLINE
  8
3
  6
CONTINUOUS
 66
     1
  0
VERTEX
  8
3
  6
CONTINUOUS
 10
91.871542
 20
60.618385
  0
VERTEX
  8
3
  6
CONTINUOUS
 10
92.919057
 20
51.815465
  0
SEQEND
  8
3
  6
CONTINUOUS
  0
POLYLINE
  8
3
  6
CONTINUOUS
 66
     1
  0
VERTEX
  8
3
  6
CONTINUOUS
 10
93.316336
 20
51.862050
  0
VERTEX
  8
3
  6
CONTINUOUS
 10
92.268821
 20
60.664970
  0
SEQEND
  8
3
  6
CONTINUOUS
  0
POLYLINE
  8
3
  6
CONTINUOUS
 66
     1
  0
VERTEX
  8
3
  6
CONTINUOUS
 10
91.674662
 20
62.272889
  0
VERTEX
  8
3
  6
CONTINUOUS
 10
91.777012
 20
61.412782
  0
SEQEND
  8
3
  6
CONTINUOUS
  0
POLYLINE
  8
3
  6
CONTINUOUS
 66
     1
  0
VERTEX
  8
3
  6
CONTINUOUS
 10
92.174290
 20
61.459367
  0
VERTEX
  8
3
  6
CONTINUOUS
 10
92.024675
 20
62.716681
  0
SEQEND
  8
3
  6
CONTINUOUS
  0
LINE
  8
1
  6
CONTINUOUS
 10
28.401403
 20
20.493129
 11
28.401403
 21
20.493129
  0
POLYLINE
  8
5
  6
CONTINUOUS
 66
     1
  0
VERTEX
  8
5
  6
CONTINUOUS
 10
28.138384
 20
20.160232
  0
VERTEX
  8
5
  6
CONTINUOUS
 10
28.734301
 20
20.230110
  0
VERTEX
  8
5
  6
CONTINUOUS
 10
28.664423
 20
20.826027
  0
VERTEX
  8
5
  6
CONTINUOUS
 10
28.068506
 20
20.756149
  0
VERTEX
  8
5
  6
CONTINUOUS
 10
28.138384
 20
20.160232
  0
SEQEND
  8
5
  6
CONTINUOUS
  0
LINE
  8
1
  6
CONTINUOUS
 10
25.676462
 20
43.732291
 11
25.676462
 21
43.732291
  0
POLYLINE
  8
5
  6
CONTINUOUS
 66
     1
  0
VERTEX
  8
5
  6
CONTINUOUS
 10
25.413442
 20
43.399393
  0
VERTEX
  8
5
  6
CONTINUOUS
 10
26.009360
 20
43.469271
  0
VERTEX
  8
5
  6
CONTINUOUS
 10
25.939482
 20
44.065188
  0
VERTEX
  8
5
  6
CONTINUOUS
 10
25.343565
 20
43.995311
  0
VERTEX
  8
5
  6
CONTINUOUS
 10
25.413442
 20
43.399393
  0
SEQEND
  8
5
  6
CONTINUOUS
  0
LINE
  8
1
  6
CONTINUOUS
 10
45.341952
 20
46.038184
 11
45.341952
 21
46.038184
  0
POLYLINE
  8
5
  6
CONTINUOUS
 66
     1
  0
VERTEX
  8
5
  6
CONTINUOUS
 10
45.078932
 20
45.705287
  0
VERTEX
  8
5
  6
CONTINUOUS
 10
45.674849
 20
45.775165
  0
VERTEX
  8
5
  6
CONTINUOUS
 10
45.604972
 20
46.371082
  0
VERTEX
  8
5
  6
CONTINUOUS
 10
45.009055
 20
46.301204
  0
VERTEX
  8
5
  6
CONTINUOUS
 10
45.078932
 20
45.705287
  0
SEQEND
  8
5
  6
CONTINUOUS
  0
LINE
  8
1
  6
CONTINUOUS
 10
48.066893
 20
22.799023
 11
48.066893
 21
22.799023
  0
POLYLINE
  8
5
  6
CONTINUOUS
 66
     1
  0
VERTEX
  8
5
  6
CONTINUOUS
 10
47.803874
 20
22.466126
  0
VERTEX
  8
5
  6
CONTINUOUS
 10
48.399791
 20
22.536003
  0
VERTEX
  8
5
  6
CONTINUOUS
 10
48.329913
 20
23.131920
  0
VERTEX
  8
5
  6
CONTINUOUS
 10
47.733996
 20
23.062043
  0
VERTEX
  8
5
  6
CONTINUOUS
 10
47.803874
 20
22.466126
  0
SEQEND
  8
5
  6
CONTINUOUS
  0
LINE
  8
1
  6
CONTINUOUS
 10
74.972212
 20
25.953792
 11
74.972212
 21
25.953792
  0
POLYLINE
  8
5
  6
CONTINUOUS
 66
     1
  0
VERTEX
  8
5
  6
CONTINUOUS
 10
74.709192
 20
25.620895
  0
VERTEX
  8
5
  6
CONTINUOUS
 10
75.305109
 20
25.690773
  0
VERTEX
  8
5
  6
CONTINUOUS
 10
75.235232
 20
26.286690
  0
VERTEX
  8
5
  6
CONTINUOUS
 10
74.639315
 20
26.216812
  0
VERTEX
  8
5
  6
CONTINUOUS
 10
74.709192
 20
25.620895
  0
SEQEND
  8
5
  6
CONTINUOUS
  0
LINE
  8
1
  6
CONTINUOUS
 10
77.021305
 20
49.752733
 11
77.021305
 21
49.752733
  0
POLYLINE
  8
5
  6
CONTINUOUS
 66
     1
  0
VERTEX
  8
5
  6
CONTINUOUS
 10
76.758285
 20
49.419835
  0
VERTEX
  8
5
  6
CONTINUOUS
 10
77.354202
 20
49.489713
  0
VERTEX
  8
5
  6
CONTINUOUS
 10
77.284324
 20
50.085630
  0
VERTEX
  8
5
  6
CONTINUOUS
 10
76.688407
 20
50.015752
  0
VERTEX
  8
5
  6
CONTINUOUS
 10
76.758285
 20
49.419835
  0
SEQEND
  8
5
  6
CONTINUOUS
  0
LINE
  8
1
  6
CONTINUOUS
 10
11.969209
 20
18.565345
 11
11.969209
 21
18.565345
  0
POLYLINE
  8
5
  6
CONTINUOUS
 66
     1
  0
VERTEX
  8
5
  6
CONTINUOUS
 10
12.191955
 20
18.391035
  0
VERTEX
  8
5
  6
CONTINUOUS
 10
12.143519
 20
18.788091
  0
VERTEX
  8
5
  6
CONTINUOUS
 10
11.746462
 20
18.739656
  0
VERTEX
  8
5
  6
CONTINUOUS
 10
11.794898
 20
18.342599
  0
VERTEX
  8
5
  6
CONTINUOUS
 10
12.191955
 20
18.391035
  0
SEQEND
  8
5
  6
CONTINUOUS
  0
LINE
  8
1
  6
CONTINUOUS
 10
9.135712
 20
41.791777
 11
9.135712
 21
41.791777
  0
POLYLINE
  8
5
  6
CONTINUOUS
 66
     1
  0
VERTEX
  8
5
  6
CONTINUOUS
 10
9.358458
 20
41.617466
  0
VERTEX
  8
5
  6
CONTINUOUS
 10
9.310022
 20
42.014523
  0
VERTEX
  8
5
  6
CONTINUOUS
 10
8.912966
 20
41.966087
  0
VERTEX
  8
5
  6
CONTINUOUS
 10
8.961402
 20
41.569030
  0
VERTEX
  8
5
  6
CONTINUOUS
 10
9.358458
 20
41.617466
  0
SEQEND
  8
5
  6
CONTINUOUS
  0
LINE
  8
1
  6
CONTINUOUS
 10
64.776460
 20
24.762790
 11
64.776460
 21
24.762790
  0
POLYLINE
  8
5
  6
CONTINUOUS
 66
     1
  0
VERTEX
  8
5
  6
CONTINUOUS
 10
64.994294
 20
24.582377
  0
VERTEX
  8
5
  6
CONTINUOUS
 10
64.956873
 20
24.980623
  0
VERTEX
  8
5
  6
CONTINUOUS
 10
64.558627
 20
24.943202
  0
VERTEX
  8
5
  6
CONTINUOUS
 10
64.596048
 20
24.544956
  0
VERTEX
  8
5
  6
CONTINUOUS
 10
64.994294
 20
24.582377
  0
SEQEND
  8
5
  6
CONTINUOUS
  0
LINE
  8
1
  6
CONTINUOUS
 10
62.591762
 20
48.065180
 11
62.591762
 21
48.065180
  0
POLYLINE
  8
5
  6
CONTINUOUS
 66
     1
  0
VERTEX
  8
5
  6
CONTINUOUS
 10
62.809596
 20
47.884768
  0
VERTEX
  8
5
  6
CONTINUOUS
 10
62.772175
 20
48.283014
  0
VERTEX
  8
5
  6
CONTINUOUS
 10
62.373929
 20
48.245593
  0
VERTEX
  8
5
  6
CONTINUOUS
 10
62.411350
 20
47.847347
  0
VERTEX
  8
5
  6
CONTINUOUS
 10
62.809596
 20
47.884768
  0
SEQEND
  8
5
  6
CONTINUOUS
  0
LINE
  8
1
  6
CONTINUOUS
 10
7.874617
 20
52.126216
 11
7.874617
 21
52.126216
  0
POLYLINE
  8
5
  6
CONTINUOUS
 66
     1
  0
VERTEX
  8
5
  6
CONTINUOUS
 10
8.121581
 20
51.753377
  0
VERTEX
  8
5
  6
CONTINUOUS
 10
8.024710
 20
52.547490
  0
VERTEX
  8
5
  6
CONTINUOUS
 10
7.627653
 20
52.499054
  0
VERTEX
  8
5
  6
CONTINUOUS
 10
7.724525
 20
51.704941
  0
VERTEX
  8
5
  6
CONTINUOUS
 10
8.121581
 20
51.753377
  0
SEQEND
  8
5
  6
CONTINUOUS
  0
LINE
  8
1
  6
CONTINUOUS
 10
13.243627
 20
8.115571
 11
13.243627
 21
8.115571
  0
POLYLINE
  8
5
  6
CONTINUOUS
 66
     1
  0
VERTEX
  8
5
  6
CONTINUOUS
 10
13.490591
 20
7.742733
  0
VERTEX
  8
5
  6
CONTINUOUS
 10
13.393719
 20
8.536846
  0
VERTEX
  8
5
  6
CONTINUOUS
 10
12.996662
 20
8.488410
  0
VERTEX
  8
5
  6
CONTINUOUS
 10
13.093534
 20
7.694297
  0
VERTEX
  8
5
  6
CONTINUOUS
 10
13.490591
 20
7.742733
  0
SEQEND
  8
5
  6
CONTINUOUS
  0
LINE
  8
1
  6
CONTINUOUS
 10
21.697812
 20
8.807902
 11
21.697812
 21
8.807902
  0
POLYLINE
  8
5
  6
CONTINUOUS
 66
     1
  0
VERTEX
  8
5
  6
CONTINUOUS
 10
21.323904
 20
8.562560
  0
VERTEX
  8
5
  6
CONTINUOUS
 10
22.118430
 20
8.655980
  0
VERTEX
  8
5
  6
CONTINUOUS
 10
22.071720
 20
9.053243
  0
VERTEX
  8
5
  6
CONTINUOUS
 10
21.277194
 20
8.959823
  0
VERTEX
  8
5
  6
CONTINUOUS
 10
21.323904
 20
8.562560
  0
SEQEND
  8
5
  6
CONTINUOUS
  0
LINE
  8
1
  6
CONTINUOUS
 10
46.168738
 20
11.418056
 11
46.168738
 21
11.418056
  0
POLYLINE
  8
5
  6
CONTINUOUS
 66
     1
  0
VERTEX
  8
5
  6
CONTINUOUS
 10
45.794829
 20
11.172715
  0
VERTEX
  8
5
  6
CONTINUOUS
 10
46.589356
 20
11.266134
  0
VERTEX
  8
5
  6
CONTINUOUS
 10
46.542646
 20
11.663398
  0
VERTEX
  8
5
  6
CONTINUOUS
 10
45.748119
 20
11.569978
  0
VERTEX
  8
5
  6
CONTINUOUS
 10
45.794829
 20
11.172715
  0
SEQEND
  8
5
  6
CONTINUOUS
  0
LINE
  8
1
  6
CONTINUOUS
 10
65.815728
 20
13.721792
 11
65.815728
 21
13.721792
  0
POLYLINE
  8
5
  6
CONTINUOUS
 66
     1
  0
VERTEX
  8
5
  6
CONTINUOUS
 10
65.663806
 20
13.301173
  0
VERTEX
  8
5
  6
CONTINUOUS
 10
66.061069
 20
13.347883
  0
VERTEX
  8
5
  6
CONTINUOUS
 10
65.967649
 20
14.142410
  0
VERTEX
  8
5
  6
CONTINUOUS
 10
65.570386
 20
14.095700
  0
VERTEX
  8
5
  6
CONTINUOUS
 10
65.663806
 20
13.301173
  0
SEQEND
  8
5
  6
CONTINUOUS
  0
LINE
  8
1
  6
CONTINUOUS
 10
89.727364
 20
16.445016
 11
89.727364
 21
16.445016
  0
POLYLINE
  8
5
  6
CONTINUOUS
 66
     1
  0
VERTEX
  8
5
  6
CONTINUOUS
 10
89.353455
 20
16.199675
  0
VERTEX
  8
5
  6
CONTINUOUS
 10
90.147982
 20
16.293094
  0
VERTEX
  8
5
  6
CONTINUOUS
 10
90.101272
 20
16.690358
  0
VERTEX
  8
5
  6
CONTINUOUS
 10
89.306745
 20
16.596938
  0
VERTEX
  8
5
  6
CONTINUOUS
 10
89.353455
 20
16.199675
  0
SEQEND
  8
5
  6
CONTINUOUS
  0
LINE
  8
1
  6
CONTINUOUS
 10
61.589912
 20
58.744980
 11
61.589912
 21
58.744980
  0
POLYLINE
  8
5
  6
CONTINUOUS
 66
     1
  0
VERTEX
  8
5
  6
CONTINUOUS
 10
61.437990
 20
58.324361
  0
VERTEX
  8
5
  6
CONTINUOUS
 10
61.835254
 20
58.371071
  0
VERTEX
  8
5
  6
CONTINUOUS
 10
61.741834
 20
59.165598
  0
VERTEX
  8
5
  6
CONTINUOUS
 10
61.344570
 20
59.118888
  0
VERTEX
  8
5
  6
CONTINUOUS
 10
61.437990
 20
58.324361
  0
SEQEND
  8
5
  6
CONTINUOUS
  0
LINE
  8
1
  6
CONTINUOUS
 10
85.736487
 20
61.777785
 11
85.736487
 21
61.777785
  0
POLYLINE
  8
5
  6
CONTINUOUS
 66
     1
  0
VERTEX
  8
5
  6
CONTINUOUS
 10
85.561210
 20
61.555798
  0
VERTEX
  8
5
  6
CONTINUOUS
 10
85.958474
 20
61.602508
  0
VERTEX
  8
5
  6
CONTINUOUS
 10
85.911764
 20
61.999772
  0
VERTEX
  8
5
  6
CONTINUOUS
 10
85.514500
 20
61.953062
  0
VERTEX
  8
5
  6
CONTINUOUS
 10
85.561210
 20
61.555798
  0
SEQEND
  8
5
  6
CONTINUOUS
  0
LINE
  8
1
  6
CONTINUOUS
 10
44.089593
 20
56.716381
 11
44.089593
 21
56.716381
  0
POLYLINE
  8
5
  6
CONTINUOUS
 66
     1
  0
VERTEX
  8
5
  6
CONTINUOUS
 10
43.914317
 20
56.494394
  0
VERTEX
  8
5
  6
CONTINUOUS
 10
44.311580
 20
56.541104
  0
VERTEX
  8
5
  6
CONTINUOUS
 10
44.264870
 20
56.938367
  0
VERTEX
  8
5
  6
CONTINUOUS
 10
43.867607
 20
56.891657
  0
VERTEX
  8
5
  6
CONTINUOUS
 10
43.914317
 20
56.494394
  0
SEQEND
  8
5
  6
CONTINUOUS
  0
LINE
  8
1
  6
CONTINUOUS
 10
63.009247
 20
24.940944
 11
63.009247
 21
24.940944
  0
POLYLINE
  8
5
  6
CONTINUOUS
 66
     1
  0
VERTEX
  8
5
  6
CONTINUOUS
 10
63.227081
 20
24.760532
  0
VERTEX
  8
5
  6
CONTINUOUS
 10
63.189660
 20
25.158778
  0
VERTEX
  8
5
  6
CONTINUOUS
 10
62.791414
 20
25.121357
  0
VERTEX
  8
5
  6
CONTINUOUS
 10
62.828835
 20
24.723111
  0
VERTEX
  8
5
  6
CONTINUOUS
 10
63.227081
 20
24.760532
  0
SEQEND
  8
5
  6
CONTINUOUS
  0
LINE
  8
1
  6
CONTINUOUS
 10
60.856412
 20
47.852930
 11
60.856412
 21
47.852930
  0
POLYLINE
  8
5
  6
CONTINUOUS
 66
     1
  0
VERTEX
  8
5
  6
CONTINUOUS
 10
61.074245
 20
47.672518
  0
VERTEX
  8
5
  6
CONTINUOUS
 10
61.036825
 20
48.070764
  0
VERTEX
  8
5
  6
CONTINUOUS
 10
60.638579
 20
48.033343
  0
VERTEX
  8
5
  6
CONTINUOUS
 10
60.676000
 20
47.635097
  0
VERTEX
  8
5
  6
CONTINUOUS
 10
61.074245
 20
47.672518
  0
SEQEND
  8
5
  6
CONTINUOUS
  0
LINE
  8
1
  6
CONTINUOUS
 10
64.072976
 20
13.520392
 11
64.072976
 21
13.520392
  0
POLYLINE
  8
5
  6
CONTINUOUS
 66
     1
  0
VERTEX
  8
5
  6
CONTINUOUS
 10
63.921054
 20
13.099774
  0
VERTEX
  8
5
  6
CONTINUOUS
 10
64.318317
 20
13.146484
  0
VERTEX
  8
5
  6
CONTINUOUS
 10
64.224897
 20
13.941010
  0
VERTEX
  8
5
  6
CONTINUOUS
 10
63.827634
 20
13.894301
  0
VERTEX
  8
5
  6
CONTINUOUS
 10
63.921054
 20
13.099774
  0
SEQEND
  8
5
  6
CONTINUOUS
  0
LINE
  8
1
  6
CONTINUOUS
 10
59.858229
 20
58.427186
 11
59.858229
 21
58.427186
  0
POLYLINE
  8
5
  6
CONTINUOUS
 66
     1
  0
VERTEX
  8
5
  6
CONTINUOUS
 10
59.706307
 20
58.006567
  0
VERTEX
  8
5
  6
CONTINUOUS
 10
60.103570
 20
58.053277
  0
VERTEX
  8
5
  6
CONTINUOUS
 10
60.010150
 20
58.847804
  0
VERTEX
  8
5
  6
CONTINUOUS
 10
59.612887
 20
58.801094
  0
VERTEX
  8
5
  6
CONTINUOUS
 10
59.706307
 20
58.006567
  0
SEQEND
  8
5
  6
CONTINUOUS
  0
LINE
  8
1
  6
CONTINUOUS
 10
93.140989
 20
51.640119
 11
93.140989
 21
51.640119
  0
POLYLINE
  8
5
  6
CONTINUOUS
 66
     1
  0
VERTEX
  8
5
  6
CONTINUOUS
 10
92.965643
 20
51.418187
  0
VERTEX
  8
5
  6
CONTINUOUS
 10
93.362921
 20
51.464772
  0
VERTEX
  8
5
  6
CONTINUOUS
 10
93.316336
 20
51.862050
  0
VERTEX
  8
5
  6
CONTINUOUS
 10
92.919058
 20
51.815465
  0
VERTEX
  8
5
  6
CONTINUOUS
 10
92.965643
 20
51.418187
  0
SEQEND
  8
5
  6
CONTINUOUS
  0
LINE
  8
1
  6
CONTINUOUS
 10
95.905664
 20
28.405643
 11
95.905664
 21
28.405643
  0
POLYLINE
  8
5
  6
CONTINUOUS
 66
     1
  0
VERTEX
  8
5
  6
CONTINUOUS
 10
95.741963
 20
28.084392
  0
VERTEX
  8
5
  6
CONTINUOUS
 10
96.139241
 20
28.130977
  0
VERTEX
  8
5
  6
CONTINUOUS
 10
96.069364
 20
28.726894
  0
VERTEX
  8
5
  6
CONTINUOUS
 10
95.672086
 20
28.680309
  0
VERTEX
  8
5
  6
CONTINUOUS
 10
95.741963
 20
28.084392
  0
SEQEND
  8
5
  6
CONTINUOUS
  0
LINE
  8
1
  6
CONTINUOUS
 10
75.450452
 20
60.571456
 11
75.450452
 21
60.571456
  0
POLYLINE
  8
5
  6
CONTINUOUS
 66
     1
  0
VERTEX
  8
5
  6
CONTINUOUS
 10
74.977227
 20
60.314437
  0
VERTEX
  8
5
  6
CONTINUOUS
 10
75.970386
 20
60.431212
  0
VERTEX
  8
5
  6
CONTINUOUS
 10
75.923676
 20
60.828475
  0
VERTEX
  8
5
  6
CONTINUOUS
 10
74.930518
 20
60.711701
  0
VERTEX
  8
5
  6
CONTINUOUS
 10
74.977227
 20
60.314437
  0
SEQEND
  8
5
  6
CONTINUOUS
  0
LINE
  8
1
  6
CONTINUOUS
 10
80.851448
 20
15.356915
 11
80.851448
 21
15.356915
  0
POLYLINE
  8
5
  6
CONTINUOUS
 66
     1
  0
VERTEX
  8
5
  6
CONTINUOUS
 10
80.477539
 20
15.111573
  0
VERTEX
  8
5
  6
CONTINUOUS
 10
81.272066
 20
15.204993
  0
VERTEX
  8
5
  6
CONTINUOUS
 10
81.225356
 20
15.602256
  0
VERTEX
  8
5
  6
CONTINUOUS
 10
80.430829
 20
15.508837
  0
VERTEX
  8
5
  6
CONTINUOUS
 10
80.477539
 20
15.111573
  0
SEQEND
  8
5
  6
CONTINUOUS
  0
LINE
  8
1
  6
CONTINUOUS
 10
10.545943
 20
30.230757
 11
10.545943
 21
30.230757
  0
POLYLINE
  8
5
  6
CONTINUOUS
 66
     1
  0
VERTEX
  8
5
  6
CONTINUOUS
 10
10.768689
 20
30.056447
  0
VERTEX
  8
5
  6
CONTINUOUS
 10
10.720253
 20
30.453503
  0
VERTEX
  8
5
  6
CONTINUOUS
 10
10.323197
 20
30.405067
  0
VERTEX
  8
5
  6
CONTINUOUS
 10
10.371633
 20
30.008011
  0
VERTEX
  8
5
  6
CONTINUOUS
 10
10.768689
 20
30.056447
  0
SEQEND
  8
5
  6
CONTINUOUS
  0
LINE
  8
1
  6
CONTINUOUS
 10
61.948404
 20
36.254595
 11
61.948404
 21
36.254595
  0
POLYLINE
  8
5
  6
CONTINUOUS
 66
     1
  0
VERTEX
  8
5
  6
CONTINUOUS
 10
62.166237
 20
36.074182
  0
VERTEX
  8
5
  6
CONTINUOUS
 10
62.128816
 20
36.472428
  0
VERTEX
  8
5
  6
CONTINUOUS
 10
61.730571
 20
36.435007
  0
VERTEX
  8
5
  6
CONTINUOUS
 10
61.767991
 20
36.036762
  0
VERTEX
  8
5
  6
CONTINUOUS
 10
62.166237
 20
36.074182
  0
SEQEND
  8
5
  6
CONTINUOUS
  0
LINE
  8
1
  6
CONTINUOUS
 10
63.676467
 20
36.466209
 11
63.676467
 21
36.466209
  0
POLYLINE
  8
5
  6
CONTINUOUS
 66
     1
  0
VERTEX
  8
5
  6
CONTINUOUS
 10
63.894301
 20
36.285796
  0
VERTEX
  8
5
  6
CONTINUOUS
 10
63.856880
 20
36.684042
  0
VERTEX
  8
5
  6
CONTINUOUS
 10
63.458634
 20
36.646621
  0
VERTEX
  8
5
  6
CONTINUOUS
 10
63.496055
 20
36.248375
  0
VERTEX
  8
5
  6
CONTINUOUS
 10
63.894301
 20
36.285796
  0
SEQEND
  8
5
  6
CONTINUOUS
  0
LINE
  8
1
  6
CONTINUOUS
 10
94.486686
 20
40.335703
 11
94.486686
 21
40.335703
  0
POLYLINE
  8
5
  6
CONTINUOUS
 66
     1
  0
VERTEX
  8
5
  6
CONTINUOUS
 10
94.346279
 20
39.815813
  0
VERTEX
  8
5
  6
CONTINUOUS
 10
94.743557
 20
39.862398
  0
VERTEX
  8
5
  6
CONTINUOUS
 10
94.627094
 20
40.855593
  0
VERTEX
  8
5
  6
CONTINUOUS
 10
94.229816
 20
40.809008
  0
VERTEX
  8
5
  6
CONTINUOUS
 10
94.346279
 20
39.815813
  0
SEQEND
  8
5
  6
CONTINUOUS
  0
LINE
  8
1
  6
CONTINUOUS
 10
96.993080
 20
19.270133
 11
96.993080
 21
19.270133
  0
POLYLINE
  8
5
  6
CONTINUOUS
 66
     1
  0
VERTEX
  8
5
  6
CONTINUOUS
 10
96.841026
 20
18.849563
  0
VERTEX
  8
5
  6
CONTINUOUS
 10
97.238304
 20
18.896148
  0
VERTEX
  8
5
  6
CONTINUOUS
 10
97.145134
 20
19.690704
  0
VERTEX
  8
5
  6
CONTINUOUS
 10
96.747856
 20
19.644119
  0
VERTEX
  8
5
  6
CONTINUOUS
 10
96.841026
 20
18.849563
  0
SEQEND
  8
5
  6
CONTINUOUS
  0
LINE
  8
1
  6
CONTINUOUS
 10
32.336624
 20
9.944686
 11
32.336624
 21
9.944686
  0
POLYLINE
  8
5
  6
CONTINUOUS
 66
     1
  0
VERTEX
  8
5
  6
CONTINUOUS
 10
31.962715
 20
9.699345
  0
VERTEX
  8
5
  6
CONTINUOUS
 10
32.757242
 20
9.792764
  0
VERTEX
  8
5
  6
CONTINUOUS
 10
32.710532
 20
10.190028
  0
VERTEX
  8
5
  6
CONTINUOUS
 10
31.916005
 20
10.096608
  0
VERTEX
  8
5
  6
CONTINUOUS
 10
31.962715
 20
9.699345
  0
SEQEND
  8
5
  6
CONTINUOUS
  0
LINE
  8
1
  6
CONTINUOUS
 10
56.399098
 20
12.504727
 11
56.399098
 21
12.504727
  0
POLYLINE
  8
5
  6
CONTINUOUS
 66
     1
  0
VERTEX
  8
5
  6
CONTINUOUS
 10
56.223821
 20
12.282740
  0
VERTEX
  8
5
  6
CONTINUOUS
 10
56.621085
 20
12.329450
  0
VERTEX
  8
5
  6
CONTINUOUS
 10
56.574375
 20
12.726713
  0
VERTEX
  8
5
  6
CONTINUOUS
 10
56.177111
 20
12.680003
  0
VERTEX
  8
5
  6
CONTINUOUS
 10
56.223821
 20
12.282740
  0
SEQEND
  8
5
  6
CONTINUOUS
  0
LINE
  8
1
  6
CONTINUOUS
 10
73.437114
 20
14.452776
 11
73.437114
 21
14.452776
  0
POLYLINE
  8
5
  6
CONTINUOUS
 66
     1
  0
VERTEX
  8
5
  6
CONTINUOUS
 10
73.063206
 20
14.207435
  0
VERTEX
  8
5
  6
CONTINUOUS
 10
73.857732
 20
14.300854
  0
VERTEX
  8
5
  6
CONTINUOUS
 10
73.811022
 20
14.698118
  0
VERTEX
  8
5
  6
CONTINUOUS
 10
73.016496
 20
14.604698
  0
VERTEX
  8
5
  6
CONTINUOUS
 10
73.063206
 20
14.207435
  0
SEQEND
  8
5
  6
CONTINUOUS
  0
LINE
  8
1
  6
CONTINUOUS
 10
25.353567
 20
54.447432
 11
25.353567
 21
54.447432
  0
POLYLINE
  8
5
  6
CONTINUOUS
 66
     1
  0
VERTEX
  8
5
  6
CONTINUOUS
 10
24.880343
 20
54.190413
  0
VERTEX
  8
5
  6
CONTINUOUS
 10
25.873501
 20
54.307188
  0
VERTEX
  8
5
  6
CONTINUOUS
 10
25.826792
 20
54.704451
  0
VERTEX
  8
5
  6
CONTINUOUS
 10
24.833633
 20
54.587676
  0
VERTEX
  8
5
  6
CONTINUOUS
 10
24.880343
 20
54.190413
  0
SEQEND
  8
5
  6
CONTINUOUS
  0
LINE
  8
1
  6
CONTINUOUS
 10
35.649093
 20
55.694043
 11
35.649093
 21
55.694043
  0
POLYLINE
  8
5
  6
CONTINUOUS
 66
     1
  0
VERTEX
  8
5
  6
CONTINUOUS
 10
35.473817
 20
55.472056
  0
VERTEX
  8
5
  6
CONTINUOUS
 10
35.871080
 20
55.518766
  0
VERTEX
  8
5
  6
CONTINUOUS
 10
35.824370
 20
55.916030
  0
VERTEX
  8
5
  6
CONTINUOUS
 10
35.427107
 20
55.869320
  0
VERTEX
  8
5
  6
CONTINUOUS
 10
35.473817
 20
55.472056
  0
SEQEND
  8
5
  6
CONTINUOUS
  0
LINE
  8
1
  6
CONTINUOUS
 10
78.377577
 20
38.185385
 11
78.377577
 21
38.185385
  0
POLYLINE
  8
5
  6
CONTINUOUS
 66
     1
  0
VERTEX
  8
5
  6
CONTINUOUS
 10
78.114557
 20
37.852487
  0
VERTEX
  8
5
  6
CONTINUOUS
 10
78.710474
 20
37.922365
  0
VERTEX
  8
5
  6
CONTINUOUS
 10
78.640596
 20
38.518282
  0
VERTEX
  8
5
  6
CONTINUOUS
 10
78.044679
 20
38.448404
  0
VERTEX
  8
5
  6
CONTINUOUS
 10
78.114557
 20
37.852487
  0
SEQEND
  8
5
  6
CONTINUOUS
  0
LINE
  8
1
  6
CONTINUOUS
 10
27.032827
 20
32.164963
 11
27.032827
 21
32.164963
  0
POLYLINE
  8
5
  6
CONTINUOUS
 66
     1
  0
VERTEX
  8
5
  6
CONTINUOUS
 10
26.769807
 20
31.832066
  0
VERTEX
  8
5
  6
CONTINUOUS
 10
27.365724
 20
31.901944
  0
VERTEX
  8
5
  6
CONTINUOUS
 10
27.295846
 20
32.497861
  0
VERTEX
  8
5
  6
CONTINUOUS
 10
26.699929
 20
32.427983
  0
VERTEX
  8
5
  6
CONTINUOUS
 10
26.769807
 20
31.832066
  0
SEQEND
  8
5
  6
CONTINUOUS
  0
LINE
  8
1
  6
CONTINUOUS
 10
46.698247
 20
34.470849
 11
46.698247
 21
34.470849
  0
POLYLINE
  8
5
  6
CONTINUOUS
 66
     1
  0
VERTEX
  8
5
  6
CONTINUOUS
 10
46.435228
 20
34.137952
  0
VERTEX
  8
5
  6
CONTINUOUS
 10
47.031145
 20
34.207830
  0
VERTEX
  8
5
  6
CONTINUOUS
 10
46.961267
 20
34.803747
  0
VERTEX
  8
5
  6
CONTINUOUS
 10
46.365350
 20
34.733869
  0
VERTEX
  8
5
  6
CONTINUOUS
 10
46.435228
 20
34.137952
  0
SEQEND
  8
5
  6
CONTINUOUS
  0
LINE
  8
1
  6
CONTINUOUS
 10
92.022236
 20
61.038796
 11
92.022236
 21
61.038796
  0
POLYLINE
  8
5
  6
CONTINUOUS
 66
     1
  0
VERTEX
  8
5
  6
CONTINUOUS
 10
91.870182
 20
60.618226
  0
VERTEX
  8
5
  6
CONTINUOUS
 10
92.267460
 20
60.664811
  0
VERTEX
  8
5
  6
CONTINUOUS
 10
92.174290
 20
61.459367
  0
VERTEX
  8
5
  6
CONTINUOUS
 10
91.777012
 20
61.412782
  0
VERTEX
  8
5
  6
CONTINUOUS
 10
91.870182
 20
60.618226
  0
SEQEND
  8
5
  6
CONTINUOUS
  0
LINE
  8
1
  6
CONTINUOUS
 10
17.079968
 20
53.444061
 11
17.079968
 21
53.444061
  0
POLYLINE
  8
5
  6
CONTINUOUS
 66
     1
  0
VERTEX
  8
5
  6
CONTINUOUS
 10
16.805375
 20
53.210397
  0
VERTEX
  8
5
  6
CONTINUOUS
 10
17.401270
 20
53.280462
  0
VERTEX
  8
5
  6
CONTINUOUS
 10
17.354560
 20
53.677725
  0
VERTEX
  8
5
  6
CONTINUOUS
 10
16.758665
 20
53.607660
  0
VERTEX
  8
5
  6
CONTINUOUS
 10
16.805375
 20
53.210397
  0
SEQEND
  8
5
  6
CONTINUOUS
  0
LINE
  8
1
  6
CONTINUOUS
 10
85.818150
 20
27.225533
 11
85.818150
 21
27.225533
  0
POLYLINE
  8
5
  6
CONTINUOUS
 66
     1
  0
VERTEX
  8
5
  6
CONTINUOUS
 10
85.555131
 20
26.892635
  0
VERTEX
  8
5
  6
CONTINUOUS
 10
86.151048
 20
26.962513
  0
VERTEX
  8
5
  6
CONTINUOUS
 10
86.081170
 20
27.558430
  0
VERTEX
  8
5
  6
CONTINUOUS
 10
85.485253
 20
27.488552
  0
VERTEX
  8
5
  6
CONTINUOUS
 10
85.555131
 20
26.892635
  0
SEQEND
  8
5
  6
CONTINUOUS
  0
LINE
  8
1
  6
CONTINUOUS
 10
59.217025
 20
57.901950
 11
59.664590
 21
58.360549
  0
LINE
  8
1
  6
CONTINUOUS
 10
59.215698
 20
58.349791
 11
59.655249
 21
57.899404
  0
LINE
  8
1
  6
CONTINUOUS
 10
96.495028
 20
17.530294
 11
96.943937
 21
17.979359
  0
LINE
  8
1
  6
CONTINUOUS
 10
96.494993
 20
17.979374
 11
96.943797
 21
17.530413
  0
LINE
  8
1
  6
CONTINUOUS
 10
13.435916
 20
8.190952
 11
13.884926
 21
8.639147
  0
LINE
  8
1
  6
CONTINUOUS
 10
13.435989
 20
8.639971
 11
13.892443
 21
8.184345
  0
LINE
  8
1
  6
CONTINUOUS
 10
61.831155
 20
58.312871
 11
62.291698
 21
58.772880
  0
LINE
  8
1
  6
CONTINUOUS
 10
61.840703
 20
58.774450
 11
62.289871
 21
58.325804
  0
LINE
  8
1
  6
CONTINUOUS
 10
66.007716
 20
13.801652
 11
66.451837
 21
14.327612
  0
LINE
  8
1
  6
CONTINUOUS
 10
66.003330
 20
14.349197
 11
66.466256
 21
13.800967
  0
LINE
  8
1
  6
CONTINUOUS
 10
8.182070
 20
51.257866
 11
8.593821
 21
52.011404
  0
LINE
  8
1
  6
CONTINUOUS
 10
8.104025
 20
52.154175
 11
8.671687
 21
51.115308
  0
POLYLINE
  8
6
  6
CONTINUOUS
 66
     1
  0
VERTEX
  8
6
  6
CONTINUOUS
 10
78.787011
 20
37.802759
  0
VERTEX
  8
6
  6
CONTINUOUS
 10
79.140555
 20
37.844216
  0
VERTEX
  8
6
  6
CONTINUOUS
 10
79.152539
 20
37.742012
  0
VERTEX
  8
6
  6
CONTINUOUS
 10
79.595445
 20
38.005933
  0
VERTEX
  8
6
  6
CONTINUOUS
 10
79.103499
 20
38.160232
  0
VERTEX
  8
6
  6
CONTINUOUS
 10
79.115483
 20
38.058029
  0
VERTEX
  8
6
  6
CONTINUOUS
 10
78.761939
 20
38.016572
  0
VERTEX
  8
6
  6
CONTINUOUS
 10
78.787011
 20
37.802759
  0
SEQEND
  8
6
  6
CONTINUOUS
  0
POLYLINE
  8
6
  6
CONTINUOUS
 66
     1
  0
VERTEX
  8
6
  6
CONTINUOUS
 10
35.998238
 20
32.990197
  0
VERTEX
  8
6
  6
CONTINUOUS
 10
36.351782
 20
33.031653
  0
VERTEX
  8
6
  6
CONTINUOUS
 10
36.363766
 20
32.929450
  0
VERTEX
  8
6
  6
CONTINUOUS
 10
36.806672
 20
33.193371
  0
VERTEX
  8
6
  6
CONTINUOUS
 10
36.314726
 20
33.347670
  0
VERTEX
  8
6
  6
CONTINUOUS
 10
36.326710
 20
33.245467
  0
VERTEX
  8
6
  6
CONTINUOUS
 10
35.973166
 20
33.204010
  0
VERTEX
  8
6
  6
CONTINUOUS
 10
35.998238
 20
32.990197
  0
SEQEND
  8
6
  6
CONTINUOUS
  0
LINE
  8
1
  6
CONTINUOUS
 10
66.176989
 20
16.704566
 11
65.687936
 21
16.647219
  0
LINE
  8
1
  6
CONTINUOUS
 10
66.176989
 20
16.704566
 11
65.983090
 21
16.655545
  0
LINE
  8
1
  6
CONTINUOUS
 10
66.176989
 20
16.704566
 11
65.977009
 21
16.707400
  0
LINE
  8
1
  6
CONTINUOUS
 10
65.687936
 20
16.647219
 11
65.881836
 21
16.696240
  0
LINE
  8
1
  6
CONTINUOUS
 10
65.687936
 20
16.647219
 11
65.887916
 21
16.644385
  0
LINE
  8
2
  6
CONTINUOUS
 10
66.176989
 20
16.704566
 11
66.176989
 21
16.704566
  0
LINE
  8
2
  6
CONTINUOUS
 10
65.687936
 20
16.647219
 11
65.687936
 21
16.647219
  0
CIRCLE
  8
2
  6
CONTINUOUS
 10
66.078561
 20
16.693024
 40
0.033300
  0
CIRCLE
  8
2
  6
CONTINUOUS
 10
66.078561
 20
16.693024
 40
0.016600
  0
LINE
  8
18
  6
CONTINUOUS
 10
65.323210
 20
25.367153
 11
65.283147
 21
25.708812
  0
ARC
  8
18
  6
CONTINUOUS
 10
65.227528
 20
25.702290
 40
0.056000
 50
6.687988
 51
96.687988
  0
LINE
  8
18
  6
CONTINUOUS
 10
65.221006
 20
25.757909
 11
65.074013
 21
25.740673
  0
ARC
  8
18
  6
CONTINUOUS
 10
65.080535
 20
25.685054
 40
0.056000
 50
96.687988
 51
186.687988
  0
LINE
  8
18
  6
CONTINUOUS
 10
65.024916
 20
25.678532
 11
66.337081
 21
14.488360
  0
ARC
  8
18
  6
CONTINUOUS
 10
66.392700
 20
14.494882
 40
0.056000
 50
186.687988
 51
276.687988
  0
LINE
  8
18
  6
CONTINUOUS
 10
66.399222
 20
14.439263
 11
66.546214
 21
14.456500
  0
ARC
  8
18
  6
CONTINUOUS
 10
66.539693
 20
14.512119
 40
0.056000
 50
276.687988
 51
6.687988
  0
LINE
  8
18
  6
CONTINUOUS
 10
66.595312
 20
14.518641
 11
66.555248
 21
14.860300
  0
LINE
  8
1
  6
CONTINUOUS
 10
95.887624
 20
26.997826
 11
95.443454
 21
26.945742
  0
LINE
  8
1
  6
CONTINUOUS
 10
95.887624
 20
26.997826
 11
95.693724
 21
26.948805
  0
LINE
  8
1
  6
CONTINUOUS
 10
95.887624
 20
26.997826
 11
95.687644
 21
27.000660
  0
LINE
  8
1
  6
CONTINUOUS
 10
95.443454
 20
26.945742
 11
95.637353
 21
26.994763
  0
LINE
  8
1
  6
CONTINUOUS
 10
95.443454
 20
26.945742
 11
95.643434
 21
26.942908
  0
LINE
  8
2
  6
CONTINUOUS
 10
95.887624
 20
26.997826
 11
95.887624
 21
26.997826
  0
LINE
  8
2
  6
CONTINUOUS
 10
95.443454
 20
26.945742
 11
95.443454
 21
26.945742
  0
CIRCLE
  8
2
  6
CONTINUOUS
 10
95.771344
 20
26.984191
 40
0.033300
  0
CIRCLE
  8
2
  6
CONTINUOUS
 10
95.771344
 20
26.984191
 40
0.016600
  0
LINE
  8
1
  6
ESTILO_TQS_0002
 10
95.771344
 20
26.984191
 11
93.026447
 21
50.392733
  0
LINE
  8
1
  6
ESTILO_TQS_0002
 10
95.771344
 20
26.984191
 11
95.887624
 21
26.997826
  0
LINE
  8
18
  6
CONTINUOUS
 10
91.899153
 20
62.238798
 11
91.857704
 21
62.592276
  0
ARC
  8
18
  6
CONTINUOUS
 10
91.813905
 20
62.587140
 40
0.044100
 50
6.687988
 51
96.687988
  0
LINE
  8
18
  6
CONTINUOUS
 10
91.808769
 20
62.630940
 11
91.638138
 21
62.610932
  0
ARC
  8
18
  6
CONTINUOUS
 10
91.643274
 20
62.567132
 40
0.044100
 50
96.687988
 51
186.687988
  0
LINE
  8
18
  6
CONTINUOUS
 10
91.599474
 20
62.561996
 11
93.026447
 21
50.392733
  0
LINE
  8
1
  6
CONTINUOUS
 10
95.786354
 20
27.861486
 11
95.342184
 21
27.809403
  0
LINE
  8
1
  6
CONTINUOUS
 10
95.786354
 20
27.861486
 11
95.592455
 21
27.812466
  0
LINE
  8
1
  6
CONTINUOUS
 10
95.786354
 20
27.861486
 11
95.586374
 21
27.864321
  0
LINE
  8
1
  6
CONTINUOUS
 10
95.342184
 20
27.809403
 11
95.536084
 21
27.858424
  0
LINE
  8
1
  6
CONTINUOUS
 10
95.342184
 20
27.809403
 11
95.542164
 21
27.806568
  0
LINE
  8
2
  6
CONTINUOUS
 10
95.786354
 20
27.861486
 11
95.786354
 21
27.861486
  0
LINE
  8
2
  6
CONTINUOUS
 10
95.342184
 20
27.809403
 11
95.342184
 21
27.809403
  0
CIRCLE
  8
2
  6
CONTINUOUS
 10
95.272788
 20
27.801265
 40
0.033300
  0
CIRCLE
  8
2
  6
CONTINUOUS
 10
95.272788
 20
27.801265
 40
0.016600
  0
LINE
  8
1
  6
ESTILO_TQS_0002
 10
95.272788
 20
27.801265
 11
95.342184
 21
27.809403
  0
LINE
  8
18
  6
CONTINUOUS
 10
94.986366
 20
30.243878
 11
96.413340
 21
18.074616
  0
ARC
  8
18
  6
CONTINUOUS
 10
96.457140
 20
18.079752
 40
0.044100
 50
186.687988
 51
276.687988
  0
LINE
  8
18
  6
CONTINUOUS
 10
96.462276
 20
18.035952
 11
96.632907
 21
18.055960
  0
ARC
  8
18
  6
CONTINUOUS
 10
96.627771
 20
18.099760
 40
0.044100
 50
276.687988
 51
6.687988
  0
LINE
  8
18
  6
CONTINUOUS
 10
96.671570
 20
18.104896
 11
96.630121
 21
18.458374
  0
LINE
  8
1
  6
CONTINUOUS
 10
93.496774
 20
47.387052
 11
93.052604
 21
47.334968
  0
LINE
  8
1
  6
CONTINUOUS
 10
93.496774
 20
47.387052
 11
93.302875
 21
47.338031
  0
LINE
  8
1
  6
CONTINUOUS
 10
93.496774
 20
47.387052
 11
93.296794
 21
47.389886
  0
LINE
  8
1
  6
CONTINUOUS
 10
93.052604
 20
47.334968
 11
93.246504
 21
47.383989
  0
LINE
  8
1
  6
CONTINUOUS
 10
93.052604
 20
47.334968
 11
93.252584
 21
47.332134
  0
LINE
  8
2
  6
CONTINUOUS
 10
93.496774
 20
47.387052
 11
93.496774
 21
47.387052
  0
LINE
  8
2
  6
CONTINUOUS
 10
93.052604
 20
47.334969
 11
93.052604
 21
47.334969
  0
CIRCLE
  8
2
  6
CONTINUOUS
 10
92.665396
 20
47.289564
 40
0.033300
  0
CIRCLE
  8
2
  6
CONTINUOUS
 10
92.665396
 20
47.289564
 40
0.016600
  0
LINE
  8
1
  6
ESTILO_TQS_0002
 10
92.665396
 20
47.289564
 11
93.052604
 21
47.334968
  0
LINE
  8
18
  6
CONTINUOUS
 10
92.115692
 20
51.977445
 11
94.864208
 21
28.538041
  0
LINE
  8
1
  6
CONTINUOUS
 10
95.234079
 20
26.171440
 11
66.511959
 21
22.803471
  0
LINE
  8
1
  6
CONTINUOUS
 10
95.234079
 20
26.171440
 11
95.040180
 21
26.122419
  0
LINE
  8
1
  6
CONTINUOUS
 10
95.234079
 20
26.171440
 11
95.034099
 21
26.174274
  0
LINE
  8
1
  6
CONTINUOUS
 10
66.511959
 20
22.803471
 11
66.705858
 21
22.852492
  0
LINE
  8
1
  6
CONTINUOUS
 10
66.511959
 20
22.803471
 11
66.711939
 21
22.800636
  0
LINE
  8
2
  6
CONTINUOUS
 10
95.234079
 20
26.171440
 11
95.234079
 21
26.171440
  0
LINE
  8
2
  6
CONTINUOUS
 10
66.511960
 20
22.803463
 11
66.511960
 21
22.803463
  0
CIRCLE
  8
2
  6
CONTINUOUS
 10
89.935983
 20
25.550183
 40
0.033300
  0
CIRCLE
  8
2
  6
CONTINUOUS
 10
89.935983
 20
25.550183
 40
0.016600
  0
LINE
  8
1
  6
ESTILO_TQS_0002
 10
89.935983
 20
25.550183
 11
87.165349
 21
49.178210
  0
LINE
  8
1
  6
ESTILO_TQS_0002
 10
89.935983
 20
25.550183
 11
95.234079
 21
26.171440
  0
LINE
  8
18
  6
CONTINUOUS
 10
85.977083
 20
61.544247
 11
85.935634
 21
61.897725
  0
ARC
  8
18
  6
CONTINUOUS
 10
85.891834
 20
61.892589
 40
0.044100
 50
6.687988
 51
96.687988
  0
LINE
  8
18
  6
CONTINUOUS
 10
85.886698
 20
61.936389
 11
85.716067
 21
61.916381
  0
ARC
  8
18
  6
CONTINUOUS
 10
85.721203
 20
61.872581
 40
0.044100
 50
96.687988
 51
186.687988
  0
LINE
  8
18
  6
CONTINUOUS
 10
85.677403
 20
61.867445
 11
87.165349
 21
49.178210
  0
LINE
  8
1
  6
CONTINUOUS
 10
95.119264
 20
27.150590
 11
66.397145
 21
23.782621
  0
LINE
  8
1
  6
CONTINUOUS
 10
95.119264
 20
27.150590
 11
94.925365
 21
27.101570
  0
LINE
  8
1
  6
CONTINUOUS
 10
95.119264
 20
27.150590
 11
94.919285
 21
27.153425
  0
LINE
  8
1
  6
CONTINUOUS
 10
66.397145
 20
23.782621
 11
66.591045
 21
23.831642
  0
LINE
  8
1
  6
CONTINUOUS
 10
66.397145
 20
23.782621
 11
66.597125
 21
23.779787
  0
LINE
  8
2
  6
CONTINUOUS
 10
95.119264
 20
27.150590
 11
95.119264
 21
27.150590
  0
LINE
  8
2
  6
CONTINUOUS
 10
66.397145
 20
23.782622
 11
66.397145
 21
23.782622
  0
CIRCLE
  8
2
  6
CONTINUOUS
 10
89.582800
 20
26.501382
 40
0.033300
  0
CIRCLE
  8
2
  6
CONTINUOUS
 10
89.582800
 20
26.501382
 40
0.016600
  0
LINE
  8
18
  6
CONTINUOUS
 10
89.284184
 20
29.047990
 11
90.772129
 21
16.358755
  0
ARC
  8
18
  6
CONTINUOUS
 10
90.815929
 20
16.363891
 40
0.044100
 50
186.687988
 51
276.687988
  0
LINE
  8
18
  6
CONTINUOUS
 10
90.821065
 20
16.320091
 11
90.991696
 21
16.340099
  0
ARC
  8
18
  6
CONTINUOUS
 10
90.986560
 20
16.383899
 40
0.044100
 50
276.687988
 51
6.687988
  0
LINE
  8
18
  6
CONTINUOUS
 10
91.030360
 20
16.389035
 11
90.988911
 21
16.742513
  0
LINE
  8
1
  6
CONTINUOUS
 10
92.817497
 20
46.780155
 11
64.095378
 21
43.412185
  0
LINE
  8
1
  6
CONTINUOUS
 10
92.817497
 20
46.780155
 11
92.623598
 21
46.731134
  0
LINE
  8
1
  6
CONTINUOUS
 10
92.817497
 20
46.780155
 11
92.617517
 21
46.782989
  0
LINE
  8
1
  6
CONTINUOUS
 10
64.095378
 20
43.412185
 11
64.289277
 21
43.461206
  0
LINE
  8
1
  6
CONTINUOUS
 10
64.095378
 20
43.412185
 11
64.295358
 21
43.409351
  0
LINE
  8
2
  6
CONTINUOUS
 10
92.817497
 20
46.780155
 11
92.817497
 21
46.780155
  0
LINE
  8
2
  6
CONTINUOUS
 10
64.095378
 20
43.412186
 11
64.095378
 21
43.412186
  0
CIRCLE
  8
2
  6
CONTINUOUS
 10
87.122114
 20
46.112311
 40
0.033300
  0
CIRCLE
  8
2
  6
CONTINUOUS
 10
87.122114
 20
46.112311
 40
0.016600
  0
LINE
  8
18
  6
CONTINUOUS
 10
86.572411
 20
50.800192
 11
89.320927
 21
27.360788
  0
LINE
  8
1
  6
CONTINUOUS
 10
66.247897
 20
22.495443
 11
65.655680
 21
22.425999
  0
LINE
  8
1
  6
CONTINUOUS
 10
66.247897
 20
22.495443
 11
66.053998
 21
22.446422
  0
LINE
  8
1
  6
CONTINUOUS
 10
66.247897
 20
22.495443
 11
66.047917
 21
22.498277
  0
LINE
  8
1
  6
CONTINUOUS
 10
65.655680
 20
22.425999
 11
65.849580
 21
22.475020
  0
LINE
  8
1
  6
CONTINUOUS
 10
65.655680
 20
22.425999
 11
65.855660
 21
22.423165
  0
LINE
  8
2
  6
CONTINUOUS
 10
66.247897
 20
22.495443
 11
66.247897
 21
22.495443
  0
LINE
  8
2
  6
CONTINUOUS
 10
65.655680
 20
22.425999
 11
65.655680
 21
22.425999
  0
CIRCLE
  8
2
  6
CONTINUOUS
 10
66.279678
 20
22.499169
 40
0.033300
  0
CIRCLE
  8
2
  6
CONTINUOUS
 10
66.279678
 20
22.499169
 40
0.016600
  0
LINE
  8
1
  6
ESTILO_TQS_0002
 10
66.279678
 20
22.499169
 11
63.529730
 21
45.950789
  0
LINE
  8
1
  6
ESTILO_TQS_0002
 10
66.279678
 20
22.499169
 11
66.247897
 21
22.495443
  0
LINE
  8
18
  6
CONTINUOUS
 10
62.393431
 20
57.873651
 11
62.351982
 21
58.227129
  0
ARC
  8
18
  6
CONTINUOUS
 10
62.308182
 20
58.221993
 40
0.044100
 50
6.687988
 51
96.687988
  0
LINE
  8
18
  6
CONTINUOUS
 10
62.303046
 20
58.265793
 11
62.132415
 21
58.245785
  0
ARC
  8
18
  6
CONTINUOUS
 10
62.137551
 20
58.201985
 40
0.044100
 50
96.687988
 51
186.687988
  0
LINE
  8
18
  6
CONTINUOUS
 10
62.093751
 20
58.196849
 11
63.529730
 21
45.950789
  0
LINE
  8
1
  6
CONTINUOUS
 10
66.143376
 20
23.386821
 11
65.551159
 21
23.317377
  0
LINE
  8
1
  6
CONTINUOUS
 10
66.143376
 20
23.386821
 11
65.949476
 21
23.337800
  0
LINE
  8
1
  6
CONTINUOUS
 10
66.143376
 20
23.386821
 11
65.943396
 21
23.389655
  0
LINE
  8
1
  6
CONTINUOUS
 10
65.551159
 20
23.317377
 11
65.745058
 21
23.366398
  0
LINE
  8
1
  6
CONTINUOUS
 10
65.551159
 20
23.317377
 11
65.751139
 21
23.314543
  0
LINE
  8
2
  6
CONTINUOUS
 10
66.143376
 20
23.386821
 11
66.143376
 21
23.386821
  0
LINE
  8
2
  6
CONTINUOUS
 10
65.551159
 20
23.317378
 11
65.551159
 21
23.317378
  0
CIRCLE
  8
2
  6
CONTINUOUS
 10
66.095703
 20
23.381231
 40
0.033300
  0
CIRCLE
  8
2
  6
CONTINUOUS
 10
66.095703
 20
23.381231
 40
0.016600
  0
LINE
  8
18
  6
CONTINUOUS
 10
65.807480
 20
25.839203
 11
67.243459
 21
13.593143
  0
ARC
  8
18
  6
CONTINUOUS
 10
67.287258
 20
13.598279
 40
0.044100
 50
186.687988
 51
276.687988
  0
LINE
  8
18
  6
CONTINUOUS
 10
67.292394
 20
13.554479
 11
67.463025
 21
13.574487
  0
ARC
  8
18
  6
CONTINUOUS
 10
67.457889
 20
13.618287
 40
0.044100
 50
276.687988
 51
6.687988
  0
LINE
  8
18
  6
CONTINUOUS
 10
67.501689
 20
13.623423
 11
67.460240
 21
13.976901
  0
LINE
  8
1
  6
CONTINUOUS
 10
63.851999
 20
42.927747
 11
63.259782
 21
42.858304
  0
LINE
  8
1
  6
CONTINUOUS
 10
63.851999
 20
42.927747
 11
63.658099
 21
42.878727
  0
LINE
  8
1
  6
CONTINUOUS
 10
63.851999
 20
42.927747
 11
63.652019
 21
42.930582
  0
LINE
  8
1
  6
CONTINUOUS
 10
63.259782
 20
42.858304
 11
63.453681
 21
42.907325
  0
LINE
  8
1
  6
CONTINUOUS
 10
63.259782
 20
42.858304
 11
63.459762
 21
42.855469
  0
LINE
  8
2
  6
CONTINUOUS
 10
63.851999
 20
42.927747
 11
63.851999
 21
42.927747
  0
LINE
  8
2
  6
CONTINUOUS
 10
63.259782
 20
42.858304
 11
63.259782
 21
42.858304
  0
CIRCLE
  8
2
  6
CONTINUOUS
 10
63.804322
 20
42.922157
 40
0.033300
  0
CIRCLE
  8
2
  6
CONTINUOUS
 10
63.804322
 20
42.922157
 40
0.016600
  0
LINE
  8
18
  6
CONTINUOUS
 10
63.254618
 20
47.610038
 11
66.003134
 21
24.170634
  0
LINE
  8
1
  6
CONTINUOUS
 10
72.550270
 20
14.514935
 11
72.506640
 21
14.887018
  0
LINE
  8
1
  6
CONTINUOUS
 10
72.550270
 20
14.514935
 11
72.501249
 21
14.708834
  0
LINE
  8
1
  6
CONTINUOUS
 10
72.550270
 20
14.514935
 11
72.553105
 21
14.714915
  0
LINE
  8
1
  6
CONTINUOUS
 10
72.506640
 20
14.887018
 11
72.555660
 21
14.693118
  0
LINE
  8
1
  6
CONTINUOUS
 10
72.506640
 20
14.887018
 11
72.503805
 21
14.687038
  0
LINE
  8
2
  6
CONTINUOUS
 10
72.550270
 20
14.514935
 11
72.550270
 21
14.514935
  0
LINE
  8
2
  6
CONTINUOUS
 10
72.506637
 20
14.887017
 11
72.506637
 21
14.887017
  0
CIRCLE
  8
2
  6
CONTINUOUS
 10
72.505708
 20
14.894962
 40
0.033300
  0
CIRCLE
  8
2
  6
CONTINUOUS
 10
72.505708
 20
14.894962
 40
0.016600
  0
LINE
  8
1
  6
ESTILO_TQS_0002
 10
72.505708
 20
14.894962
 11
72.506640
 21
14.887018
  0
LINE
  8
18
  6
CONTINUOUS
 10
66.893284
 20
14.518764
 11
66.551625
 21
14.478701
  0
ARC
  8
18
  6
CONTINUOUS
 10
66.558147
 20
14.423082
 40
0.056000
 50
96.688000
 51
186.688000
  0
LINE
  8
18
  6
CONTINUOUS
 10
66.502528
 20
14.416560
 11
66.522094
 21
14.249703
  0
ARC
  8
18
  6
CONTINUOUS
 10
66.577713
 20
14.256225
 40
0.056000
 50
186.688000
 51
276.688000
  0
LINE
  8
18
  6
CONTINUOUS
 10
66.584235
 20
14.200606
 11
75.596732
 21
15.257418
  0
LINE
  8
1
  6
CONTINUOUS
 10
78.247438
 20
15.182989
 11
78.203808
 21
15.555072
  0
LINE
  8
1
  6
CONTINUOUS
 10
78.247438
 20
15.182989
 11
78.198417
 21
15.376888
  0
LINE
  8
1
  6
CONTINUOUS
 10
78.247438
 20
15.182989
 11
78.250273
 21
15.382968
  0
LINE
  8
1
  6
CONTINUOUS
 10
78.203808
 20
15.555072
 11
78.252828
 21
15.361173
  0
LINE
  8
1
  6
CONTINUOUS
 10
78.203808
 20
15.555072
 11
78.200973
 21
15.355092
  0
LINE
  8
2
  6
CONTINUOUS
 10
78.247438
 20
15.182989
 11
78.247438
 21
15.182989
  0
LINE
  8
2
  6
CONTINUOUS
 10
78.203805
 20
15.555072
 11
78.203805
 21
15.555072
  0
CIRCLE
  8
2
  6
CONTINUOUS
 10
78.184242
 20
15.721927
 40
0.033300
  0
CIRCLE
  8
2
  6
CONTINUOUS
 10
78.184242
 20
15.721927
 40
0.016600
  0
LINE
  8
1
  6
ESTILO_TQS_0002
 10
78.184242
 20
15.721927
 11
78.203808
 21
15.555072
  0
LINE
  8
18
  6
CONTINUOUS
 10
73.631437
 20
15.188062
 11
96.339849
 21
17.850866
  0
ARC
  8
18
  6
CONTINUOUS
 10
96.333327
 20
17.906485
 40
0.056000
 50
276.688000
 51
6.688000
  0
LINE
  8
18
  6
CONTINUOUS
 10
96.388946
 20
17.913007
 11
96.369380
 21
18.079863
  0
ARC
  8
18
  6
CONTINUOUS
 10
96.313761
 20
18.073341
 40
0.056000
 50
6.688000
 51
96.688000
  0
LINE
  8
18
  6
CONTINUOUS
 10
96.307239
 20
18.128960
 11
95.965580
 21
18.088897
  0
LINE
  8
18
  6
CONTINUOUS
 10
65.981497
 20
14.663314
 11
65.639838
 21
14.623250
  0
ARC
  8
18
  6
CONTINUOUS
 10
65.646360
 20
14.567632
 40
0.056000
 50
96.688000
 51
186.688000
  0
LINE
  8
18
  6
CONTINUOUS
 10
65.590741
 20
14.561110
 11
65.610307
 21
14.394253
  0
ARC
  8
18
  6
CONTINUOUS
 10
65.665926
 20
14.400775
 40
0.056000
 50
186.688000
 51
276.688000
  0
LINE
  8
18
  6
CONTINUOUS
 10
65.672448
 20
14.345156
 11
75.572564
 21
15.506050
  0
LINE
  8
18
  6
CONTINUOUS
 10
73.597950
 20
15.516150
 11
96.306362
 21
18.178954
  0
ARC
  8
18
  6
CONTINUOUS
 10
96.299840
 20
18.234573
 40
0.056000
 50
276.688000
 51
6.688000
  0
LINE
  8
18
  6
CONTINUOUS
 10
96.355459
 20
18.241095
 11
96.335893
 21
18.407952
  0
ARC
  8
18
  6
CONTINUOUS
 10
96.280274
 20
18.401430
 40
0.056000
 50
6.688000
 51
96.688000
  0
LINE
  8
18
  6
CONTINUOUS
 10
96.273752
 20
18.457049
 11
95.932093
 21
18.416986
  0
LINE
  8
1
  6
CONTINUOUS
 10
72.552927
 20
15.395376
 11
67.462683
 21
58.805013
  0
LINE
  8
1
  6
CONTINUOUS
 10
72.552927
 20
15.395376
 11
72.503906
 21
15.589276
  0
LINE
  8
1
  6
CONTINUOUS
 10
72.552927
 20
15.395376
 11
72.555761
 21
15.595356
  0
LINE
  8
1
  6
CONTINUOUS
 10
67.462683
 20
58.805013
 11
67.511704
 21
58.611114
  0
LINE
  8
1
  6
CONTINUOUS
 10
67.462683
 20
58.805013
 11
67.459849
 21
58.605033
  0
LINE
  8
2
  6
CONTINUOUS
 10
72.552927
 20
15.395376
 11
72.552927
 21
15.395376
  0
LINE
  8
2
  6
CONTINUOUS
 10
67.462682
 20
58.805013
 11
67.462682
 21
58.805013
  0
CIRCLE
  8
2
  6
CONTINUOUS
 10
68.479800
 20
50.131034
 40
0.033300
  0
CIRCLE
  8
2
  6
CONTINUOUS
 10
68.479800
 20
50.131034
 40
0.016600
  0
LINE
  8
18
  6
CONTINUOUS
 10
62.684886
 20
49.733437
 11
62.343227
 21
49.693373
  0
ARC
  8
18
  6
CONTINUOUS
 10
62.349749
 20
49.637755
 40
0.056000
 50
96.688000
 51
186.688000
  0
LINE
  8
18
  6
CONTINUOUS
 10
62.294130
 20
49.631233
 11
62.313696
 21
49.464376
  0
ARC
  8
18
  6
CONTINUOUS
 10
62.369315
 20
49.470898
 40
0.056000
 50
186.688000
 51
276.688000
  0
LINE
  8
18
  6
CONTINUOUS
 10
62.375836
 20
49.415279
 11
72.080107
 21
50.553208
  0
LINE
  8
1
  6
CONTINUOUS
 10
78.759372
 20
16.123148
 11
73.669128
 21
59.532787
  0
LINE
  8
1
  6
CONTINUOUS
 10
78.759372
 20
16.123148
 11
78.710351
 21
16.317048
  0
LINE
  8
1
  6
CONTINUOUS
 10
78.759372
 20
16.123148
 11
78.762206
 21
16.323128
  0
LINE
  8
1
  6
CONTINUOUS
 10
73.669128
 20
59.532787
 11
73.718149
 21
59.338887
  0
LINE
  8
1
  6
CONTINUOUS
 10
73.669128
 20
59.532787
 11
73.666294
 21
59.332807
  0
LINE
  8
2
  6
CONTINUOUS
 10
78.759372
 20
16.123148
 11
78.759372
 21
16.123148
  0
LINE
  8
2
  6
CONTINUOUS
 10
73.669128
 20
59.532786
 11
73.669128
 21
59.532786
  0
CIRCLE
  8
2
  6
CONTINUOUS
 10
74.648977
 20
51.176628
 40
0.033300
  0
CIRCLE
  8
2
  6
CONTINUOUS
 10
74.648977
 20
51.176628
 40
0.016600
  0
LINE
  8
18
  6
CONTINUOUS
 10
70.096172
 20
50.642763
 11
92.804584
 21
53.305567
  0
ARC
  8
18
  6
CONTINUOUS
 10
92.798062
 20
53.361186
 40
0.056000
 50
276.688000
 51
6.688000
  0
LINE
  8
18
  6
CONTINUOUS
 10
92.853681
 20
53.367708
 11
92.834115
 21
53.534565
  0
ARC
  8
18
  6
CONTINUOUS
 10
92.778496
 20
53.528043
 40
0.056000
 50
6.688000
 51
96.688000
  0
LINE
  8
18
  6
CONTINUOUS
 10
92.771974
 20
53.583662
 11
92.430315
 21
53.543599
  0
LINE
  8
1
  6
CONTINUOUS
 10
68.322399
 20
59.157293
 11
68.293312
 21
59.405350
  0
LINE
  8
1
  6
CONTINUOUS
 10
68.322399
 20
59.157293
 11
68.273378
 21
59.351193
  0
LINE
  8
1
  6
CONTINUOUS
 10
68.322399
 20
59.157293
 11
68.325234
 21
59.357273
  0
LINE
  8
1
  6
CONTINUOUS
 10
68.293312
 20
59.405350
 11
68.342333
 21
59.211451
  0
LINE
  8
1
  6
CONTINUOUS
 10
68.293312
 20
59.405350
 11
68.290478
 21
59.205371
  0
LINE
  8
2
  6
CONTINUOUS
 10
68.322399
 20
59.157293
 11
68.322399
 21
59.157293
  0
LINE
  8
2
  6
CONTINUOUS
 10
68.293307
 20
59.405350
 11
68.293307
 21
59.405350
  0
CIRCLE
  8
2
  6
CONTINUOUS
 10
68.292380
 20
59.413294
 40
0.033300
  0
CIRCLE
  8
2
  6
CONTINUOUS
 10
68.292380
 20
59.413294
 40
0.016600
  0
LINE
  8
1
  6
ESTILO_TQS_0002
 10
68.292380
 20
59.413294
 11
68.293312
 21
59.405350
  0
LINE
  8
18
  6
CONTINUOUS
 10
62.723597
 20
59.042214
 11
62.381938
 21
59.002150
  0
ARC
  8
18
  6
CONTINUOUS
 10
62.388460
 20
58.946531
 40
0.056000
 50
96.688000
 51
186.688000
  0
LINE
  8
18
  6
CONTINUOUS
 10
62.332841
 20
58.940009
 11
62.352407
 21
58.773153
  0
ARC
  8
18
  6
CONTINUOUS
 10
62.408025
 20
58.779675
 40
0.056000
 50
186.688000
 51
276.688000
  0
LINE
  8
18
  6
CONTINUOUS
 10
62.414547
 20
58.724056
 11
71.208811
 21
59.755277
  0
LINE
  8
1
  6
CONTINUOUS
 10
73.844977
 20
59.804876
 11
73.815890
 21
60.052933
  0
LINE
  8
1
  6
CONTINUOUS
 10
73.844977
 20
59.804876
 11
73.795956
 21
59.998776
  0
LINE
  8
1
  6
CONTINUOUS
 10
73.844977
 20
59.804876
 11
73.847812
 21
60.004856
  0
LINE
  8
1
  6
CONTINUOUS
 10
73.815890
 20
60.052933
 11
73.864911
 21
59.859034
  0
LINE
  8
1
  6
CONTINUOUS
 10
73.815890
 20
60.052933
 11
73.813056
 21
59.852954
  0
LINE
  8
2
  6
CONTINUOUS
 10
73.844977
 20
59.804876
 11
73.844977
 21
59.804876
  0
LINE
  8
2
  6
CONTINUOUS
 10
73.815886
 20
60.052933
 11
73.815886
 21
60.052933
  0
CIRCLE
  8
2
  6
CONTINUOUS
 10
73.861544
 20
59.663599
 40
0.033300
  0
CIRCLE
  8
2
  6
CONTINUOUS
 10
73.861544
 20
59.663599
 40
0.016600
  0
LINE
  8
1
  6
ESTILO_TQS_0002
 10
73.861544
 20
59.663599
 11
73.844977
 21
59.804876
  0
LINE
  8
18
  6
CONTINUOUS
 10
69.308736
 20
59.129733
 11
92.017148
 21
61.792537
  0
ARC
  8
18
  6
CONTINUOUS
 10
92.010626
 20
61.848156
 40
0.056000
 50
276.688000
 51
6.688000
  0
LINE
  8
18
  6
CONTINUOUS
 10
92.066245
 20
61.854678
 11
92.046679
 21
62.021535
  0
ARC
  8
18
  6
CONTINUOUS
 10
91.991060
 20
62.015013
 40
0.056000
 50
6.688000
 51
96.688000
  0
LINE
  8
18
  6
CONTINUOUS
 10
91.984539
 20
62.070632
 11
91.642879
 21
62.030569
  0
LINE
  8
1
  6
CONTINUOUS
 10
61.651188
 20
39.844559
 11
61.330446
 21
39.806949
  0
LINE
  8
1
  6
CONTINUOUS
 10
61.651188
 20
39.844559
 11
61.457289
 21
39.795538
  0
LINE
  8
1
  6
CONTINUOUS
 10
61.651188
 20
39.844559
 11
61.451208
 21
39.847393
  0
LINE
  8
1
  6
CONTINUOUS
 10
61.330446
 20
39.806949
 11
61.524346
 21
39.855969
  0
LINE
  8
1
  6
CONTINUOUS
 10
61.330446
 20
39.806949
 11
61.530426
 21
39.804114
  0
LINE
  8
2
  6
CONTINUOUS
 10
61.651188
 20
39.844559
 11
61.651188
 21
39.844559
  0
LINE
  8
2
  6
CONTINUOUS
 10
61.330446
 20
39.806949
 11
61.330446
 21
39.806949
  0
CIRCLE
  8
2
  6
CONTINUOUS
 10
61.539214
 20
39.831429
 40
0.033300
  0
CIRCLE
  8
2
  6
CONTINUOUS
 10
61.539214
 20
39.831429
 40
0.016600
  0
LINE
  8
1
  6
ESTILO_TQS_0002
 10
61.539214
 20
39.831429
 11
60.581355
 21
48.000070
  0
LINE
  8
1
  6
ESTILO_TQS_0002
 10
61.539214
 20
39.831429
 11
61.651188
 21
39.844559
  0
LINE
  8
18
  6
CONTINUOUS
 10
59.730862
 20
57.485568
 11
59.690799
 21
57.827227
  0
ARC
  8
18
  6
CONTINUOUS
 10
59.635180
 20
57.820705
 40
0.056000
 50
6.687988
 51
96.687988
  0
LINE
  8
18
  6
CONTINUOUS
 10
59.628658
 20
57.876324
 11
59.481666
 21
57.859087
  0
ARC
  8
18
  6
CONTINUOUS
 10
59.488187
 20
57.803469
 40
0.056000
 50
96.687988
 51
186.687988
  0
LINE
  8
18
  6
CONTINUOUS
 10
59.432569
 20
57.796947
 11
60.581355
 21
48.000070
  0
LINE
  8
1
  6
CONTINUOUS
 10
60.811657
 20
47.004115
 11
60.490915
 21
46.966504
  0
LINE
  8
1
  6
CONTINUOUS
 10
60.811657
 20
47.004115
 11
60.617758
 21
46.955094
  0
LINE
  8
1
  6
CONTINUOUS
 10
60.811657
 20
47.004115
 11
60.611677
 21
47.006949
  0
LINE
  8
1
  6
CONTINUOUS
 10
60.490915
 20
46.966504
 11
60.684814
 21
47.015525
  0
LINE
  8
1
  6
CONTINUOUS
 10
60.490915
 20
46.966504
 11
60.690895
 21
46.963670
  0
LINE
  8
2
  6
CONTINUOUS
 10
60.811657
 20
47.004115
 11
60.811657
 21
47.004115
  0
LINE
  8
2
  6
CONTINUOUS
 10
60.490915
 20
46.966502
 11
60.490915
 21
46.966502
  0
CIRCLE
  8
2
  6
CONTINUOUS
 10
60.461313
 20
46.963033
 40
0.033300
  0
CIRCLE
  8
2
  6
CONTINUOUS
 10
60.461313
 20
46.963033
 40
0.016600
  0
LINE
  8
1
  6
ESTILO_TQS_0002
 10
60.461313
 20
46.963033
 11
60.490915
 21
46.966504
  0
LINE
  8
18
  6
CONTINUOUS
 10
60.119379
 20
49.879053
 11
61.822527
 21
35.354568
  0
ARC
  8
18
  6
CONTINUOUS
 10
61.878146
 20
35.361090
 40
0.056000
 50
186.687988
 51
276.687988
  0
LINE
  8
18
  6
CONTINUOUS
 10
61.884668
 20
35.305471
 11
62.031661
 21
35.322707
  0
ARC
  8
18
  6
CONTINUOUS
 10
62.025139
 20
35.378326
 40
0.056000
 50
276.687988
 51
6.687988
  0
LINE
  8
18
  6
CONTINUOUS
 10
62.080758
 20
35.384848
 11
62.040695
 21
35.726507
  0
LINE
  8
1
  6
CONTINUOUS
 10
62.868962
 20
22.331480
 11
13.210249
 21
16.508476
  0
LINE
  8
1
  6
CONTINUOUS
 10
62.868962
 20
22.331480
 11
62.675062
 21
22.282460
  0
LINE
  8
1
  6
CONTINUOUS
 10
62.868962
 20
22.331480
 11
62.668982
 21
22.334315
  0
LINE
  8
1
  6
CONTINUOUS
 10
13.210249
 20
16.508476
 11
13.404149
 21
16.557497
  0
LINE
  8
1
  6
CONTINUOUS
 10
13.210249
 20
16.508476
 11
13.410229
 21
16.505642
  0
LINE
  8
2
  6
CONTINUOUS
 10
62.868962
 20
22.331480
 11
62.868962
 21
22.331480
  0
LINE
  8
2
  6
CONTINUOUS
 10
13.210251
 20
16.508465
 11
13.210251
 21
16.508465
  0
CIRCLE
  8
2
  6
CONTINUOUS
 10
53.217789
 20
21.199779
 40
0.033300
  0
CIRCLE
  8
2
  6
CONTINUOUS
 10
53.217789
 20
21.199779
 40
0.016600
  0
LINE
  8
1
  6
ESTILO_TQS_0002
 10
53.217789
 20
21.199779
 11
50.410809
 21
45.137768
  0
LINE
  8
1
  6
ESTILO_TQS_0002
 10
53.217789
 20
21.199779
 11
62.868962
 21
22.331480
  0
LINE
  8
18
  6
CONTINUOUS
 10
49.225403
 20
57.479416
 11
49.010972
 21
57.454272
  0
ARC
  8
18
  6
CONTINUOUS
 10
49.016108
 20
57.410472
 40
0.044100
 50
96.687988
 51
186.687988
  0
LINE
  8
18
  6
CONTINUOUS
 10
48.972308
 20
57.405336
 11
50.410809
 21
45.137768
  0
LINE
  8
1
  6
CONTINUOUS
 10
62.707907
 20
23.704926
 11
13.049196
 21
17.881923
  0
LINE
  8
1
  6
CONTINUOUS
 10
62.707907
 20
23.704926
 11
62.514008
 21
23.655906
  0
LINE
  8
1
  6
CONTINUOUS
 10
62.707907
 20
23.704926
 11
62.507927
 21
23.707761
  0
LINE
  8
1
  6
CONTINUOUS
 10
13.049196
 20
17.881923
 11
13.243095
 21
17.930943
  0
LINE
  8
1
  6
CONTINUOUS
 10
13.049196
 20
17.881923
 11
13.249176
 21
17.879088
  0
LINE
  8
2
  6
CONTINUOUS
 10
62.707907
 20
23.704926
 11
62.707907
 21
23.704926
  0
LINE
  8
2
  6
CONTINUOUS
 10
13.049196
 20
17.881923
 11
13.049196
 21
17.881923
  0
CIRCLE
  8
2
  6
CONTINUOUS
 10
52.977284
 20
22.563909
 40
0.033300
  0
CIRCLE
  8
2
  6
CONTINUOUS
 10
52.977284
 20
22.563909
 40
0.016600
  0
LINE
  8
18
  6
CONTINUOUS
 10
52.688556
 20
25.026182
 11
54.127057
 21
12.758614
  0
ARC
  8
18
  6
CONTINUOUS
 10
54.170857
 20
12.763750
 40
0.044100
 50
186.687988
 51
276.687988
  0
LINE
  8
18
  6
CONTINUOUS
 10
54.175993
 20
12.719950
 11
54.346624
 21
12.739958
  0
ARC
  8
18
  6
CONTINUOUS
 10
54.341488
 20
12.783758
 40
0.044100
 50
276.687988
 51
6.687988
  0
LINE
  8
18
  6
CONTINUOUS
 10
54.385288
 20
12.788894
 11
54.343839
 21
13.142372
  0
LINE
  8
1
  6
CONTINUOUS
 10
60.416032
 20
43.250155
 11
10.757321
 21
37.427151
  0
LINE
  8
1
  6
CONTINUOUS
 10
60.416032
 20
43.250155
 11
60.222133
 21
43.201134
  0
LINE
  8
1
  6
CONTINUOUS
 10
60.416032
 20
43.250155
 11
60.216052
 21
43.252989
  0
LINE
  8
1
  6
CONTINUOUS
 10
10.757321
 20
37.427151
 11
10.951221
 21
37.476172
  0
LINE
  8
1
  6
CONTINUOUS
 10
10.757321
 20
37.427151
 11
10.957301
 21
37.424317
  0
LINE
  8
2
  6
CONTINUOUS
 10
60.416032
 20
43.250155
 11
60.416032
 21
43.250155
  0
LINE
  8
2
  6
CONTINUOUS
 10
10.757321
 20
37.427152
 11
10.757321
 21
37.427152
  0
CIRCLE
  8
2
  6
CONTINUOUS
 10
50.685408
 20
42.109137
 40
0.033300
  0
CIRCLE
  8
2
  6
CONTINUOUS
 10
50.685408
 20
42.109137
 40
0.016600
  0
LINE
  8
18
  6
CONTINUOUS
 10
50.135705
 20
46.797019
 11
52.884220
 21
23.357615
  0
LINE
  8
1
  6
CONTINUOUS
 10
12.792126
 20
17.511130
 11
12.495661
 21
17.476366
  0
LINE
  8
1
  6
CONTINUOUS
 10
12.792126
 20
17.511130
 11
12.598226
 21
17.462109
  0
LINE
  8
1
  6
CONTINUOUS
 10
12.792126
 20
17.511130
 11
12.592146
 21
17.513964
  0
LINE
  8
1
  6
CONTINUOUS
 10
12.495661
 20
17.476366
 11
12.689560
 21
17.525387
  0
LINE
  8
1
  6
CONTINUOUS
 10
12.495661
 20
17.476366
 11
12.695641
 21
17.473532
  0
LINE
  8
2
  6
CONTINUOUS
 10
12.792126
 20
17.511130
 11
12.792126
 21
17.511130
  0
LINE
  8
2
  6
CONTINUOUS
 10
12.495661
 20
17.476366
 11
12.495661
 21
17.476366
  0
CIRCLE
  8
2
  6
CONTINUOUS
 10
12.776234
 20
17.509267
 40
0.033300
  0
CIRCLE
  8
2
  6
CONTINUOUS
 10
12.776234
 20
17.509267
 40
0.016600
  0
LINE
  8
18
  6
CONTINUOUS
 10
8.970425
 20
52.197768
 11
8.928976
 21
52.551246
  0
ARC
  8
18
  6
CONTINUOUS
 10
8.885176
 20
52.546110
 40
0.044100
 50
6.687988
 51
96.687988
  0
LINE
  8
18
  6
CONTINUOUS
 10
8.880040
 20
52.589910
 11
8.709410
 21
52.569902
  0
ARC
  8
18
  6
CONTINUOUS
 10
8.714546
 20
52.526102
 40
0.044100
 50
96.687988
 51
186.687988
  0
LINE
  8
18
  6
CONTINUOUS
 10
8.670746
 20
52.520966
 11
13.798754
 21
8.789191
  0
ARC
  8
18
  6
CONTINUOUS
 10
13.842554
 20
8.794327
 40
0.044100
 50
186.687988
 51
276.687988
  0
LINE
  8
18
  6
CONTINUOUS
 10
13.847690
 20
8.750527
 11
14.018321
 21
8.770536
  0
ARC
  8
18
  6
CONTINUOUS
 10
14.013185
 20
8.814336
 40
0.044100
 50
276.687988
 51
6.687988
  0
LINE
  8
18
  6
CONTINUOUS
 10
14.056985
 20
8.819472
 11
14.015536
 21
9.172950
  0
LINE
  8
1
  6
CONTINUOUS
 10
12.626462
 20
41.600199
 11
12.556584
 21
42.196112
  0
LINE
  8
1
  6
CONTINUOUS
 10
12.626462
 20
41.600199
 11
12.577441
 21
41.794098
  0
LINE
  8
1
  6
CONTINUOUS
 10
12.626462
 20
41.600199
 11
12.629296
 21
41.800179
  0
LINE
  8
1
  6
CONTINUOUS
 10
12.556584
 20
42.196112
 11
12.605605
 21
42.002213
  0
LINE
  8
1
  6
CONTINUOUS
 10
12.556584
 20
42.196112
 11
12.553750
 21
41.996133
  0
LINE
  8
2
  6
CONTINUOUS
 10
12.626462
 20
41.600199
 11
12.626462
 21
41.600199
  0
LINE
  8
2
  6
CONTINUOUS
 10
12.556598
 20
42.196114
 11
12.556598
 21
42.196114
  0
CIRCLE
  8
2
  6
CONTINUOUS
 10
12.573122
 20
42.055079
 40
0.033300
  0
CIRCLE
  8
2
  6
CONTINUOUS
 10
12.573122
 20
42.055079
 40
0.016600
  0
LINE
  8
18
  6
CONTINUOUS
 10
8.980909
 20
41.915772
 11
9.008382
 21
41.681478
  0
ARC
  8
18
  6
CONTINUOUS
 10
9.052182
 20
41.686614
 40
0.044100
 50
186.688000
 51
276.688000
  0
LINE
  8
18
  6
CONTINUOUS
 10
9.057318
 20
41.642814
 11
26.811574
 21
43.724690
  0
LINE
  8
1
  6
CONTINUOUS
 10
29.320153
 20
43.557745
 11
29.250276
 21
44.153661
  0
LINE
  8
1
  6
CONTINUOUS
 10
29.320153
 20
43.557745
 11
29.271132
 21
43.751644
  0
LINE
  8
1
  6
CONTINUOUS
 10
29.320153
 20
43.557745
 11
29.322987
 21
43.757725
  0
LINE
  8
1
  6
CONTINUOUS
 10
29.250276
 20
44.153661
 11
29.299296
 21
43.959762
  0
LINE
  8
1
  6
CONTINUOUS
 10
29.250276
 20
44.153661
 11
29.247441
 21
43.953681
  0
LINE
  8
2
  6
CONTINUOUS
 10
29.320153
 20
43.557745
 11
29.320153
 21
43.557745
  0
LINE
  8
2
  6
CONTINUOUS
 10
29.250290
 20
44.153663
 11
29.250290
 21
44.153663
  0
CIRCLE
  8
2
  6
CONTINUOUS
 10
29.265881
 20
44.020576
 40
0.033300
  0
CIRCLE
  8
2
  6
CONTINUOUS
 10
29.265881
 20
44.020576
 40
0.016600
  0
LINE
  8
18
  6
CONTINUOUS
 10
24.935555
 20
43.512799
 11
46.587208
 21
46.051686
  0
LINE
  8
1
  6
CONTINUOUS
 10
47.857966
 20
45.731502
 11
47.788088
 21
46.327419
  0
LINE
  8
1
  6
CONTINUOUS
 10
47.857966
 20
45.731502
 11
47.808945
 21
45.925402
  0
LINE
  8
1
  6
CONTINUOUS
 10
47.857966
 20
45.731502
 11
47.860800
 21
45.931482
  0
LINE
  8
1
  6
CONTINUOUS
 10
47.788088
 20
46.327419
 11
47.837109
 21
46.133519
  0
LINE
  8
1
  6
CONTINUOUS
 10
47.788088
 20
46.327419
 11
47.785254
 21
46.127439
  0
LINE
  8
2
  6
CONTINUOUS
 10
47.857966
 20
45.731502
 11
47.857966
 21
45.731502
  0
LINE
  8
2
  6
CONTINUOUS
 10
47.788102
 20
46.327420
 11
47.788102
 21
46.327420
  0
CIRCLE
  8
2
  6
CONTINUOUS
 10
47.802762
 20
46.202276
 40
0.033300
  0
CIRCLE
  8
2
  6
CONTINUOUS
 10
47.802762
 20
46.202276
 40
0.016600
  0
LINE
  8
18
  6
CONTINUOUS
 10
44.501381
 20
45.815153
 11
60.968556
 21
47.746105
  0
ARC
  8
18
  6
CONTINUOUS
 10
60.963897
 20
47.785833
 40
0.040000
 50
276.688000
 51
6.688000
  0
LINE
  8
18
  6
CONTINUOUS
 10
61.003625
 20
47.790492
 11
60.975674
 21
48.028859
  0
LINE
  8
1
  6
CONTINUOUS
 10
24.034274
 20
9.363739
 11
23.982263
 21
9.807292
  0
LINE
  8
1
  6
CONTINUOUS
 10
24.034274
 20
9.363739
 11
23.985253
 21
9.557638
  0
LINE
  8
1
  6
CONTINUOUS
 10
24.034274
 20
9.363739
 11
24.037109
 21
9.563718
  0
LINE
  8
1
  6
CONTINUOUS
 10
23.982263
 20
9.807292
 11
24.031284
 21
9.613393
  0
LINE
  8
1
  6
CONTINUOUS
 10
23.982263
 20
9.807292
 11
23.979428
 21
9.607312
  0
LINE
  8
2
  6
CONTINUOUS
 10
24.034274
 20
9.363739
 11
24.034274
 21
9.363739
  0
LINE
  8
2
  6
CONTINUOUS
 10
23.982263
 20
9.807292
 11
23.982263
 21
9.807292
  0
CIRCLE
  8
2
  6
CONTINUOUS
 10
23.978536
 20
9.839077
 40
0.033300
  0
CIRCLE
  8
2
  6
CONTINUOUS
 10
23.978536
 20
9.839077
 40
0.016600
  0
LINE
  8
1
  6
ESTILO_TQS_0002
 10
23.978536
 20
9.839077
 11
23.982263
 21
9.807292
  0
LINE
  8
18
  6
CONTINUOUS
 10
14.307364
 20
8.986947
 11
13.979610
 21
8.948514
  0
ARC
  8
18
  6
CONTINUOUS
 10
13.987762
 20
8.878991
 40
0.070000
 50
96.688000
 51
186.688000
  0
LINE
  8
18
  6
CONTINUOUS
 10
13.918239
 20
8.870838
 11
13.934543
 21
8.731791
  0
ARC
  8
18
  6
CONTINUOUS
 10
14.004067
 20
8.739944
 40
0.070000
 50
186.688000
 51
276.688000
  0
LINE
  8
18
  6
CONTINUOUS
 10
14.012220
 20
8.670420
 11
29.497602
 21
10.486246
  0
LINE
  8
1
  6
CONTINUOUS
 10
51.733669
 20
12.611789
 11
51.681657
 21
13.055343
  0
LINE
  8
1
  6
CONTINUOUS
 10
51.733669
 20
12.611789
 11
51.684648
 21
12.805688
  0
LINE
  8
1
  6
CONTINUOUS
 10
51.733669
 20
12.611789
 11
51.736503
 21
12.811769
  0
LINE
  8
1
  6
CONTINUOUS
 10
51.681657
 20
13.055343
 11
51.730678
 21
12.861443
  0
LINE
  8
1
  6
CONTINUOUS
 10
51.681657
 20
13.055343
 11
51.678823
 21
12.855363
  0
LINE
  8
2
  6
CONTINUOUS
 10
51.733669
 20
12.611789
 11
51.733669
 21
12.611789
  0
LINE
  8
2
  6
CONTINUOUS
 10
51.681657
 20
13.055343
 11
51.681657
 21
13.055343
  0
CIRCLE
  8
2
  6
CONTINUOUS
 10
51.724515
 20
12.689848
 40
0.033300
  0
CIRCLE
  8
2
  6
CONTINUOUS
 10
51.724515
 20
12.689848
 40
0.016600
  0
LINE
  8
18
  6
CONTINUOUS
 10
48.613539
 20
12.325053
 11
64.098922
 21
14.140879
  0
ARC
  8
18
  6
CONTINUOUS
 10
64.090769
 20
14.210403
 40
0.070000
 50
276.688000
 51
6.688000
  0
LINE
  8
18
  6
CONTINUOUS
 10
64.160293
 20
14.218555
 11
64.135836
 21
14.427126
  0
LINE
  8
1
  6
CONTINUOUS
 10
32.056188
 20
10.304395
 11
32.004177
 21
10.747949
  0
LINE
  8
1
  6
CONTINUOUS
 10
32.056188
 20
10.304395
 11
32.007167
 21
10.498295
  0
LINE
  8
1
  6
CONTINUOUS
 10
32.056188
 20
10.304395
 11
32.059023
 21
10.504375
  0
LINE
  8
1
  6
CONTINUOUS
 10
32.004177
 20
10.747949
 11
32.053198
 21
10.554050
  0
LINE
  8
1
  6
CONTINUOUS
 10
32.004177
 20
10.747949
 11
32.001343
 21
10.547969
  0
LINE
  8
2
  6
CONTINUOUS
 10
32.056188
 20
10.304395
 11
32.056188
 21
10.304395
  0
LINE
  8
2
  6
CONTINUOUS
 10
32.004177
 20
10.747949
 11
32.004177
 21
10.747949
  0
CIRCLE
  8
2
  6
CONTINUOUS
 10
32.084303
 20
10.064631
 40
0.033300
  0
CIRCLE
  8
2
  6
CONTINUOUS
 10
32.084303
 20
10.064631
 40
0.016600
  0
LINE
  8
1
  6
ESTILO_TQS_0002
 10
32.084303
 20
10.064631
 11
32.056188
 21
10.304395
  0
LINE
  8
18
  6
CONTINUOUS
 10
27.396432
 20
9.514928
 11
50.835835
 21
12.263448
  0
LINE
  8
1
  6
CONTINUOUS
 10
23.256794
 20
10.021994
 11
19.459952
 21
42.401494
  0
LINE
  8
1
  6
CONTINUOUS
 10
23.256794
 20
10.021994
 11
23.207773
 21
10.215894
  0
LINE
  8
1
  6
CONTINUOUS
 10
23.256794
 20
10.021994
 11
23.259628
 21
10.221974
  0
LINE
  8
1
  6
CONTINUOUS
 10
19.459952
 20
42.401494
 11
19.508972
 21
42.207595
  0
LINE
  8
1
  6
CONTINUOUS
 10
19.459952
 20
42.401494
 11
19.457117
 21
42.201514
  0
LINE
  8
2
  6
CONTINUOUS
 10
23.256794
 20
10.021994
 11
23.256794
 21
10.021994
  0
LINE
  8
2
  6
CONTINUOUS
 10
19.459958
 20
42.401495
 11
19.459958
 21
42.401495
  0
CIRCLE
  8
2
  6
CONTINUOUS
 10
20.236398
 20
35.779955
 40
0.033300
  0
CIRCLE
  8
2
  6
CONTINUOUS
 10
20.236398
 20
35.779955
 40
0.016600
  0
LINE
  8
18
  6
CONTINUOUS
 10
10.241095
 20
34.889817
 11
9.913340
 21
34.851385
  0
ARC
  8
18
  6
CONTINUOUS
 10
9.921493
 20
34.781861
 40
0.070000
 50
96.688000
 51
186.688000
  0
LINE
  8
18
  6
CONTINUOUS
 10
9.851969
 20
34.773709
 11
9.868274
 21
34.634661
  0
ARC
  8
18
  6
CONTINUOUS
 10
9.937798
 20
34.642814
 40
0.070000
 50
186.688000
 51
276.688000
  0
LINE
  8
18
  6
CONTINUOUS
 10
9.945950
 20
34.573290
 11
26.331833
 21
36.494710
  0
LINE
  8
1
  6
CONTINUOUS
 10
51.712653
 20
13.358747
 11
47.915811
 21
45.738247
  0
LINE
  8
1
  6
CONTINUOUS
 10
51.712653
 20
13.358747
 11
51.663632
 21
13.552647
  0
LINE
  8
1
  6
CONTINUOUS
 10
51.712653
 20
13.358747
 11
51.715487
 21
13.558727
  0
LINE
  8
1
  6
CONTINUOUS
 10
47.915811
 20
45.738247
 11
47.964832
 21
45.544348
  0
LINE
  8
1
  6
CONTINUOUS
 10
47.915811
 20
45.738247
 11
47.912977
 21
45.538267
  0
LINE
  8
2
  6
CONTINUOUS
 10
51.712653
 20
13.358747
 11
51.712653
 21
13.358747
  0
LINE
  8
2
  6
CONTINUOUS
 10
47.915817
 20
45.738248
 11
47.915817
 21
45.738248
  0
CIRCLE
  8
2
  6
CONTINUOUS
 10
48.720208
 20
38.878342
 40
0.033300
  0
CIRCLE
  8
2
  6
CONTINUOUS
 10
48.720208
 20
38.878342
 40
0.016600
  0
LINE
  8
18
  6
CONTINUOUS
 10
45.429123
 20
38.492427
 11
61.815006
 21
40.413847
  0
ARC
  8
18
  6
CONTINUOUS
 10
61.806854
 20
40.483371
 40
0.070000
 50
276.688000
 51
6.688000
  0
LINE
  8
18
  6
CONTINUOUS
 10
61.876378
 20
40.491523
 11
61.851921
 21
40.700094
  0
LINE
  8
1
  6
CONTINUOUS
 10
31.855075
 20
11.030234
 11
28.058233
 21
43.409734
  0
LINE
  8
1
  6
CONTINUOUS
 10
31.855075
 20
11.030234
 11
31.806054
 21
11.224134
  0
LINE
  8
1
  6
CONTINUOUS
 10
31.855075
 20
11.030234
 11
31.857909
 21
11.230214
  0
LINE
  8
1
  6
CONTINUOUS
 10
28.058233
 20
43.409734
 11
28.107254
 21
43.215835
  0
LINE
  8
1
  6
CONTINUOUS
 10
28.058233
 20
43.409734
 11
28.055399
 21
43.209754
  0
LINE
  8
2
  6
CONTINUOUS
 10
31.855075
 20
11.030234
 11
31.855075
 21
11.030234
  0
LINE
  8
2
  6
CONTINUOUS
 10
28.058239
 20
43.409735
 11
28.058239
 21
43.409735
  0
CIRCLE
  8
2
  6
CONTINUOUS
 10
28.881264
 20
36.390918
 40
0.033300
  0
CIRCLE
  8
2
  6
CONTINUOUS
 10
28.881264
 20
36.390918
 40
0.016600
  0
LINE
  8
18
  6
CONTINUOUS
 10
24.193383
 20
35.841214
 11
47.632786
 21
38.589734
  0
LINE
  8
1
  6
CONTINUOUS
 10
19.401696
 20
42.998780
 11
18.336077
 21
52.086388
  0
LINE
  8
1
  6
CONTINUOUS
 10
19.401696
 20
42.998780
 11
19.352675
 21
43.192679
  0
LINE
  8
1
  6
CONTINUOUS
 10
19.401696
 20
42.998780
 11
19.404530
 21
43.198760
  0
LINE
  8
1
  6
CONTINUOUS
 10
18.336077
 20
52.086388
 11
18.385098
 21
51.892489
  0
LINE
  8
1
  6
CONTINUOUS
 10
18.336077
 20
52.086388
 11
18.333243
 21
51.886408
  0
LINE
  8
2
  6
CONTINUOUS
 10
19.401696
 20
42.998780
 11
19.401696
 21
42.998780
  0
LINE
  8
2
  6
CONTINUOUS
 10
18.336091
 20
52.086390
 11
18.336091
 21
52.086390
  0
CIRCLE
  8
2
  6
CONTINUOUS
 10
18.546639
 20
50.290715
 40
0.033300
  0
CIRCLE
  8
2
  6
CONTINUOUS
 10
18.546639
 20
50.290715
 40
0.016600
  0
LINE
  8
18
  6
CONTINUOUS
 10
8.471574
 20
49.391225
 11
8.143819
 21
49.352792
  0
ARC
  8
18
  6
CONTINUOUS
 10
8.151972
 20
49.283268
 40
0.070000
 50
96.688000
 51
186.688000
  0
LINE
  8
18
  6
CONTINUOUS
 10
8.082448
 20
49.275116
 11
8.098753
 21
49.136069
  0
ARC
  8
18
  6
CONTINUOUS
 10
8.168276
 20
49.144221
 40
0.070000
 50
186.688000
 51
276.688000
  0
LINE
  8
18
  6
CONTINUOUS
 10
8.176429
 20
49.074697
 11
24.695777
 21
51.011767
  0
LINE
  8
1
  6
CONTINUOUS
 10
47.937966
 20
46.344962
 11
46.872346
 21
55.432572
  0
LINE
  8
1
  6
CONTINUOUS
 10
47.937966
 20
46.344962
 11
47.888945
 21
46.538861
  0
LINE
  8
1
  6
CONTINUOUS
 10
47.937966
 20
46.344962
 11
47.940800
 21
46.544942
  0
LINE
  8
1
  6
CONTINUOUS
 10
46.872346
 20
55.432572
 11
46.921367
 21
55.238673
  0
LINE
  8
1
  6
CONTINUOUS
 10
46.872346
 20
55.432572
 11
46.869512
 21
55.232592
  0
LINE
  8
2
  6
CONTINUOUS
 10
47.937966
 20
46.344962
 11
47.937966
 21
46.344962
  0
LINE
  8
2
  6
CONTINUOUS
 10
46.872341
 20
55.432572
 11
46.872341
 21
55.432572
  0
CIRCLE
  8
2
  6
CONTINUOUS
 10
47.082908
 20
53.636899
 40
0.033300
  0
CIRCLE
  8
2
  6
CONTINUOUS
 10
47.082908
 20
53.636899
 40
0.016600
  0
LINE
  8
18
  6
CONTINUOUS
 10
43.765128
 20
53.247854
 11
60.284476
 21
55.184924
  0
ARC
  8
18
  6
CONTINUOUS
 10
60.276324
 20
55.254447
 40
0.070000
 50
276.688000
 51
6.688000
  0
LINE
  8
18
  6
CONTINUOUS
 10
60.345847
 20
55.262600
 11
60.321390
 21
55.471171
  0
LINE
  8
1
  6
CONTINUOUS
 10
28.053688
 20
44.013319
 11
26.988069
 21
53.100932
  0
LINE
  8
1
  6
CONTINUOUS
 10
28.053688
 20
44.013319
 11
28.004667
 21
44.207218
  0
LINE
  8
1
  6
CONTINUOUS
 10
28.053688
 20
44.013319
 11
28.056523
 21
44.213299
  0
LINE
  8
1
  6
CONTINUOUS
 10
26.988069
 20
53.100932
 11
27.037089
 21
52.907032
  0
LINE
  8
1
  6
CONTINUOUS
 10
26.988069
 20
53.100932
 11
26.985234
 21
52.900952
  0
LINE
  8
2
  6
CONTINUOUS
 10
28.053688
 20
44.013319
 11
28.053688
 21
44.013319
  0
LINE
  8
2
  6
CONTINUOUS
 10
26.988063
 20
53.100931
 11
26.988063
 21
53.100931
  0
CIRCLE
  8
2
  6
CONTINUOUS
 10
27.189314
 20
51.384708
 40
0.033300
  0
CIRCLE
  8
2
  6
CONTINUOUS
 10
27.189314
 20
51.384708
 40
0.016600
  0
LINE
  8
18
  6
CONTINUOUS
 10
22.501436
 20
50.835005
 11
45.940839
 21
53.583525
  0
LINE
  8
1
  6
CONTINUOUS
 10
19.018161
 20
52.468421
 11
18.948284
 21
53.064330
  0
LINE
  8
1
  6
CONTINUOUS
 10
19.018161
 20
52.468421
 11
18.969140
 21
52.662321
  0
LINE
  8
1
  6
CONTINUOUS
 10
19.018161
 20
52.468421
 11
19.020995
 21
52.668401
  0
LINE
  8
1
  6
CONTINUOUS
 10
18.948284
 20
53.064330
 11
18.997305
 21
52.870431
  0
LINE
  8
1
  6
CONTINUOUS
 10
18.948284
 20
53.064330
 11
18.945450
 21
52.864350
  0
LINE
  8
2
  6
CONTINUOUS
 10
19.018161
 20
52.468421
 11
19.018161
 21
52.468421
  0
LINE
  8
2
  6
CONTINUOUS
 10
18.948278
 20
53.064329
 11
18.948278
 21
53.064329
  0
CIRCLE
  8
2
  6
CONTINUOUS
 10
18.949216
 20
53.056381
 40
0.033300
  0
CIRCLE
  8
2
  6
CONTINUOUS
 10
18.949216
 20
53.056381
 40
0.016600
  0
LINE
  8
18
  6
CONTINUOUS
 10
9.038410
 20
52.176151
 11
8.710655
 21
52.137719
  0
ARC
  8
18
  6
CONTINUOUS
 10
8.718808
 20
52.068195
 40
0.070000
 50
96.688000
 51
186.688000
  0
LINE
  8
18
  6
CONTINUOUS
 10
8.649284
 20
52.060043
 11
8.665589
 21
51.920995
  0
ARC
  8
18
  6
CONTINUOUS
 10
8.735112
 20
51.929148
 40
0.070000
 50
186.688000
 51
276.688000
  0
LINE
  8
18
  6
CONTINUOUS
 10
8.743265
 20
51.859624
 11
24.827775
 21
53.745705
  0
LINE
  8
1
  6
CONTINUOUS
 10
47.196872
 20
55.772674
 11
47.126995
 21
56.368588
  0
LINE
  8
1
  6
CONTINUOUS
 10
47.196872
 20
55.772674
 11
47.147851
 21
55.966574
  0
LINE
  8
1
  6
CONTINUOUS
 10
47.196872
 20
55.772674
 11
47.199706
 21
55.972654
  0
LINE
  8
1
  6
CONTINUOUS
 10
47.126995
 20
56.368588
 11
47.176015
 21
56.174689
  0
LINE
  8
1
  6
CONTINUOUS
 10
47.126995
 20
56.368588
 11
47.124160
 21
56.168608
  0
LINE
  8
2
  6
CONTINUOUS
 10
47.196872
 20
55.772674
 11
47.196872
 21
55.772674
  0
LINE
  8
2
  6
CONTINUOUS
 10
47.126989
 20
56.368587
 11
47.126989
 21
56.368587
  0
CIRCLE
  8
2
  6
CONTINUOUS
 10
47.109293
 20
56.519547
 40
0.033300
  0
CIRCLE
  8
2
  6
CONTINUOUS
 10
47.109293
 20
56.519547
 40
0.016600
  0
LINE
  8
1
  6
ESTILO_TQS_0002
 10
47.109293
 20
56.519547
 11
47.126995
 21
56.368588
  0
LINE
  8
18
  6
CONTINUOUS
 10
43.878486
 20
56.140700
 11
59.962996
 21
58.026781
  0
ARC
  8
18
  6
CONTINUOUS
 10
59.954844
 20
58.096305
 40
0.070000
 50
276.688000
 51
6.688000
  0
LINE
  8
18
  6
CONTINUOUS
 10
60.024368
 20
58.104457
 11
59.999910
 21
58.313028
  0
LINE
  8
1
  6
CONTINUOUS
 10
27.399567
 20
53.451229
 11
27.329690
 21
54.047143
  0
LINE
  8
1
  6
CONTINUOUS
 10
27.399567
 20
53.451229
 11
27.350546
 21
53.645128
  0
LINE
  8
1
  6
CONTINUOUS
 10
27.399567
 20
53.451229
 11
27.402402
 21
53.651209
  0
LINE
  8
1
  6
CONTINUOUS
 10
27.329690
 20
54.047143
 11
27.378711
 21
53.853243
  0
LINE
  8
1
  6
CONTINUOUS
 10
27.329690
 20
54.047143
 11
27.326856
 21
53.847163
  0
LINE
  8
2
  6
CONTINUOUS
 10
27.399567
 20
53.451229
 11
27.399567
 21
53.451229
  0
LINE
  8
2
  6
CONTINUOUS
 10
27.329684
 20
54.047142
 11
27.329684
 21
54.047142
  0
CIRCLE
  8
2
  6
CONTINUOUS
 10
27.284038
 20
54.436466
 40
0.033300
  0
CIRCLE
  8
2
  6
CONTINUOUS
 10
27.284038
 20
54.436466
 40
0.016600
  0
LINE
  8
1
  6
ESTILO_TQS_0002
 10
27.284038
 20
54.436466
 11
27.329690
 21
54.047143
  0
LINE
  8
18
  6
CONTINUOUS
 10
22.596160
 20
53.886763
 11
46.035563
 21
56.635283
  0
LINE
  8
2
  6
CONTINUOUS
 10
101.700000
 20
23.900000
 11
101.700000
 21
23.900000
  0
LINE
  8
2
  6
CONTINUOUS
 10
118.000000
 20
23.900000
 11
118.000000
 21
23.900000
  0
LINE
  8
2
  6
CONTINUOUS
 10
118.000000
 20
23.900000
 11
101.700000
 21
23.900000
  0
LINE
  8
2
  6
CONTINUOUS
 10
118.000000
 20
22.200000
 11
101.700000
 21
22.200000
  0
LINE
  8
2
  6
CONTINUOUS
 10
101.700000
 20
23.900000
 11
101.700000
 21
22.200000
  0
LINE
  8
2
  6
CONTINUOUS
 10
118.000000
 20
22.200000
 11
118.000000
 21
23.900000
  0
LINE
  8
2
  6
CONTINUOUS
 10
106.500000
 20
82.502501
 11
106.500000
 21
81.190001
  0
LINE
  8
2
  6
CONTINUOUS
 10
117.500000
 20
82.502501
 11
117.500000
 21
81.190001
  0
LINE
  8
2
  6
CONTINUOUS
 10
106.500000
 20
82.502501
 11
117.500000
 21
82.502501
  0
LINE
  8
2
  6
CONTINUOUS
 10
106.500000
 20
81.190001
 11
117.500000
 21
81.190001
  0
LINE
  8
2
  6
CONTINUOUS
 10
109.450000
 20
81.190001
 11
109.450000
 21
82.502501
  0
LINE
  8
2
  6
CONTINUOUS
 10
110.830000
 20
81.190001
 11
110.830000
 21
82.502501
  0
LINE
  8
2
  6
CONTINUOUS
 10
112.640000
 20
81.190001
 11
112.640000
 21
82.502501
  0
LINE
  8
2
  6
CONTINUOUS
 10
114.020000
 20
81.190001
 11
114.020000
 21
82.502501
  0
LINE
  8
2
  6
CONTINUOUS
 10
114.020000
 20
82.065001
 11
117.500000
 21
82.065001
  0
LINE
  8
2
  6
CONTINUOUS
 10
115.630000
 20
81.190001
 11
115.630000
 21
82.065001
  0
LINE
  8
2
  6
CONTINUOUS
 10
117.500000
 20
80.752501
 11
107.650000
 21
80.752501
  0
LINE
  8
2
  6
CONTINUOUS
 10
106.500000
 20
80.752501
 11
106.500000
 21
81.190001
  0
LINE
  8
2
  6
CONTINUOUS
 10
117.500000
 20
80.752501
 11
117.500000
 21
81.190001
  0
LINE
  8
2
  6
CONTINUOUS
 10
106.500000
 20
81.190001
 11
117.500000
 21
81.190001
  0
LINE
  8
2
  6
CONTINUOUS
 10
109.450000
 20
80.752501
 11
109.450000
 21
80.402501
  0
LINE
  8
2
  6
CONTINUOUS
 10
110.830000
 20
80.752501
 11
110.830000
 21
80.402501
  0
LINE
  8
2
  6
CONTINUOUS
 10
112.640000
 20
80.752501
 11
112.640000
 21
80.402501
  0
LINE
  8
2
  6
CONTINUOUS
 10
114.020000
 20
80.752501
 11
114.020000
 21
80.402501
  0
LINE
  8
2
  6
CONTINUOUS
 10
115.630000
 20
80.752501
 11
115.630000
 21
80.402501
  0
LINE
  8
2
  6
CONTINUOUS
 10
106.500000
 20
80.402501
 11
106.500000
 21
80.752501
  0
LINE
  8
2
  6
CONTINUOUS
 10
117.500000
 20
80.402501
 11
117.500000
 21
80.752501
  0
LINE
  8
2
  6
CONTINUOUS
 10
107.650000
 20
80.752501
 11
107.650000
 21
80.402501
  0
LINE
  8
2
  6
CONTINUOUS
 10
109.450000
 20
80.402501
 11
109.450000
 21
80.052501
  0
LINE
  8
2
  6
CONTINUOUS
 10
110.830000
 20
80.402501
 11
110.830000
 21
80.052501
  0
LINE
  8
2
  6
CONTINUOUS
 10
112.640000
 20
80.402501
 11
112.640000
 21
80.052501
  0
LINE
  8
2
  6
CONTINUOUS
 10
114.020000
 20
80.402501
 11
114.020000
 21
80.052501
  0
LINE
  8
2
  6
CONTINUOUS
 10
115.630000
 20
80.402501
 11
115.630000
 21
80.052501
  0
LINE
  8
2
  6
CONTINUOUS
 10
106.500000
 20
80.052501
 11
106.500000
 21
80.402501
  0
LINE
  8
2
  6
CONTINUOUS
 10
117.500000
 20
80.052501
 11
117.500000
 21
80.402501
  0
LINE
  8
2
  6
CONTINUOUS
 10
107.650000
 20
80.402501
 11
107.650000
 21
80.052501
  0
LINE
  8
2
  6
CONTINUOUS
 10
109.450000
 20
80.052501
 11
109.450000
 21
79.702501
  0
LINE
  8
2
  6
CONTINUOUS
 10
110.830000
 20
80.052501
 11
110.830000
 21
79.702501
  0
LINE
  8
2
  6
CONTINUOUS
 10
112.640000
 20
80.052501
 11
112.640000
 21
79.702501
  0
LINE
  8
2
  6
CONTINUOUS
 10
114.020000
 20
80.052501
 11
114.020000
 21
79.702501
  0
LINE
  8
2
  6
CONTINUOUS
 10
115.630000
 20
80.052501
 11
115.630000
 21
79.702501
  0
LINE
  8
2
  6
CONTINUOUS
 10
106.500000
 20
79.702501
 11
106.500000
 21
80.052501
  0
LINE
  8
2
  6
CONTINUOUS
 10
117.500000
 20
79.702501
 11
117.500000
 21
80.052501
  0
LINE
  8
2
  6
CONTINUOUS
 10
107.650000
 20
80.052501
 11
107.650000
 21
79.702501
  0
LINE
  8
2
  6
CONTINUOUS
 10
109.450000
 20
79.702501
 11
109.450000
 21
79.352501
  0
LINE
  8
2
  6
CONTINUOUS
 10
110.830000
 20
79.702501
 11
110.830000
 21
79.352501
  0
LINE
  8
2
  6
CONTINUOUS
 10
112.640000
 20
79.702501
 11
112.640000
 21
79.352501
  0
LINE
  8
2
  6
CONTINUOUS
 10
114.020000
 20
79.702501
 11
114.020000
 21
79.352501
  0
LINE
  8
2
  6
CONTINUOUS
 10
115.630000
 20
79.702501
 11
115.630000
 21
79.352501
  0
LINE
  8
2
  6
CONTINUOUS
 10
106.500000
 20
79.352501
 11
106.500000
 21
79.702501
  0
LINE
  8
2
  6
CONTINUOUS
 10
117.500000
 20
79.352501
 11
117.500000
 21
79.702501
  0
LINE
  8
2
  6
CONTINUOUS
 10
107.650000
 20
79.702501
 11
107.650000
 21
79.352501
  0
LINE
  8
2
  6
CONTINUOUS
 10
109.450000
 20
79.352501
 11
109.450000
 21
79.002502
  0
LINE
  8
2
  6
CONTINUOUS
 10
110.830000
 20
79.352501
 11
110.830000
 21
79.002502
  0
LINE
  8
2
  6
CONTINUOUS
 10
112.640000
 20
79.352501
 11
112.640000
 21
79.002502
  0
LINE
  8
2
  6
CONTINUOUS
 10
114.020000
 20
79.352501
 11
114.020000
 21
79.002502
  0
LINE
  8
2
  6
CONTINUOUS
 10
115.630000
 20
79.352501
 11
115.630000
 21
79.002502
  0
LINE
  8
2
  6
CONTINUOUS
 10
106.500000
 20
79.002502
 11
106.500000
 21
79.352501
  0
LINE
  8
2
  6
CONTINUOUS
 10
117.500000
 20
79.002502
 11
117.500000
 21
79.352501
  0
LINE
  8
2
  6
CONTINUOUS
 10
107.650000
 20
79.352501
 11
107.650000
 21
79.002502
  0
LINE
  8
2
  6
CONTINUOUS
 10
109.450000
 20
79.002502
 11
109.450000
 21
78.652502
  0
LINE
  8
2
  6
CONTINUOUS
 10
110.830000
 20
79.002502
 11
110.830000
 21
78.652502
  0
LINE
  8
2
  6
CONTINUOUS
 10
112.640000
 20
79.002502
 11
112.640000
 21
78.652502
  0
LINE
  8
2
  6
CONTINUOUS
 10
114.020000
 20
79.002502
 11
114.020000
 21
78.652502
  0
LINE
  8
2
  6
CONTINUOUS
 10
115.630000
 20
79.002502
 11
115.630000
 21
78.652502
  0
LINE
  8
2
  6
CONTINUOUS
 10
106.500000
 20
78.652502
 11
106.500000
 21
79.002502
  0
LINE
  8
2
  6
CONTINUOUS
 10
117.500000
 20
78.652502
 11
117.500000
 21
79.002502
  0
LINE
  8
2
  6
CONTINUOUS
 10
107.650000
 20
79.002502
 11
107.650000
 21
78.652502
  0
LINE
  8
2
  6
CONTINUOUS
 10
109.450000
 20
78.652502
 11
109.450000
 21
78.302502
  0
LINE
  8
2
  6
CONTINUOUS
 10
110.830000
 20
78.652502
 11
110.830000
 21
78.302502
  0
LINE
  8
2
  6
CONTINUOUS
 10
112.640000
 20
78.652502
 11
112.640000
 21
78.302502
  0
LINE
  8
2
  6
CONTINUOUS
 10
114.020000
 20
78.652502
 11
114.020000
 21
78.302502
  0
LINE
  8
2
  6
CONTINUOUS
 10
115.630000
 20
78.652502
 11
115.630000
 21
78.302502
  0
LINE
  8
2
  6
CONTINUOUS
 10
106.500000
 20
78.302502
 11
106.500000
 21
78.652502
  0
LINE
  8
2
  6
CONTINUOUS
 10
117.500000
 20
78.302502
 11
117.500000
 21
78.652502
  0
LINE
  8
2
  6
CONTINUOUS
 10
107.650000
 20
78.652502
 11
107.650000
 21
78.302502
  0
LINE
  8
2
  6
CONTINUOUS
 10
109.450000
 20
78.302502
 11
109.450000
 21
77.952502
  0
LINE
  8
2
  6
CONTINUOUS
 10
110.830000
 20
78.302502
 11
110.830000
 21
77.952502
  0
LINE
  8
2
  6
CONTINUOUS
 10
112.640000
 20
78.302502
 11
112.640000
 21
77.952502
  0
LINE
  8
2
  6
CONTINUOUS
 10
114.020000
 20
78.302502
 11
114.020000
 21
77.952502
  0
LINE
  8
2
  6
CONTINUOUS
 10
115.630000
 20
78.302502
 11
115.630000
 21
77.952502
  0
LINE
  8
2
  6
CONTINUOUS
 10
106.500000
 20
77.952502
 11
106.500000
 21
78.302502
  0
LINE
  8
2
  6
CONTINUOUS
 10
117.500000
 20
77.952502
 11
117.500000
 21
78.302502
  0
LINE
  8
2
  6
CONTINUOUS
 10
107.650000
 20
78.302502
 11
107.650000
 21
77.952502
  0
LINE
  8
2
  6
CONTINUOUS
 10
109.450000
 20
77.952502
 11
109.450000
 21
77.602502
  0
LINE
  8
2
  6
CONTINUOUS
 10
110.830000
 20
77.952502
 11
110.830000
 21
77.602502
  0
LINE
  8
2
  6
CONTINUOUS
 10
112.640000
 20
77.952502
 11
112.640000
 21
77.602502
  0
LINE
  8
2
  6
CONTINUOUS
 10
114.020000
 20
77.952502
 11
114.020000
 21
77.602502
  0
LINE
  8
2
  6
CONTINUOUS
 10
115.630000
 20
77.952502
 11
115.630000
 21
77.602502
  0
LINE
  8
2
  6
CONTINUOUS
 10
106.500000
 20
77.602502
 11
106.500000
 21
77.952502
  0
LINE
  8
2
  6
CONTINUOUS
 10
117.500000
 20
77.602502
 11
117.500000
 21
77.952502
  0
LINE
  8
2
  6
CONTINUOUS
 10
107.650000
 20
77.952502
 11
107.650000
 21
77.602502
  0
LINE
  8
2
  6
CONTINUOUS
 10
109.450000
 20
77.602502
 11
109.450000
 21
77.252502
  0
LINE
  8
2
  6
CONTINUOUS
 10
110.830000
 20
77.602502
 11
110.830000
 21
77.252502
  0
LINE
  8
2
  6
CONTINUOUS
 10
112.640000
 20
77.602502
 11
112.640000
 21
77.252502
  0
LINE
  8
2
  6
CONTINUOUS
 10
114.020000
 20
77.602502
 11
114.020000
 21
77.252502
  0
LINE
  8
2
  6
CONTINUOUS
 10
115.630000
 20
77.602502
 11
115.630000
 21
77.252502
  0
LINE
  8
2
  6
CONTINUOUS
 10
106.500000
 20
77.252502
 11
106.500000
 21
77.602502
  0
LINE
  8
2
  6
CONTINUOUS
 10
117.500000
 20
77.252502
 11
117.500000
 21
77.602502
  0
LINE
  8
2
  6
CONTINUOUS
 10
107.650000
 20
77.602502
 11
107.650000
 21
77.252502
  0
LINE
  8
2
  6
CONTINUOUS
 10
109.450000
 20
77.252502
 11
109.450000
 21
76.902502
  0
LINE
  8
2
  6
CONTINUOUS
 10
110.830000
 20
77.252502
 11
110.830000
 21
76.902502
  0
LINE
  8
2
  6
CONTINUOUS
 10
112.640000
 20
77.252502
 11
112.640000
 21
76.902502
  0
LINE
  8
2
  6
CONTINUOUS
 10
114.020000
 20
77.252502
 11
114.020000
 21
76.902502
  0
LINE
  8
2
  6
CONTINUOUS
 10
115.630000
 20
77.252502
 11
115.630000
 21
76.902502
  0
LINE
  8
2
  6
CONTINUOUS
 10
106.500000
 20
76.902502
 11
106.500000
 21
77.252502
  0
LINE
  8
2
  6
CONTINUOUS
 10
117.500000
 20
76.902502
 11
117.500000
 21
77.252502
  0
LINE
  8
2
  6
CONTINUOUS
 10
107.650000
 20
77.252502
 11
107.650000
 21
76.902502
  0
LINE
  8
2
  6
CONTINUOUS
 10
109.450000
 20
76.902502
 11
109.450000
 21
76.552502
  0
LINE
  8
2
  6
CONTINUOUS
 10
110.830000
 20
76.902502
 11
110.830000
 21
76.552502
  0
LINE
  8
2
  6
CONTINUOUS
 10
112.640000
 20
76.902502
 11
112.640000
 21
76.552502
  0
LINE
  8
2
  6
CONTINUOUS
 10
114.020000
 20
76.902502
 11
114.020000
 21
76.552502
  0
LINE
  8
2
  6
CONTINUOUS
 10
115.630000
 20
76.902502
 11
115.630000
 21
76.552502
  0
LINE
  8
2
  6
CONTINUOUS
 10
106.500000
 20
76.552502
 11
106.500000
 21
76.902502
  0
LINE
  8
2
  6
CONTINUOUS
 10
117.500000
 20
76.552502
 11
117.500000
 21
76.902502
  0
LINE
  8
2
  6
CONTINUOUS
 10
107.650000
 20
76.902502
 11
107.650000
 21
76.552502
  0
LINE
  8
2
  6
CONTINUOUS
 10
109.450000
 20
76.552502
 11
109.450000
 21
76.202502
  0
LINE
  8
2
  6
CONTINUOUS
 10
110.830000
 20
76.552502
 11
110.830000
 21
76.202502
  0
LINE
  8
2
  6
CONTINUOUS
 10
112.640000
 20
76.552502
 11
112.640000
 21
76.202502
  0
LINE
  8
2
  6
CONTINUOUS
 10
114.020000
 20
76.552502
 11
114.020000
 21
76.202502
  0
LINE
  8
2
  6
CONTINUOUS
 10
115.630000
 20
76.552502
 11
115.630000
 21
76.202502
  0
LINE
  8
2
  6
CONTINUOUS
 10
106.500000
 20
76.202502
 11
106.500000
 21
76.552502
  0
LINE
  8
2
  6
CONTINUOUS
 10
117.500000
 20
76.202502
 11
117.500000
 21
76.552502
  0
LINE
  8
2
  6
CONTINUOUS
 10
107.650000
 20
76.552502
 11
107.650000
 21
76.202502
  0
LINE
  8
2
  6
CONTINUOUS
 10
109.450000
 20
76.202502
 11
109.450000
 21
75.852502
  0
LINE
  8
2
  6
CONTINUOUS
 10
110.830000
 20
76.202502
 11
110.830000
 21
75.852502
  0
LINE
  8
2
  6
CONTINUOUS
 10
112.640000
 20
76.202502
 11
112.640000
 21
75.852502
  0
LINE
  8
2
  6
CONTINUOUS
 10
114.020000
 20
76.202502
 11
114.020000
 21
75.852502
  0
LINE
  8
2
  6
CONTINUOUS
 10
115.630000
 20
76.202502
 11
115.630000
 21
75.852502
  0
LINE
  8
2
  6
CONTINUOUS
 10
106.500000
 20
75.852502
 11
106.500000
 21
76.202502
  0
LINE
  8
2
  6
CONTINUOUS
 10
117.500000
 20
75.852502
 11
117.500000
 21
76.202502
  0
LINE
  8
2
  6
CONTINUOUS
 10
107.650000
 20
76.202502
 11
107.650000
 21
75.852502
  0
LINE
  8
2
  6
CONTINUOUS
 10
109.450000
 20
75.852502
 11
109.450000
 21
75.502502
  0
LINE
  8
2
  6
CONTINUOUS
 10
110.830000
 20
75.852502
 11
110.830000
 21
75.502502
  0
LINE
  8
2
  6
CONTINUOUS
 10
112.640000
 20
75.852502
 11
112.640000
 21
75.502502
  0
LINE
  8
2
  6
CONTINUOUS
 10
114.020000
 20
75.852502
 11
114.020000
 21
75.502502
  0
LINE
  8
2
  6
CONTINUOUS
 10
115.630000
 20
75.852502
 11
115.630000
 21
75.502502
  0
LINE
  8
2
  6
CONTINUOUS
 10
106.500000
 20
75.502502
 11
106.500000
 21
75.852502
  0
LINE
  8
2
  6
CONTINUOUS
 10
117.500000
 20
75.502502
 11
117.500000
 21
75.852502
  0
LINE
  8
2
  6
CONTINUOUS
 10
107.650000
 20
75.852502
 11
107.650000
 21
75.502502
  0
LINE
  8
2
  6
CONTINUOUS
 10
109.450000
 20
75.502502
 11
109.450000
 21
75.152503
  0
LINE
  8
2
  6
CONTINUOUS
 10
110.830000
 20
75.502502
 11
110.830000
 21
75.152503
  0
LINE
  8
2
  6
CONTINUOUS
 10
112.640000
 20
75.502502
 11
112.640000
 21
75.152503
  0
LINE
  8
2
  6
CONTINUOUS
 10
114.020000
 20
75.502502
 11
114.020000
 21
75.152503
  0
LINE
  8
2
  6
CONTINUOUS
 10
115.630000
 20
75.502502
 11
115.630000
 21
75.152503
  0
LINE
  8
2
  6
CONTINUOUS
 10
106.500000
 20
75.152503
 11
106.500000
 21
75.502502
  0
LINE
  8
2
  6
CONTINUOUS
 10
117.500000
 20
75.152503
 11
117.500000
 21
75.502502
  0
LINE
  8
2
  6
CONTINUOUS
 10
107.650000
 20
75.502502
 11
107.650000
 21
75.152503
  0
LINE
  8
2
  6
CONTINUOUS
 10
109.450000
 20
75.152503
 11
109.450000
 21
74.802503
  0
LINE
  8
2
  6
CONTINUOUS
 10
110.830000
 20
75.152503
 11
110.830000
 21
74.802503
  0
LINE
  8
2
  6
CONTINUOUS
 10
112.640000
 20
75.152503
 11
112.640000
 21
74.802503
  0
LINE
  8
2
  6
CONTINUOUS
 10
114.020000
 20
75.152503
 11
114.020000
 21
74.802503
  0
LINE
  8
2
  6
CONTINUOUS
 10
115.630000
 20
75.152503
 11
115.630000
 21
74.802503
  0
LINE
  8
2
  6
CONTINUOUS
 10
106.500000
 20
74.802503
 11
106.500000
 21
75.152503
  0
LINE
  8
2
  6
CONTINUOUS
 10
117.500000
 20
74.802503
 11
117.500000
 21
75.152503
  0
LINE
  8
2
  6
CONTINUOUS
 10
107.650000
 20
75.152503
 11
107.650000
 21
74.802503
  0
LINE
  8
2
  6
CONTINUOUS
 10
109.450000
 20
74.802503
 11
109.450000
 21
74.452503
  0
LINE
  8
2
  6
CONTINUOUS
 10
110.830000
 20
74.802503
 11
110.830000
 21
74.452503
  0
LINE
  8
2
  6
CONTINUOUS
 10
112.640000
 20
74.802503
 11
112.640000
 21
74.452503
  0
LINE
  8
2
  6
CONTINUOUS
 10
114.020000
 20
74.802503
 11
114.020000
 21
74.452503
  0
LINE
  8
2
  6
CONTINUOUS
 10
115.630000
 20
74.802503
 11
115.630000
 21
74.452503
  0
LINE
  8
2
  6
CONTINUOUS
 10
106.500000
 20
74.452503
 11
106.500000
 21
74.802503
  0
LINE
  8
2
  6
CONTINUOUS
 10
117.500000
 20
74.452503
 11
117.500000
 21
74.802503
  0
LINE
  8
2
  6
CONTINUOUS
 10
107.650000
 20
74.802503
 11
107.650000
 21
74.452503
  0
LINE
  8
2
  6
CONTINUOUS
 10
109.450000
 20
74.452503
 11
109.450000
 21
74.102503
  0
LINE
  8
2
  6
CONTINUOUS
 10
110.830000
 20
74.452503
 11
110.830000
 21
74.102503
  0
LINE
  8
2
  6
CONTINUOUS
 10
112.640000
 20
74.452503
 11
112.640000
 21
74.102503
  0
LINE
  8
2
  6
CONTINUOUS
 10
114.020000
 20
74.452503
 11
114.020000
 21
74.102503
  0
LINE
  8
2
  6
CONTINUOUS
 10
115.630000
 20
74.452503
 11
115.630000
 21
74.102503
  0
LINE
  8
2
  6
CONTINUOUS
 10
106.500000
 20
74.102503
 11
106.500000
 21
74.452503
  0
LINE
  8
2
  6
CONTINUOUS
 10
117.500000
 20
74.102503
 11
117.500000
 21
74.452503
  0
LINE
  8
2
  6
CONTINUOUS
 10
107.650000
 20
74.452503
 11
107.650000
 21
74.102503
  0
LINE
  8
2
  6
CONTINUOUS
 10
109.450000
 20
74.102503
 11
109.450000
 21
73.752503
  0
LINE
  8
2
  6
CONTINUOUS
 10
110.830000
 20
74.102503
 11
110.830000
 21
73.752503
  0
LINE
  8
2
  6
CONTINUOUS
 10
112.640000
 20
74.102503
 11
112.640000
 21
73.752503
  0
LINE
  8
2
  6
CONTINUOUS
 10
114.020000
 20
74.102503
 11
114.020000
 21
73.752503
  0
LINE
  8
2
  6
CONTINUOUS
 10
115.630000
 20
74.102503
 11
115.630000
 21
73.752503
  0
LINE
  8
2
  6
CONTINUOUS
 10
106.500000
 20
73.752503
 11
106.500000
 21
74.102503
  0
LINE
  8
2
  6
CONTINUOUS
 10
117.500000
 20
73.752503
 11
117.500000
 21
74.102503
  0
LINE
  8
2
  6
CONTINUOUS
 10
107.650000
 20
74.102503
 11
107.650000
 21
73.752503
  0
LINE
  8
2
  6
CONTINUOUS
 10
109.450000
 20
73.752503
 11
109.450000
 21
73.402503
  0
LINE
  8
2
  6
CONTINUOUS
 10
110.830000
 20
73.752503
 11
110.830000
 21
73.402503
  0
LINE
  8
2
  6
CONTINUOUS
 10
112.640000
 20
73.752503
 11
112.640000
 21
73.402503
  0
LINE
  8
2
  6
CONTINUOUS
 10
114.020000
 20
73.752503
 11
114.020000
 21
73.402503
  0
LINE
  8
2
  6
CONTINUOUS
 10
115.630000
 20
73.752503
 11
115.630000
 21
73.402503
  0
LINE
  8
2
  6
CONTINUOUS
 10
106.500000
 20
73.402503
 11
106.500000
 21
73.752503
  0
LINE
  8
2
  6
CONTINUOUS
 10
117.500000
 20
73.402503
 11
117.500000
 21
73.752503
  0
LINE
  8
2
  6
CONTINUOUS
 10
107.650000
 20
73.752503
 11
107.650000
 21
73.402503
  0
LINE
  8
2
  6
CONTINUOUS
 10
109.450000
 20
73.402503
 11
109.450000
 21
73.052503
  0
LINE
  8
2
  6
CONTINUOUS
 10
110.830000
 20
73.402503
 11
110.830000
 21
73.052503
  0
LINE
  8
2
  6
CONTINUOUS
 10
112.640000
 20
73.402503
 11
112.640000
 21
73.052503
  0
LINE
  8
2
  6
CONTINUOUS
 10
114.020000
 20
73.402503
 11
114.020000
 21
73.052503
  0
LINE
  8
2
  6
CONTINUOUS
 10
115.630000
 20
73.402503
 11
115.630000
 21
73.052503
  0
LINE
  8
2
  6
CONTINUOUS
 10
106.500000
 20
73.052503
 11
106.500000
 21
73.402503
  0
LINE
  8
2
  6
CONTINUOUS
 10
117.500000
 20
73.052503
 11
117.500000
 21
73.402503
  0
LINE
  8
2
  6
CONTINUOUS
 10
107.650000
 20
73.402503
 11
107.650000
 21
73.052503
  0
LINE
  8
2
  6
CONTINUOUS
 10
109.450000
 20
73.052503
 11
109.450000
 21
72.702503
  0
LINE
  8
2
  6
CONTINUOUS
 10
110.830000
 20
73.052503
 11
110.830000
 21
72.702503
  0
LINE
  8
2
  6
CONTINUOUS
 10
112.640000
 20
73.052503
 11
112.640000
 21
72.702503
  0
LINE
  8
2
  6
CONTINUOUS
 10
114.020000
 20
73.052503
 11
114.020000
 21
72.702503
  0
LINE
  8
2
  6
CONTINUOUS
 10
115.630000
 20
73.052503
 11
115.630000
 21
72.702503
  0
LINE
  8
2
  6
CONTINUOUS
 10
106.500000
 20
72.702503
 11
106.500000
 21
73.052503
  0
LINE
  8
2
  6
CONTINUOUS
 10
117.500000
 20
72.702503
 11
117.500000
 21
73.052503
  0
LINE
  8
2
  6
CONTINUOUS
 10
107.650000
 20
73.052503
 11
107.650000
 21
72.702503
  0
LINE
  8
2
  6
CONTINUOUS
 10
109.450000
 20
72.702503
 11
109.450000
 21
72.352503
  0
LINE
  8
2
  6
CONTINUOUS
 10
110.830000
 20
72.702503
 11
110.830000
 21
72.352503
  0
LINE
  8
2
  6
CONTINUOUS
 10
112.640000
 20
72.702503
 11
112.640000
 21
72.352503
  0
LINE
  8
2
  6
CONTINUOUS
 10
114.020000
 20
72.702503
 11
114.020000
 21
72.352503
  0
LINE
  8
2
  6
CONTINUOUS
 10
115.630000
 20
72.702503
 11
115.630000
 21
72.352503
  0
LINE
  8
2
  6
CONTINUOUS
 10
106.500000
 20
72.352503
 11
106.500000
 21
72.702503
  0
LINE
  8
2
  6
CONTINUOUS
 10
117.500000
 20
72.352503
 11
117.500000
 21
72.702503
  0
LINE
  8
2
  6
CONTINUOUS
 10
107.650000
 20
72.702503
 11
107.650000
 21
72.352503
  0
LINE
  8
2
  6
CONTINUOUS
 10
109.450000
 20
72.352503
 11
109.450000
 21
72.002503
  0
LINE
  8
2
  6
CONTINUOUS
 10
110.830000
 20
72.352503
 11
110.830000
 21
72.002503
  0
LINE
  8
2
  6
CONTINUOUS
 10
112.640000
 20
72.352503
 11
112.640000
 21
72.002503
  0
LINE
  8
2
  6
CONTINUOUS
 10
114.020000
 20
72.352503
 11
114.020000
 21
72.002503
  0
LINE
  8
2
  6
CONTINUOUS
 10
115.630000
 20
72.352503
 11
115.630000
 21
72.002503
  0
LINE
  8
2
  6
CONTINUOUS
 10
106.500000
 20
72.002503
 11
106.500000
 21
72.352503
  0
LINE
  8
2
  6
CONTINUOUS
 10
117.500000
 20
72.002503
 11
117.500000
 21
72.352503
  0
LINE
  8
2
  6
CONTINUOUS
 10
107.650000
 20
72.352503
 11
107.650000
 21
72.002503
  0
LINE
  8
2
  6
CONTINUOUS
 10
109.450000
 20
72.002503
 11
109.450000
 21
71.652504
  0
LINE
  8
2
  6
CONTINUOUS
 10
110.830000
 20
72.002503
 11
110.830000
 21
71.652504
  0
LINE
  8
2
  6
CONTINUOUS
 10
112.640000
 20
72.002503
 11
112.640000
 21
71.652504
  0
LINE
  8
2
  6
CONTINUOUS
 10
114.020000
 20
72.002503
 11
114.020000
 21
71.652504
  0
LINE
  8
2
  6
CONTINUOUS
 10
115.630000
 20
72.002503
 11
115.630000
 21
71.652504
  0
LINE
  8
2
  6
CONTINUOUS
 10
106.500000
 20
71.652504
 11
106.500000
 21
72.002503
  0
LINE
  8
2
  6
CONTINUOUS
 10
117.500000
 20
71.652504
 11
117.500000
 21
72.002503
  0
LINE
  8
2
  6
CONTINUOUS
 10
107.650000
 20
72.002503
 11
107.650000
 21
71.652504
  0
LINE
  8
2
  6
CONTINUOUS
 10
109.450000
 20
71.652504
 11
109.450000
 21
71.302504
  0
LINE
  8
2
  6
CONTINUOUS
 10
110.830000
 20
71.652504
 11
110.830000
 21
71.302504
  0
LINE
  8
2
  6
CONTINUOUS
 10
112.640000
 20
71.652504
 11
112.640000
 21
71.302504
  0
LINE
  8
2
  6
CONTINUOUS
 10
114.020000
 20
71.652504
 11
114.020000
 21
71.302504
  0
LINE
  8
2
  6
CONTINUOUS
 10
115.630000
 20
71.652504
 11
115.630000
 21
71.302504
  0
LINE
  8
2
  6
CONTINUOUS
 10
106.500000
 20
71.302504
 11
106.500000
 21
71.652504
  0
LINE
  8
2
  6
CONTINUOUS
 10
117.500000
 20
71.302504
 11
117.500000
 21
71.652504
  0
LINE
  8
2
  6
CONTINUOUS
 10
107.650000
 20
71.652504
 11
107.650000
 21
71.302504
  0
LINE
  8
2
  6
CONTINUOUS
 10
106.500000
 20
71.302504
 11
117.500000
 21
71.302504
  0
LINE
  8
2
  6
CONTINUOUS
 10
106.500000
 20
70.302504
 11
106.500000
 21
68.990004
  0
LINE
  8
2
  6
CONTINUOUS
 10
117.500000
 20
70.302504
 11
117.500000
 21
68.990004
  0
LINE
  8
2
  6
CONTINUOUS
 10
106.500000
 20
70.302504
 11
117.500000
 21
70.302504
  0
LINE
  8
2
  6
CONTINUOUS
 10
106.500000
 20
68.990004
 11
117.500000
 21
68.990004
  0
LINE
  8
2
  6
CONTINUOUS
 10
106.500000
 20
69.865004
 11
117.500000
 21
69.865004
  0
LINE
  8
2
  6
CONTINUOUS
 10
110.830000
 20
68.990004
 11
110.830000
 21
69.865004
  0
LINE
  8
2
  6
CONTINUOUS
 10
109.220000
 20
68.990004
 11
109.220000
 21
69.865004
  0
LINE
  8
2
  6
CONTINUOUS
 10
114.165000
 20
68.990004
 11
114.165000
 21
69.865004
  0
LINE
  8
2
  6
CONTINUOUS
 10
114.165000
 20
68.990004
 11
114.165000
 21
68.640003
  0
LINE
  8
2
  6
CONTINUOUS
 10
110.830000
 20
68.640003
 11
110.830000
 21
68.990004
  0
LINE
  8
2
  6
CONTINUOUS
 10
106.500000
 20
68.640003
 11
106.500000
 21
68.990004
  0
LINE
  8
2
  6
CONTINUOUS
 10
117.500000
 20
68.640003
 11
117.500000
 21
68.990004
  0
LINE
  8
2
  6
CONTINUOUS
 10
109.220000
 20
68.990004
 11
109.220000
 21
68.640004
  0
LINE
  8
2
  6
CONTINUOUS
 10
114.165000
 20
68.640003
 11
114.165000
 21
68.290003
  0
LINE
  8
2
  6
CONTINUOUS
 10
110.830000
 20
68.290003
 11
110.830000
 21
68.640003
  0
LINE
  8
2
  6
CONTINUOUS
 10
106.500000
 20
68.290003
 11
106.500000
 21
68.640003
  0
LINE
  8
2
  6
CONTINUOUS
 10
117.500000
 20
68.290003
 11
117.500000
 21
68.640003
  0
LINE
  8
2
  6
CONTINUOUS
 10
109.220000
 20
68.640003
 11
109.220000
 21
68.290003
  0
LINE
  8
2
  6
CONTINUOUS
 10
114.165000
 20
68.290003
 11
114.165000
 21
67.940002
  0
LINE
  8
2
  6
CONTINUOUS
 10
110.830000
 20
67.940002
 11
110.830000
 21
68.290003
  0
LINE
  8
2
  6
CONTINUOUS
 10
106.500000
 20
67.940002
 11
106.500000
 21
68.290003
  0
LINE
  8
2
  6
CONTINUOUS
 10
117.500000
 20
67.940002
 11
117.500000
 21
68.290003
  0
LINE
  8
2
  6
CONTINUOUS
 10
109.220000
 20
68.290003
 11
109.220000
 21
67.940003
  0
LINE
  8
2
  6
CONTINUOUS
 10
114.165000
 20
67.940002
 11
114.165000
 21
67.590002
  0
LINE
  8
2
  6
CONTINUOUS
 10
110.830000
 20
67.590002
 11
110.830000
 21
67.940002
  0
LINE
  8
2
  6
CONTINUOUS
 10
106.500000
 20
67.590002
 11
106.500000
 21
67.940002
  0
LINE
  8
2
  6
CONTINUOUS
 10
117.500000
 20
67.590002
 11
117.500000
 21
67.940002
  0
LINE
  8
2
  6
CONTINUOUS
 10
109.220000
 20
67.940002
 11
109.220000
 21
67.590003
  0
LINE
  8
2
  6
CONTINUOUS
 10
106.500000
 20
67.590002
 11
117.500000
 21
67.590002
  0
LINE
  8
2
  6
CONTINUOUS
 10
106.500000
 20
67.152502
 11
106.500000
 21
67.590002
  0
LINE
  8
2
  6
CONTINUOUS
 10
117.500000
 20
67.152502
 11
117.500000
 21
67.590002
  0
LINE
  8
2
  6
CONTINUOUS
 10
106.500000
 20
67.590002
 11
117.500000
 21
67.590002
  0
LINE
  8
2
  6
CONTINUOUS
 10
117.500000
 20
67.152502
 11
106.500000
 21
67.152502
  0
LINE
  8
2
  6
CONTINUOUS
 10
106.500000
 20
66.715002
 11
106.500000
 21
67.152502
  0
LINE
  8
2
  6
CONTINUOUS
 10
117.500000
 20
66.715002
 11
117.500000
 21
67.152502
  0
LINE
  8
2
  6
CONTINUOUS
 10
106.500000
 20
67.152502
 11
117.500000
 21
67.152502
  0
LINE
  8
2
  6
CONTINUOUS
 10
117.500000
 20
66.715002
 11
106.500000
 21
66.715002
  0
LINE
  8
2
  6
CONTINUOUS
 10
106.500000
 20
66.715002
 11
117.500000
 21
66.715002
  0
LINE
  8
1
  6
CONTINUOUS
 10
118.000002
 20
29.700001
 11
119.000002
 21
29.700001
  0
LINE
  8
1
  6
CONTINUOUS
 10
118.000002
 20
59.400002
 11
119.000002
 21
59.400002
  0
LINE
  8
1
  6
CONTINUOUS
 10
0.000000
 20
29.700001
 11
2.500000
 21
29.700001
  0
LINE
  8
1
  6
CONTINUOUS
 10
0.000000
 20
59.400002
 11
2.500000
 21
59.400002
  0
LINE
  8
1
  6
CONTINUOUS
 10
100.500002
 20
82.999998
 11
100.500002
 21
83.999998
  0
LINE
  8
1
  6
CONTINUOUS
 10
82.000002
 20
82.999998
 11
82.000002
 21
83.999998
  0
LINE
  8
1
  6
CONTINUOUS
 10
63.500002
 20
82.999998
 11
63.500002
 21
83.999998
  0
LINE
  8
1
  6
CONTINUOUS
 10
45.000002
 20
82.999998
 11
45.000002
 21
83.999998
  0
LINE
  8
1
  6
CONTINUOUS
 10
33.050001
 20
82.999998
 11
33.050001
 21
83.999998
  0
LINE
  8
1
  6
CONTINUOUS
 10
21.100000
 20
82.999998
 11
21.100000
 21
83.999998
  0
LINE
  8
1
  6
CONTINUOUS
 10
100.500002
 20
0.000000
 11
100.500002
 21
1.000000
  0
LINE
  8
1
  6
CONTINUOUS
 10
82.000002
 20
0.000000
 11
82.000002
 21
1.000000
  0
LINE
  8
1
  6
CONTINUOUS
 10
63.500002
 20
0.000000
 11
63.500002
 21
1.000000
  0
LINE
  8
1
  6
CONTINUOUS
 10
45.000002
 20
0.000000
 11
45.000002
 21
1.000000
  0
LINE
  8
1
  6
CONTINUOUS
 10
33.050001
 20
0.000000
 11
33.050001
 21
1.000000
  0
LINE
  8
1
  6
CONTINUOUS
 10
21.100000
 20
0.000000
 11
21.100000
 21
1.000000
  0
LINE
  8
1
  6
CONTINUOUS
 10
0.000000
 20
0.000000
 11
119.000002
 21
0.000000
  0
LINE
  8
1
  6
CONTINUOUS
 10
119.000002
 20
0.000000
 11
119.000002
 21
83.999998
  0
LINE
  8
1
  6
CONTINUOUS
 10
0.000000
 20
0.000000
 11
0.000000
 21
83.999998
  0
LINE
  8
8
  6
CONTINUOUS
 10
2.500000
 20
1.000000
 11
118.000002
 21
1.000000
  0
LINE
  8
8
  6
CONTINUOUS
 10
118.000002
 20
1.000000
 11
118.000002
 21
82.999998
  0
LINE
  8
1
  6
CONTINUOUS
 10
0.000000
 20
83.999998
 11
119.000002
 21
83.999998
  0
LINE
  8
8
  6
CONTINUOUS
 10
2.500000
 20
82.999998
 11
118.000002
 21
82.999998
  0
LINE
  8
8
  6
CONTINUOUS
 10
2.500000
 20
82.999998
 11
2.500000
 21
1.000000
  0
LINE
  8
2
  6
CONTINUOUS
 10
102.650002
 20
17.625000
 11
102.650002
 21
18.125000
  0
LINE
  8
1
  6
CONTINUOUS
 10
101.700002
 20
18.200000
 11
118.000002
 21
18.200000
  0
LINE
  8
1
  6
CONTINUOUS
 10
101.700002
 20
17.700000
 11
118.000002
 21
17.700000
  0
LINE
  8
1
  6
CONTINUOUS
 10
102.200002
 20
17.700000
 11
118.000002
 21
17.700000
  0
LINE
  8
2
  6
CONTINUOUS
 10
102.650002
 20
17.125000
 11
102.650002
 21
17.625000
  0
LINE
  8
1
  6
CONTINUOUS
 10
102.200002
 20
17.700000
 11
118.000002
 21
17.700000
  0
LINE
  8
1
  6
CONTINUOUS
 10
101.700002
 20
17.200000
 11
118.000002
 21
17.200000
  0
LINE
  8
2
  6
CONTINUOUS
 10
102.650002
 20
16.700000
 11
102.650002
 21
17.200000
  0
LINE
  8
1
  6
CONTINUOUS
 10
116.008223
 20
16.000000
 11
116.008223
 21
22.200000
  0
LINE
  8
1
  6
CONTINUOUS
 10
104.850002
 20
16.000000
 11
104.850002
 21
22.200000
  0
LINE
  8
6
  6
CONTINUOUS
 10
101.700002
 20
16.000000
 11
118.000002
 21
16.000000
  0
LINE
  8
1
  6
CONTINUOUS
 10
102.650002
 20
16.000000
 11
102.650002
 21
16.700000
  0
LINE
  8
1
  6
CONTINUOUS
 10
102.200002
 20
17.200000
 11
118.000002
 21
17.200000
  0
LINE
  8
1
  6
CONTINUOUS
 10
101.700002
 20
16.700000
 11
118.000002
 21
16.700000
  0
LINE
  8
2
  6
CONTINUOUS
 10
102.650002
 20
18.625000
 11
102.650002
 21
22.200000
  0
LINE
  8
6
  6
CONTINUOUS
 10
101.700002
 20
22.200000
 11
118.000002
 21
22.200000
  0
LINE
  8
1
  6
CONTINUOUS
 10
101.700002
 20
18.700000
 11
118.000002
 21
18.700000
  0
LINE
  8
1
  6
CONTINUOUS
 10
102.200002
 20
18.700000
 11
118.000002
 21
18.700000
  0
LINE
  8
2
  6
CONTINUOUS
 10
102.650002
 20
18.125000
 11
102.650002
 21
18.625000
  0
LINE
  8
1
  6
CONTINUOUS
 10
102.200002
 20
18.700000
 11
118.000002
 21
18.700000
  0
LINE
  8
1
  6
CONTINUOUS
 10
102.200002
 20
18.200000
 11
118.000002
 21
18.200000
  0
LINE
  8
1
  6
CONTINUOUS
 10
102.200002
 20
18.200000
 11
118.000002
 21
18.200000
  0
LINE
  8
6
  6
CONTINUOUS
 10
101.700002
 20
6.600000
 11
118.000002
 21
6.600000
  0
LINE
  8
6
  6
CONTINUOUS
 10
101.700002
 20
8.500000
 11
118.000002
 21
8.500000
  0
LINE
  8
6
  6
CONTINUOUS
 10
101.700002
 20
1.000000
 11
101.700002
 21
8.500000
  0
LINE
  8
6
  6
CONTINUOUS
 10
101.700002
 20
16.000000
 11
101.700002
 21
22.200000
  0
LINE
  8
6
  6
CONTINUOUS
 10
101.700002
 20
15.900000
 11
118.000002
 21
15.900000
  0
LINE
  8
6
  6
CONTINUOUS
 10
101.700002
 20
11.400000
 11
101.700002
 21
15.900000
  0
LINE
  8
1
  6
CONTINUOUS
 10
101.700002
 20
14.400000
 11
118.000002
 21
14.400000
  0
LINE
  8
6
  6
CONTINUOUS
 10
101.700002
 20
3.000000
 11
118.000002
 21
3.000000
  0
LINE
  8
6
  6
CONTINUOUS
 10
105.024321
 20
3.000000
 11
105.024321
 21
1.000000
  0
LINE
  8
1
  6
CONTINUOUS
 10
101.700002
 20
12.900000
 11
118.000002
 21
12.900000
  0
POLYLINE
  8
1
  6
CONTINUOUS
 66
     1
  0
VERTEX
  8
1
  6
CONTINUOUS
 10
103.635546
 20
9.498246
  0
VERTEX
  8
1
  6
CONTINUOUS
 10
101.971546
 20
9.498246
  0
VERTEX
  8
1
  6
CONTINUOUS
 10
101.971546
 20
11.162246
  0
VERTEX
  8
1
  6
CONTINUOUS
 10
103.635546
 20
11.162246
  0
VERTEX
  8
1
  6
CONTINUOUS
 10
103.635546
 20
9.498246
  0
SEQEND
  8
1
  6
CONTINUOUS
  0
POLYLINE
  8
13
  6
CONTINUOUS
 66
     1
  0
VERTEX
  8
13
  6
CONTINUOUS
 10
102.095046
 20
10.244446
  0
VERTEX
  8
13
  6
CONTINUOUS
 10
102.095046
 20
9.498246
  0
VERTEX
  8
13
  6
CONTINUOUS
 10
101.971546
 20
9.498246
  0
VERTEX
  8
13
  6
CONTINUOUS
 10
101.971546
 20
11.162246
  0
VERTEX
  8
13
  6
CONTINUOUS
 10
102.095046
 20
11.162246
  0
VERTEX
  8
13
  6
CONTINUOUS
 10
102.095046
 20
10.244446
  0
SEQEND
  8
13
  6
CONTINUOUS
  0
POLYLINE
  8
13
  6
CONTINUOUS
 66
     1
  0
VERTEX
  8
13
  6
CONTINUOUS
 10
102.522746
 20
10.230979
  0
VERTEX
  8
13
  6
CONTINUOUS
 10
102.522746
 20
9.498246
  0
VERTEX
  8
13
  6
CONTINUOUS
 10
102.095046
 20
9.498246
  0
VERTEX
  8
13
  6
CONTINUOUS
 10
102.095046
 20
10.244446
  0
VERTEX
  8
13
  6
CONTINUOUS
 10
102.143544
 20
10.248642
  0
VERTEX
  8
13
  6
CONTINUOUS
 10
102.211078
 20
10.252071
  0
VERTEX
  8
13
  6
CONTINUOUS
 10
102.259959
 20
10.252484
  0
VERTEX
  8
13
  6
CONTINUOUS
 10
102.290321
 20
10.252141
  0
VERTEX
  8
13
  6
CONTINUOUS
 10
102.334203
 20
10.250668
  0
VERTEX
  8
13
  6
CONTINUOUS
 10
102.394518
 20
10.246747
  0
VERTEX
  8
13
  6
CONTINUOUS
 10
102.446340
 20
10.241621
  0
VERTEX
  8
13
  6
CONTINUOUS
 10
102.490083
 20
10.235974
  0
VERTEX
  8
13
  6
CONTINUOUS
 10
102.522746
 20
10.230979
  0
SEQEND
  8
13
  6
CONTINUOUS
  0
POLYLINE
  8
13
  6
CONTINUOUS
 66
     1
  0
VERTEX
  8
13
  6
CONTINUOUS
 10
102.594246
 20
10.217654
  0
VERTEX
  8
13
  6
CONTINUOUS
 10
102.594246
 20
9.498246
  0
VERTEX
  8
13
  6
CONTINUOUS
 10
103.021946
 20
9.498246
  0
VERTEX
  8
13
  6
CONTINUOUS
 10
103.021946
 20
10.064184
  0
VERTEX
  8
13
  6
CONTINUOUS
 10
103.003898
 20
10.073542
  0
VERTEX
  8
13
  6
CONTINUOUS
 10
102.981716
 20
10.084501
  0
VERTEX
  8
13
  6
CONTINUOUS
 10
102.953307
 20
10.098271
  0
VERTEX
  8
13
  6
CONTINUOUS
 10
102.912865
 20
10.116383
  0
VERTEX
  8
13
  6
CONTINUOUS
 10
102.885024
 20
10.128001
  0
VERTEX
  8
13
  6
CONTINUOUS
 10
102.844071
 20
10.144755
  0
VERTEX
  8
13
  6
CONTINUOUS
 10
102.813490
 20
10.155923
  0
VERTEX
  8
13
  6
CONTINUOUS
 10
102.778388
 20
10.168156
  0
VERTEX
  8
13
  6
CONTINUOUS
 10
102.744083
 20
10.178793
  0
VERTEX
  8
13
  6
CONTINUOUS
 10
102.703465
 20
10.191172
  0
VERTEX
  8
13
  6
CONTINUOUS
 10
102.665141
 20
10.201162
  0
VERTEX
  8
13
  6
CONTINUOUS
 10
102.624819
 20
10.210970
  0
VERTEX
  8
13
  6
CONTINUOUS
 10
102.594246
 20
10.217654
  0
SEQEND
  8
13
  6
CONTINUOUS
  0
POLYLINE
  8
13
  6
CONTINUOUS
 66
     1
  0
VERTEX
  8
13
  6
CONTINUOUS
 10
103.093446
 20
10.024343
  0
VERTEX
  8
13
  6
CONTINUOUS
 10
103.093446
 20
9.498246
  0
VERTEX
  8
13
  6
CONTINUOUS
 10
103.521146
 20
9.498246
  0
VERTEX
  8
13
  6
CONTINUOUS
 10
103.521146
 20
9.661030
  0
VERTEX
  8
13
  6
CONTINUOUS
 10
103.507797
 20
9.676793
  0
VERTEX
  8
13
  6
CONTINUOUS
 10
103.495964
 20
9.690528
  0
VERTEX
  8
13
  6
CONTINUOUS
 10
103.473877
 20
9.715277
  0
VERTEX
  8
13
  6
CONTINUOUS
 10
103.454164
 20
9.736530
  0
VERTEX
  8
13
  6
CONTINUOUS
 10
103.434048
 20
9.757502
  0
VERTEX
  8
13
  6
CONTINUOUS
 10
103.410015
 20
9.781535
  0
VERTEX
  8
13
  6
CONTINUOUS
 10
103.399294
 20
9.791943
  0
VERTEX
  8
13
  6
CONTINUOUS
 10
103.388429
 20
9.802406
  0
VERTEX
  8
13
  6
CONTINUOUS
 10
103.359952
 20
9.828752
  0
VERTEX
  8
13
  6
CONTINUOUS
 10
103.325139
 20
9.859181
  0
VERTEX
  8
13
  6
CONTINUOUS
 10
103.286846
 20
9.890826
  0
VERTEX
  8
13
  6
CONTINUOUS
 10
103.251036
 20
9.918745
  0
VERTEX
  8
13
  6
CONTINUOUS
 10
103.200839
 20
9.955427
  0
VERTEX
  8
13
  6
CONTINUOUS
 10
103.134352
 20
9.999676
  0
VERTEX
  8
13
  6
CONTINUOUS
 10
103.093446
 20
10.024343
  0
SEQEND
  8
13
  6
CONTINUOUS
  0
POLYLINE
  8
13
  6
CONTINUOUS
 66
     1
  0
VERTEX
  8
13
  6
CONTINUOUS
 10
102.522746
 20
10.635283
  0
VERTEX
  8
13
  6
CONTINUOUS
 10
102.522746
 20
11.162246
  0
VERTEX
  8
13
  6
CONTINUOUS
 10
102.095046
 20
11.162246
  0
VERTEX
  8
13
  6
CONTINUOUS
 10
102.095046
 20
10.995122
  0
VERTEX
  8
13
  6
CONTINUOUS
 10
102.153689
 20
10.929235
  0
VERTEX
  8
13
  6
CONTINUOUS
 10
102.237359
 20
10.846559
  0
VERTEX
  8
13
  6
CONTINUOUS
 10
102.308389
 20
10.784730
  0
VERTEX
  8
13
  6
CONTINUOUS
 10
102.366624
 20
10.739274
  0
VERTEX
  8
13
  6
CONTINUOUS
 10
102.406322
 20
10.710064
  0
VERTEX
  8
13
  6
CONTINUOUS
 10
102.455827
 20
10.676682
  0
VERTEX
  8
13
  6
CONTINUOUS
 10
102.493954
 20
10.652515
  0
VERTEX
  8
13
  6
CONTINUOUS
 10
102.522746
 20
10.635283
  0
SEQEND
  8
13
  6
CONTINUOUS
  0
POLYLINE
  8
13
  6
CONTINUOUS
 66
     1
  0
VERTEX
  8
13
  6
CONTINUOUS
 10
103.021946
 20
10.443678
  0
VERTEX
  8
13
  6
CONTINUOUS
 10
103.021946
 20
11.162246
  0
VERTEX
  8
13
  6
CONTINUOUS
 10
102.594246
 20
11.162246
  0
VERTEX
  8
13
  6
CONTINUOUS
 10
102.594246
 20
10.595859
  0
VERTEX
  8
13
  6
CONTINUOUS
 10
102.663800
 20
10.561766
  0
VERTEX
  8
13
  6
CONTINUOUS
 10
102.744359
 20
10.527375
  0
VERTEX
  8
13
  6
CONTINUOUS
 10
102.812197
 20
10.501464
  0
VERTEX
  8
13
  6
CONTINUOUS
 10
102.889458
 20
10.476967
  0
VERTEX
  8
13
  6
CONTINUOUS
 10
102.950702
 20
10.460007
  0
VERTEX
  8
13
  6
CONTINUOUS
 10
103.021946
 20
10.443678
  0
SEQEND
  8
13
  6
CONTINUOUS
  0
POLYLINE
  8
13
  6
CONTINUOUS
 66
     1
  0
VERTEX
  8
13
  6
CONTINUOUS
 10
103.093446
 20
10.430307
  0
VERTEX
  8
13
  6
CONTINUOUS
 10
103.093446
 20
11.162246
  0
VERTEX
  8
13
  6
CONTINUOUS
 10
103.521146
 20
11.162246
  0
VERTEX
  8
13
  6
CONTINUOUS
 10
103.521146
 20
10.417580
  0
VERTEX
  8
13
  6
CONTINUOUS
 10
103.476372
 20
10.413637
  0
VERTEX
  8
13
  6
CONTINUOUS
 10
103.416577
 20
10.410480
  0
VERTEX
  8
13
  6
CONTINUOUS
 10
103.366788
 20
10.409453
  0
VERTEX
  8
13
  6
CONTINUOUS
 10
103.336830
 20
10.409453
  0
VERTEX
  8
13
  6
CONTINUOUS
 10
103.286182
 20
10.410821
  0
VERTEX
  8
13
  6
CONTINUOUS
 10
103.241261
 20
10.413321
  0
VERTEX
  8
13
  6
CONTINUOUS
 10
103.205545
 20
10.416539
  0
VERTEX
  8
13
  6
CONTINUOUS
 10
103.155349
 20
10.421044
  0
VERTEX
  8
13
  6
CONTINUOUS
 10
103.093446
 20
10.430307
  0
SEQEND
  8
13
  6
CONTINUOUS
  0
POLYLINE
  8
13
  6
CONTINUOUS
 66
     1
  0
VERTEX
  8
13
  6
CONTINUOUS
 10
102.522746
 20
9.498246
  0
VERTEX
  8
13
  6
CONTINUOUS
 10
102.594246
 20
9.498246
  0
VERTEX
  8
13
  6
CONTINUOUS
 10
102.594246
 20
11.162246
  0
VERTEX
  8
13
  6
CONTINUOUS
 10
102.522746
 20
11.162246
  0
VERTEX
  8
13
  6
CONTINUOUS
 10
102.522746
 20
9.498246
  0
VERTEX
  8
13
  6
CONTINUOUS
 10
102.594246
 20
9.498246
  0
SEQEND
  8
13
  6
CONTINUOUS
  0
POLYLINE
  8
13
  6
CONTINUOUS
 66
     1
  0
VERTEX
  8
13
  6
CONTINUOUS
 10
103.021946
 20
11.162246
  0
VERTEX
  8
13
  6
CONTINUOUS
 10
103.093446
 20
11.162246
  0
VERTEX
  8
13
  6
CONTINUOUS
 10
103.093446
 20
9.498246
  0
VERTEX
  8
13
  6
CONTINUOUS
 10
103.021946
 20
9.498246
  0
VERTEX
  8
13
  6
CONTINUOUS
 10
103.021946
 20
11.162246
  0
SEQEND
  8
13
  6
CONTINUOUS
  0
POLYLINE
  8
13
  6
CONTINUOUS
 66
     1
  0
VERTEX
  8
13
  6
CONTINUOUS
 10
103.521146
 20
9.498246
  0
VERTEX
  8
13
  6
CONTINUOUS
 10
103.635546
 20
9.498246
  0
VERTEX
  8
13
  6
CONTINUOUS
 10
103.635546
 20
11.162246
  0
VERTEX
  8
13
  6
CONTINUOUS
 10
103.521146
 20
11.162246
  0
VERTEX
  8
13
  6
CONTINUOUS
 10
103.521146
 20
9.498246
  0
SEQEND
  8
13
  6
CONTINUOUS
  0
LINE
  8
6
  6
CONTINUOUS
 10
107.924321
 20
3.000000
 11
107.924321
 21
2.000000
  0
LINE
  8
6
  6
CONTINUOUS
 10
101.700002
 20
2.000000
 11
114.124321
 21
2.000000
  0
LINE
  8
6
  6
CONTINUOUS
 10
114.124321
 20
3.000000
 11
114.124321
 21
1.000000
  0
LINE
  8
6
  6
CONTINUOUS
 10
101.700002
 20
8.600000
 11
118.000002
 21
8.600000
  0
LINE
  8
6
  6
CONTINUOUS
 10
101.700002
 20
8.600000
 11
101.700002
 21
11.300000
  0
LINE
  8
6
  6
CONTINUOUS
 10
101.700002
 20
11.300000
 11
118.000002
 21
11.300000
  0
LINE
  8
6
  6
CONTINUOUS
 10
101.700002
 20
11.400000
 11
118.000002
 21
11.400000
  0
LINE
  8
1
  6
CONTINUOUS
 10
101.700002
 20
19.200000
 11
118.000002
 21
19.200000
  0
LINE
  8
1
  6
CONTINUOUS
 10
102.200002
 20
19.200000
 11
118.000002
 21
19.200000
  0
LINE
  8
1
  6
CONTINUOUS
 10
102.200002
 20
19.200000
 11
118.000002
 21
19.200000
  0
LINE
  8
1
  6
CONTINUOUS
 10
101.700002
 20
19.700000
 11
118.000002
 21
19.700000
  0
LINE
  8
1
  6
CONTINUOUS
 10
102.200002
 20
19.700000
 11
118.000002
 21
19.700000
  0
LINE
  8
1
  6
CONTINUOUS
 10
102.200002
 20
19.700000
 11
118.000002
 21
19.700000
  0
LINE
  8
1
  6
CONTINUOUS
 10
101.700002
 20
20.200000
 11
118.000002
 21
20.200000
  0
LINE
  8
1
  6
CONTINUOUS
 10
102.200002
 20
20.200000
 11
118.000002
 21
20.200000
  0
LINE
  8
1
  6
CONTINUOUS
 10
102.200002
 20
20.200000
 11
118.000002
 21
20.200000
  0
LINE
  8
1
  6
CONTINUOUS
 10
101.700002
 20
20.700000
 11
118.000002
 21
20.700000
  0
LINE
  8
1
  6
CONTINUOUS
 10
102.200002
 20
20.700000
 11
118.000002
 21
20.700000
  0
LINE
  8
1
  6
CONTINUOUS
 10
102.200002
 20
20.700000
 11
118.000002
 21
20.700000
  0
LINE
  8
1
  6
CONTINUOUS
 10
101.700002
 20
21.200000
 11
118.000002
 21
21.200000
  0
LINE
  8
1
  6
CONTINUOUS
 10
102.200002
 20
21.200000
 11
118.000002
 21
21.200000
  0
LINE
  8
1
  6
CONTINUOUS
 10
102.200002
 20
21.200000
 11
118.000002
 21
21.200000
  0
LINE
  8
1
  6
CONTINUOUS
 10
101.700002
 20
21.700000
 11
118.000002
 21
21.700000
  0
LINE
  8
6
  6
CONTINUOUS
 10
110.708935
 20
11.300000
 11
110.708935
 21
8.600000
  0
TEXT
  8
5
  6
CONTINUOUS
 10
83.561246
 20
38.644579
 40
0.300000
  1
L8
  7
TQS_CALIBRI
  0
TEXT
  8
5
  6
CONTINUOUS
 10
35.090915
 20
31.085615
 40
0.300000
  1
L9
  7
TQS_CALIBRI
  0
TEXT
  8
5
  6
CONTINUOUS
 10
28.884301
 20
19.785232
 40
0.300000
  1
P76
  7
TQS_CALIBRI
  0
TEXT
  8
5
  6
CONTINUOUS
 10
26.159360
 20
43.024393
 40
0.300000
  1
P40
  7
TQS_CALIBRI
  0
TEXT
  8
5
  6
CONTINUOUS
 10
45.824849
 20
45.330287
 40
0.300000
  1
P38
  7
TQS_CALIBRI
  0
TEXT
  8
5
  6
CONTINUOUS
 10
48.549791
 20
22.091126
 40
0.300000
  1
P72
  7
TQS_CALIBRI
  0
TEXT
  8
5
  6
CONTINUOUS
 10
75.455109
 20
25.245895
 40
0.300000
  1
P66
  7
TQS_CALIBRI
  0
TEXT
  8
5
  6
CONTINUOUS
 10
77.504202
 20
49.044835
 40
0.300000
  1
P34
  7
TQS_CALIBRI
  0
TEXT
  8
5
  6
CONTINUOUS
 10
12.341955
 20
17.967599
 40
0.300000
  1
P79
  7
TQS_CALIBRI
  0
TEXT
  8
5
  6
CONTINUOUS
 10
9.508458
 20
41.194030
 40
0.300000
  1
P43
  7
TQS_CALIBRI
  0
TEXT
  8
5
  6
CONTINUOUS
 10
65.144294
 20
24.169956
 40
0.300000
  1
P70
  7
TQS_CALIBRI
  0
TEXT
  8
5
  6
CONTINUOUS
 10
62.959596
 20
47.472347
 40
0.300000
  1
P36
  7
TQS_CALIBRI
  0
TEXT
  8
5
  6
CONTINUOUS
 10
8.362894
 20
51.963581
 40
0.300000
  1
P31
  7
TQS_CALIBRI
  0
TEXT
  8
5
  6
CONTINUOUS
 10
13.640591
 20
7.319297
 40
0.300000
  1
P91
  7
TQS_CALIBRI
  0
TEXT
  8
5
  6
CONTINUOUS
 10
22.268430
 20
8.187560
 40
0.300000
  1
P90
  7
TQS_CALIBRI
  0
TEXT
  8
5
  6
CONTINUOUS
 10
46.739356
 20
10.797715
 40
0.300000
  1
P88
  7
TQS_CALIBRI
  0
TEXT
  8
5
  6
CONTINUOUS
 10
66.211069
 20
12.926173
 40
0.300000
  1
P86
  7
TQS_CALIBRI
  0
TEXT
  8
5
  6
CONTINUOUS
 10
90.297982
 20
15.824675
 40
0.300000
  1
P82
  7
TQS_CALIBRI
  0
TEXT
  8
5
  6
CONTINUOUS
 10
61.985254
 20
57.949361
 40
0.300000
  1
P18
  7
TQS_CALIBRI
  0
TEXT
  8
5
  6
CONTINUOUS
 10
86.108474
 20
61.180798
 40
0.300000
  1
P12
  7
TQS_CALIBRI
  0
TEXT
  8
5
  6
CONTINUOUS
 10
44.461580
 20
56.119394
 40
0.300000
  1
P22
  7
TQS_CALIBRI
  0
TEXT
  8
5
  6
CONTINUOUS
 10
63.377081
 20
24.348111
 40
0.300000
  1
P69
  7
TQS_CALIBRI
  0
TEXT
  8
5
  6
CONTINUOUS
 10
61.224245
 20
47.260097
 40
0.300000
  1
P35
  7
TQS_CALIBRI
  0
TEXT
  8
5
  6
CONTINUOUS
 10
64.468317
 20
12.724774
 40
0.300000
  1
P85
  7
TQS_CALIBRI
  0
TEXT
  8
5
  6
CONTINUOUS
 10
60.253570
 20
57.631567
 40
0.300000
  1
P19
  7
TQS_CALIBRI
  0
TEXT
  8
5
  6
CONTINUOUS
 10
93.512921
 20
51.043187
 40
0.300000
  1
P32
  7
TQS_CALIBRI
  0
TEXT
  8
5
  6
CONTINUOUS
 10
96.289241
 20
27.709392
 40
0.300000
  1
P61
  7
TQS_CALIBRI
  0
TEXT
  8
5
  6
CONTINUOUS
 10
76.120386
 20
59.939437
 40
0.300000
  1
P15
  7
TQS_CALIBRI
  0
TEXT
  8
5
  6
CONTINUOUS
 10
81.422066
 20
14.736573
 40
0.300000
  1
P83
  7
TQS_CALIBRI
  0
TEXT
  8
5
  6
CONTINUOUS
 10
10.918689
 20
29.633011
 40
0.300000
  1
P59
  7
TQS_CALIBRI
  0
TEXT
  8
5
  6
CONTINUOUS
 10
62.316237
 20
35.661762
 40
0.300000
  1
P52
  7
TQS_CALIBRI
  0
TEXT
  8
5
  6
CONTINUOUS
 10
64.044301
 20
35.873375
 40
0.300000
  1
P49
  7
TQS_CALIBRI
  0
TEXT
  8
5
  6
CONTINUOUS
 10
94.893557
 20
39.440813
 40
0.300000
  1
P45
  7
TQS_CALIBRI
  0
TEXT
  8
5
  6
CONTINUOUS
 10
95.236342
 20
18.826549
 40
0.300000
  1
P78
  7
TQS_CALIBRI
  0
TEXT
  8
5
  6
CONTINUOUS
 10
32.907242
 20
9.324345
 40
0.300000
  1
P89
  7
TQS_CALIBRI
  0
TEXT
  8
5
  6
CONTINUOUS
 10
56.771085
 20
11.907740
 40
0.300000
  1
P87
  7
TQS_CALIBRI
  0
TEXT
  8
5
  6
CONTINUOUS
 10
74.007732
 20
13.832435
 40
0.300000
  1
P84
  7
TQS_CALIBRI
  0
TEXT
  8
5
  6
CONTINUOUS
 10
26.023501
 20
53.815413
 40
0.300000
  1
P27
  7
TQS_CALIBRI
  0
TEXT
  8
5
  6
CONTINUOUS
 10
36.021080
 20
55.097056
 40
0.300000
  1
P24
  7
TQS_CALIBRI
  0
TEXT
  8
5
  6
CONTINUOUS
 10
78.860474
 20
37.477487
 40
0.300000
  1
P48
  7
TQS_CALIBRI
  0
TEXT
  8
5
  6
CONTINUOUS
 10
27.515724
 20
31.457066
 40
0.300000
  1
P56
  7
TQS_CALIBRI
  0
TEXT
  8
5
  6
CONTINUOUS
 10
47.181145
 20
33.762952
 40
0.300000
  1
P54
  7
TQS_CALIBRI
  0
TEXT
  8
5
  6
CONTINUOUS
 10
92.417460
 20
60.243226
 40
0.300000
  1
P14
  7
TQS_CALIBRI
  0
TEXT
  8
5
  6
CONTINUOUS
 10
17.551270
 20
52.835397
 40
0.300000
  1
P28
  7
TQS_CALIBRI
  0
TEXT
  8
5
  6
CONTINUOUS
 10
86.301048
 20
26.517635
 40
0.300000
  1
P64
  7
TQS_CALIBRI
  0
TEXT
  8
1
  6
CONTINUOUS
 10
7.676090
 20
57.331012
 40
0.400000
  1
1X
  7
TQS_CALIBRI
  0
TEXT
  8
7
  6
CONTINUOUS
 10
7.676090
 20
58.931012
 40
0.800000
  1
02-1Pavto(A e B) - Armadura positiva
  7
TQS_CALIBRI
  0
TEXT
  8
2
  6
CONTINUOUS
 10
65.375944
 20
25.776077
 40
0.200000
 50
276.687988
  1
20
  7
TQS_CALIBRI
  0
TEXT
  8
2
  6
CONTINUOUS
 10
64.989959
 20
26.234242
 40
0.200000
 50
276.687988
  1
13
  7
TQS_CALIBRI
  0
TEXT
  8
2
  6
CONTINUOUS
 10
65.348101
 20
20.346466
 40
0.200000
 50
276.687988
  1
569
  7
TQS_CALIBRI
  0
TEXT
  8
2
  6
CONTINUOUS
 10
66.385045
 20
14.336916
 40
0.200000
 50
276.687988
  1
13
  7
TQS_CALIBRI
  0
TEXT
  8
2
  6
CONTINUOUS
 10
66.654568
 20
14.871946
 40
0.200000
 50
276.687988
  1
20
  7
TQS_CALIBRI
  0
TEXT
  8
2
  6
CONTINUOUS
 10
65.846019
 20
16.726167
 40
0.200000
 50
6.687988
  1
 
  7
TQS_CALIBRI
  0
TEXT
  8
2
  6
CONTINUOUS
 10
65.172148
 20
16.687423
 40
0.200000
 50
6.687988
  1
(25)
  7
TQS_CALIBRI
  0
TEXT
  8
2
  6
CONTINUOUS
 10
65.524100
 20
22.280122
 40
0.200000
 50
276.687988
  1
2 P25 %%c 8 C/12.5 C=635
  7
TQS_CALIBRI
  0
TEXT
  8
2
  6
CONTINUOUS
 10
91.951888
 20
62.647722
 40
0.200000
 50
276.687988
  1
20
  7
TQS_CALIBRI
  0
TEXT
  8
2
  6
CONTINUOUS
 10
91.565902
 20
63.105887
 40
0.200000
 50
276.687988
  1
13
  7
TQS_CALIBRI
  0
TEXT
  8
2
  6
CONTINUOUS
 10
91.977495
 20
56.762284
 40
0.200000
 50
276.687988
  1
615
  7
TQS_CALIBRI
  0
TEXT
  8
2
  6
CONTINUOUS
 10
95.579095
 20
27.022058
 40
0.200000
 50
6.687988
  1
 
  7
TQS_CALIBRI
  0
TEXT
  8
2
  6
CONTINUOUS
 10
94.882782
 20
26.980683
 40
0.200000
 50
6.687988
  1
(22)
  7
TQS_CALIBRI
  0
TEXT
  8
2
  6
CONTINUOUS
 10
92.153494
 20
58.695940
 40
0.200000
 50
276.687988
  1
2 P13 %%c 6.3 C/15 C=648
  7
TQS_CALIBRI
  0
TEXT
  8
2
  6
CONTINUOUS
 10
95.369524
 20
24.400367
 40
0.200000
 50
276.687988
  1
615
  7
TQS_CALIBRI
  0
TEXT
  8
2
  6
CONTINUOUS
 10
96.459918
 20
17.934990
 40
0.200000
 50
276.687988
  1
13
  7
TQS_CALIBRI
  0
TEXT
  8
2
  6
CONTINUOUS
 10
96.729441
 20
18.470021
 40
0.200000
 50
276.687988
  1
20
  7
TQS_CALIBRI
  0
TEXT
  8
2
  6
CONTINUOUS
 10
95.477826
 20
27.885719
 40
0.200000
 50
6.687988
  1
 
  7
TQS_CALIBRI
  0
TEXT
  8
2
  6
CONTINUOUS
 10
94.781513
 20
27.844343
 40
0.200000
 50
6.687988
  1
(22)
  7
TQS_CALIBRI
  0
TEXT
  8
2
  6
CONTINUOUS
 10
95.545523
 20
26.334023
 40
0.200000
 50
276.687988
  1
2 P13 %%c 6.3 C/15 C=648
  7
TQS_CALIBRI
  0
TEXT
  8
2
  6
CONTINUOUS
 10
93.188246
 20
47.411285
 40
0.200000
 50
6.687988
  1
 
  7
TQS_CALIBRI
  0
TEXT
  8
2
  6
CONTINUOUS
 10
92.491933
 20
47.369909
 40
0.200000
 50
6.687988
  1
(22)
  7
TQS_CALIBRI
  0
TEXT
  8
2
  6
CONTINUOUS
 10
93.321406
 20
42.553738
 40
0.200000
 50
276.687988
  1
2 P18 %%c 6.3 C/15 C=1180
  7
TQS_CALIBRI
  0
TEXT
  8
2
  6
CONTINUOUS
 10
86.029818
 20
61.953171
 40
0.200000
 50
276.687988
  1
20
  7
TQS_CALIBRI
  0
TEXT
  8
2
  6
CONTINUOUS
 10
85.643832
 20
62.411336
 40
0.200000
 50
276.687988
  1
13
  7
TQS_CALIBRI
  0
TEXT
  8
2
  6
CONTINUOUS
 10
86.085911
 20
55.807747
 40
0.200000
 50
276.687988
  1
641
  7
TQS_CALIBRI
  0
TEXT
  8
2
  6
CONTINUOUS
 10
80.786576
 20
24.537730
 40
0.200000
 50
6.687988
  1
 
  7
TQS_CALIBRI
  0
TEXT
  8
2
  6
CONTINUOUS
 10
93.831960
 20
26.107712
 40
0.200000
 50
6.687988
  1
(1446)
  7
TQS_CALIBRI
  0
TEXT
  8
2
  6
CONTINUOUS
 10
86.250264
 20
57.840722
 40
0.200000
 50
276.687988
  1
97 P12 %%c 6.3 C/15 C=674
  7
TQS_CALIBRI
  0
TEXT
  8
2
  6
CONTINUOUS
 10
89.697827
 20
22.944492
 40
0.200000
 50
276.687988
  1
641
  7
TQS_CALIBRI
  0
TEXT
  8
2
  6
CONTINUOUS
 10
90.818708
 20
16.219129
 40
0.200000
 50
276.687988
  1
13
  7
TQS_CALIBRI
  0
TEXT
  8
2
  6
CONTINUOUS
 10
91.088231
 20
16.754159
 40
0.200000
 50
276.687988
  1
20
  7
TQS_CALIBRI
  0
TEXT
  8
2
  6
CONTINUOUS
 10
80.671762
 20
25.516881
 40
0.200000
 50
6.687988
  1
 
  7
TQS_CALIBRI
  0
TEXT
  8
2
  6
CONTINUOUS
 10
93.717145
 20
27.086862
 40
0.200000
 50
6.687988
  1
(1446)
  7
TQS_CALIBRI
  0
TEXT
  8
2
  6
CONTINUOUS
 10
89.862180
 20
24.977467
 40
0.200000
 50
276.687988
  1
97 P12 %%c 6.3 C/15 C=674
  7
TQS_CALIBRI
  0
TEXT
  8
2
  6
CONTINUOUS
 10
78.369994
 20
45.146445
 40
0.200000
 50
6.687988
  1
 
  7
TQS_CALIBRI
  0
TEXT
  8
2
  6
CONTINUOUS
 10
91.415378
 20
46.716427
 40
0.200000
 50
6.687988
  1
(1446)
  7
TQS_CALIBRI
  0
TEXT
  8
2
  6
CONTINUOUS
 10
87.766478
 20
41.475804
 40
0.200000
 50
276.687988
  1
97 P18 %%c 6.3 C/15 C=1180
  7
TQS_CALIBRI
  0
TEXT
  8
2
  6
CONTINUOUS
 10
62.446165
 20
58.282576
 40
0.200000
 50
276.687988
  1
20
  7
TQS_CALIBRI
  0
TEXT
  8
2
  6
CONTINUOUS
 10
62.060180
 20
58.740740
 40
0.200000
 50
276.687988
  1
13
  7
TQS_CALIBRI
  0
TEXT
  8
2
  6
CONTINUOUS
 10
62.476275
 20
52.358739
 40
0.200000
 50
276.687988
  1
619
  7
TQS_CALIBRI
  0
TEXT
  8
2
  6
CONTINUOUS
 10
65.865346
 20
22.510996
 40
0.200000
 50
6.687988
  1
 
  7
TQS_CALIBRI
  0
TEXT
  8
2
  6
CONTINUOUS
 10
65.243056
 20
22.478300
 40
0.200000
 50
6.687988
  1
(30)
  7
TQS_CALIBRI
  0
TEXT
  8
2
  6
CONTINUOUS
 10
62.663921
 20
54.193075
 40
0.200000
 50
276.687988
  1
2 P8 %%c 6.3 C/15 C=652
  7
TQS_CALIBRI
  0
TEXT
  8
2
  6
CONTINUOUS
 10
66.195140
 20
19.957293
 40
0.200000
 50
276.687988
  1
619
  7
TQS_CALIBRI
  0
TEXT
  8
2
  6
CONTINUOUS
 10
67.290037
 20
13.453517
 40
0.200000
 50
276.687988
  1
13
  7
TQS_CALIBRI
  0
TEXT
  8
2
  6
CONTINUOUS
 10
67.559560
 20
13.988547
 40
0.200000
 50
276.687988
  1
20
  7
TQS_CALIBRI
  0
TEXT
  8
2
  6
CONTINUOUS
 10
65.760824
 20
23.402374
 40
0.200000
 50
6.687988
  1
 
  7
TQS_CALIBRI
  0
TEXT
  8
2
  6
CONTINUOUS
 10
65.138534
 20
23.369678
 40
0.200000
 50
6.687988
  1
(30)
  7
TQS_CALIBRI
  0
TEXT
  8
2
  6
CONTINUOUS
 10
66.382785
 20
21.791629
 40
0.200000
 50
276.687988
  1
2 P8 %%c 6.3 C/15 C=652
  7
TQS_CALIBRI
  0
TEXT
  8
2
  6
CONTINUOUS
 10
63.469447
 20
42.943300
 40
0.200000
 50
6.687988
  1
 
  7
TQS_CALIBRI
  0
TEXT
  8
2
  6
CONTINUOUS
 10
62.847157
 20
42.910604
 40
0.200000
 50
6.687988
  1
(30)
  7
TQS_CALIBRI
  0
TEXT
  8
2
  6
CONTINUOUS
 10
64.460332
 20
38.186331
 40
0.200000
 50
276.687988
  1
2 P18 %%c 6.3 C/15 C=1180
  7
TQS_CALIBRI
  0
TEXT
  8
2
  6
CONTINUOUS
 10
66.484360
 20
14.571499
 40
0.200000
 50
6.688000
  1
20
  7
TQS_CALIBRI
  0
TEXT
  8
2
  6
CONTINUOUS
 10
66.027360
 20
14.175581
 40
0.200000
 50
6.688000
  1
14
  7
TQS_CALIBRI
  0
TEXT
  8
2
  6
CONTINUOUS
 10
70.799654
 20
14.392854
 40
0.200000
 50
6.688000
  1
457
  7
TQS_CALIBRI
  0
TEXT
  8
2
  6
CONTINUOUS
 10
72.578730
 20
14.787420
 40
0.200000
 50
276.688000
  1
 
  7
TQS_CALIBRI
  0
TEXT
  8
2
  6
CONTINUOUS
 10
72.533127
 20
15.519776
 40
0.200000
 50
276.688000
  1
(19)
  7
TQS_CALIBRI
  0
TEXT
  8
2
  6
CONTINUOUS
 10
68.865998
 20
14.568853
 40
0.200000
 50
6.688000
  1
2 P27 %%c 8 C/12.5 C=491
  7
TQS_CALIBRI
  0
TEXT
  8
2
  6
CONTINUOUS
 10
84.651113
 20
16.178181
 40
0.200000
 50
6.688000
  1
1146
  7
TQS_CALIBRI
  0
TEXT
  8
2
  6
CONTINUOUS
 10
96.490129
 20
17.908762
 40
0.200000
 50
6.688000
  1
14
  7
TQS_CALIBRI
  0
TEXT
  8
2
  6
CONTINUOUS
 10
95.953934
 20
18.188217
 40
0.200000
 50
6.688000
  1
20
  7
TQS_CALIBRI
  0
TEXT
  8
2
  6
CONTINUOUS
 10
78.275898
 20
15.455474
 40
0.200000
 50
276.688000
  1
 
  7
TQS_CALIBRI
  0
TEXT
  8
2
  6
CONTINUOUS
 10
78.230295
 20
16.187830
 40
0.200000
 50
276.688000
  1
(19)
  7
TQS_CALIBRI
  0
TEXT
  8
2
  6
CONTINUOUS
 10
82.717457
 20
16.354180
 40
0.200000
 50
6.688000
  1
2 P11 %%c 8 C/12.5 C=1180
  7
TQS_CALIBRI
  0
TEXT
  8
2
  6
CONTINUOUS
 10
65.572573
 20
14.716048
 40
0.200000
 50
6.688000
  1
20
  7
TQS_CALIBRI
  0
TEXT
  8
2
  6
CONTINUOUS
 10
65.115573
 20
14.320130
 40
0.200000
 50
6.688000
  1
14
  7
TQS_CALIBRI
  0
TEXT
  8
2
  6
CONTINUOUS
 10
70.331677
 20
14.589445
 40
0.200000
 50
6.688000
  1
501
  7
TQS_CALIBRI
  0
TEXT
  8
2
  6
CONTINUOUS
 10
69.093258
 20
14.846968
 40
0.200000
 50
6.688000
  1
1 P26 %%c 8 C=535
  7
TQS_CALIBRI
  0
TEXT
  8
2
  6
CONTINUOUS
 10
84.617626
 20
16.506270
 40
0.200000
 50
6.688000
  1
1146
  7
TQS_CALIBRI
  0
TEXT
  8
2
  6
CONTINUOUS
 10
96.456642
 20
18.236850
 40
0.200000
 50
6.688000
  1
14
  7
TQS_CALIBRI
  0
TEXT
  8
2
  6
CONTINUOUS
 10
95.920447
 20
18.516305
 40
0.200000
 50
6.688000
  1
20
  7
TQS_CALIBRI
  0
TEXT
  8
2
  6
CONTINUOUS
 10
83.379207
 20
16.763792
 40
0.200000
 50
6.688000
  1
1 P11 %%c 8 C=1180
  7
TQS_CALIBRI
  0
TEXT
  8
2
  6
CONTINUOUS
 10
62.275962
 20
49.786171
 40
0.200000
 50
6.688000
  1
20
  7
TQS_CALIBRI
  0
TEXT
  8
2
  6
CONTINUOUS
 10
61.818961
 20
49.390253
 40
0.200000
 50
6.688000
  1
14
  7
TQS_CALIBRI
  0
TEXT
  8
2
  6
CONTINUOUS
 10
66.937143
 20
49.648085
 40
0.200000
 50
6.688000
  1
491
  7
TQS_CALIBRI
  0
TEXT
  8
2
  6
CONTINUOUS
 10
70.058079
 20
37.186638
 40
0.200000
 50
276.688000
  1
 
  7
TQS_CALIBRI
  0
TEXT
  8
2
  6
CONTINUOUS
 10
72.489198
 20
16.797496
 40
0.200000
 50
276.688000
  1
(2185)
  7
TQS_CALIBRI
  0
TEXT
  8
2
  6
CONTINUOUS
 10
64.804848
 20
49.800792
 40
0.200000
 50
6.688000
  1
175 P10 %%c 8 C/12.5 C=525
  7
TQS_CALIBRI
  0
TEXT
  8
2
  6
CONTINUOUS
 10
81.115848
 20
51.632883
 40
0.200000
 50
6.688000
  1
1146
  7
TQS_CALIBRI
  0
TEXT
  8
2
  6
CONTINUOUS
 10
92.954864
 20
53.363463
 40
0.200000
 50
6.688000
  1
14
  7
TQS_CALIBRI
  0
TEXT
  8
2
  6
CONTINUOUS
 10
92.418669
 20
53.642918
 40
0.200000
 50
6.688000
  1
20
  7
TQS_CALIBRI
  0
TEXT
  8
2
  6
CONTINUOUS
 10
76.264525
 20
37.914411
 40
0.200000
 50
276.688000
  1
 
  7
TQS_CALIBRI
  0
TEXT
  8
2
  6
CONTINUOUS
 10
78.695644
 20
17.525268
 40
0.200000
 50
276.688000
  1
(2185)
  7
TQS_CALIBRI
  0
TEXT
  8
2
  6
CONTINUOUS
 10
78.983554
 20
51.785589
 40
0.200000
 50
6.688000
  1
175 P11 %%c 8 C/12.5 C=1180
  7
TQS_CALIBRI
  0
TEXT
  8
2
  6
CONTINUOUS
 10
62.314673
 20
59.094948
 40
0.200000
 50
6.688000
  1
20
  7
TQS_CALIBRI
  0
TEXT
  8
2
  6
CONTINUOUS
 10
61.857672
 20
58.699030
 40
0.200000
 50
6.688000
  1
14
  7
TQS_CALIBRI
  0
TEXT
  8
2
  6
CONTINUOUS
 10
66.520850
 20
58.903508
 40
0.200000
 50
6.688000
  1
446
  7
TQS_CALIBRI
  0
TEXT
  8
2
  6
CONTINUOUS
 10
68.358130
 20
59.367765
 40
0.200000
 50
276.688000
  1
 
  7
TQS_CALIBRI
  0
TEXT
  8
2
  6
CONTINUOUS
 10
68.305256
 20
60.162135
 40
0.200000
 50
276.688000
  1
(12)
  7
TQS_CALIBRI
  0
TEXT
  8
2
  6
CONTINUOUS
 10
64.686514
 20
59.091153
 40
0.200000
 50
6.688000
  1
1 P9 %%c 8 C/12.5 C=480
  7
TQS_CALIBRI
  0
TEXT
  8
2
  6
CONTINUOUS
 10
80.328412
 20
60.119853
 40
0.200000
 50
6.688000
  1
1146
  7
TQS_CALIBRI
  0
TEXT
  8
2
  6
CONTINUOUS
 10
92.167428
 20
61.850433
 40
0.200000
 50
6.688000
  1
14
  7
TQS_CALIBRI
  0
TEXT
  8
2
  6
CONTINUOUS
 10
91.631233
 20
62.129888
 40
0.200000
 50
6.688000
  1
20
  7
TQS_CALIBRI
  0
TEXT
  8
2
  6
CONTINUOUS
 10
73.880708
 20
60.015348
 40
0.200000
 50
276.688000
  1
 
  7
TQS_CALIBRI
  0
TEXT
  8
2
  6
CONTINUOUS
 10
73.827834
 20
60.809718
 40
0.200000
 50
276.688000
  1
(12)
  7
TQS_CALIBRI
  0
TEXT
  8
2
  6
CONTINUOUS
 10
78.394757
 20
60.295851
 40
0.200000
 50
6.688000
  1
1 P11 %%c 8 C/12.5 C=1180
  7
TQS_CALIBRI
  0
TEXT
  8
2
  6
CONTINUOUS
 10
59.783597
 20
57.894492
 40
0.200000
 50
276.687988
  1
20
  7
TQS_CALIBRI
  0
TEXT
  8
2
  6
CONTINUOUS
 10
59.397611
 20
58.352657
 40
0.200000
 50
276.687988
  1
13
  7
TQS_CALIBRI
  0
TEXT
  8
2
  6
CONTINUOUS
 10
59.670803
 20
53.189338
 40
0.200000
 50
276.687988
  1
496
  7
TQS_CALIBRI
  0
TEXT
  8
2
  6
CONTINUOUS
 10
61.404374
 20
39.876028
 40
0.200000
 50
6.687988
  1
 
  7
TQS_CALIBRI
  0
TEXT
  8
2
  6
CONTINUOUS
 10
60.646347
 20
39.827416
 40
0.200000
 50
6.687988
  1
(16)
  7
TQS_CALIBRI
  0
TEXT
  8
2
  6
CONTINUOUS
 10
59.858449
 20
55.023674
 40
0.200000
 50
276.687988
  1
2 P7 %%c 8 C/12.5 C=529
  7
TQS_CALIBRI
  0
TEXT
  8
2
  6
CONTINUOUS
 10
60.641317
 20
42.852021
 40
0.200000
 50
276.687988
  1
734
  7
TQS_CALIBRI
  0
TEXT
  8
2
  6
CONTINUOUS
 10
61.870491
 20
35.203124
 40
0.200000
 50
276.687988
  1
13
  7
TQS_CALIBRI
  0
TEXT
  8
2
  6
CONTINUOUS
 10
62.140014
 20
35.738154
 40
0.200000
 50
276.687988
  1
20
  7
TQS_CALIBRI
  0
TEXT
  8
2
  6
CONTINUOUS
 10
60.564842
 20
47.035584
 40
0.200000
 50
6.687988
  1
 
  7
TQS_CALIBRI
  0
TEXT
  8
2
  6
CONTINUOUS
 10
59.806816
 20
46.986972
 40
0.200000
 50
6.687988
  1
(16)
  7
TQS_CALIBRI
  0
TEXT
  8
2
  6
CONTINUOUS
 10
60.817316
 20
44.785677
 40
0.200000
 50
276.687988
  1
2 P21 %%c 8 C/12.5 C=767
  7
TQS_CALIBRI
  0
TEXT
  8
2
  6
CONTINUOUS
 10
48.938737
 20
57.949227
 40
0.200000
 50
276.687988
  1
13
  7
TQS_CALIBRI
  0
TEXT
  8
2
  6
CONTINUOUS
 10
49.356093
 20
51.556472
 40
0.200000
 50
276.687988
  1
620
  7
TQS_CALIBRI
  0
TEXT
  8
2
  6
CONTINUOUS
 10
37.953162
 20
19.470253
 40
0.200000
 50
6.687988
  1
 
  7
TQS_CALIBRI
  0
TEXT
  8
2
  6
CONTINUOUS
 10
61.466842
 20
22.267752
 40
0.200000
 50
6.687988
  1
(2500)
  7
TQS_CALIBRI
  0
TEXT
  8
2
  6
CONTINUOUS
 10
49.520446
 20
53.589447
 40
0.200000
 50
276.687988
  1
168 P4 %%c 6.3 C/15 C=633
  7
TQS_CALIBRI
  0
TEXT
  8
2
  6
CONTINUOUS
 10
53.077478
 20
19.133518
 40
0.200000
 50
276.687988
  1
620
  7
TQS_CALIBRI
  0
TEXT
  8
2
  6
CONTINUOUS
 10
54.173635
 20
12.618988
 40
0.200000
 50
276.687988
  1
13
  7
TQS_CALIBRI
  0
TEXT
  8
2
  6
CONTINUOUS
 10
54.443158
 20
13.154019
 40
0.200000
 50
276.687988
  1
20
  7
TQS_CALIBRI
  0
TEXT
  8
2
  6
CONTINUOUS
 10
37.792108
 20
20.843699
 40
0.200000
 50
6.687988
  1
 
  7
TQS_CALIBRI
  0
TEXT
  8
2
  6
CONTINUOUS
 10
61.305788
 20
23.641198
 40
0.200000
 50
6.687988
  1
(2500)
  7
TQS_CALIBRI
  0
TEXT
  8
2
  6
CONTINUOUS
 10
53.230184
 20
21.265813
 40
0.200000
 50
276.687988
  1
168 P23 %%c 6.3 C/15 C=653
  7
TQS_CALIBRI
  0
TEXT
  8
2
  6
CONTINUOUS
 10
35.500233
 20
40.388927
 40
0.200000
 50
6.687988
  1
 
  7
TQS_CALIBRI
  0
TEXT
  8
2
  6
CONTINUOUS
 10
59.013913
 20
43.186427
 40
0.200000
 50
6.687988
  1
(2500)
  7
TQS_CALIBRI
  0
TEXT
  8
2
  6
CONTINUOUS
 10
51.318126
 20
37.571951
 40
0.200000
 50
276.687988
  1
168 P18 %%c 6.3 C/15 C=1180
  7
TQS_CALIBRI
  0
TEXT
  8
2
  6
CONTINUOUS
 10
9.023160
 20
52.606692
 40
0.200000
 50
276.687988
  1
20
  7
TQS_CALIBRI
  0
TEXT
  8
2
  6
CONTINUOUS
 10
8.637174
 20
53.064857
 40
0.200000
 50
276.687988
  1
13
  7
TQS_CALIBRI
  0
TEXT
  8
2
  6
CONTINUOUS
 10
10.901853
 20
30.918098
 40
0.200000
 50
276.687988
  1
VAR
  7
TQS_CALIBRI
  0
TEXT
  8
2
  6
CONTINUOUS
 10
13.845332
 20
8.649566
 40
0.200000
 50
276.687988
  1
13
  7
TQS_CALIBRI
  0
TEXT
  8
2
  6
CONTINUOUS
 10
14.114855
 20
9.184596
 40
0.200000
 50
276.687988
  1
20
  7
TQS_CALIBRI
  0
TEXT
  8
2
  6
CONTINUOUS
 10
12.557450
 20
17.544023
 40
0.200000
 50
6.687988
  1
 
  7
TQS_CALIBRI
  0
TEXT
  8
2
  6
CONTINUOUS
 10
11.787284
 20
17.493987
 40
0.200000
 50
6.687988
  1
(15)
  7
TQS_CALIBRI
  0
TEXT
  8
2
  6
CONTINUOUS
 10
11.077852
 20
32.851754
 40
0.200000
 50
276.687988
  1
2 P14 %%c 6.3 C/15 C=VAR
  7
TQS_CALIBRI
  0
TEXT
  8
2
  6
CONTINUOUS
 10
8.512262
 20
41.619174
 40
0.200000
 50
6.688000
  1
14
  7
TQS_CALIBRI
  0
TEXT
  8
2
  6
CONTINUOUS
 10
17.649526
 20
42.348287
 40
0.200000
 50
6.688000
  1
896
  7
TQS_CALIBRI
  0
TEXT
  8
2
  6
CONTINUOUS
 10
12.641798
 20
41.984599
 40
0.200000
 50
276.688000
  1
 
  7
TQS_CALIBRI
  0
TEXT
  8
2
  6
CONTINUOUS
 10
12.609318
 20
42.605040
 40
0.200000
 50
276.688000
  1
(30)
  7
TQS_CALIBRI
  0
TEXT
  8
2
  6
CONTINUOUS
 10
15.715871
 20
42.524285
 40
0.200000
 50
6.688000
  1
2 P15 %%c 6.3 C/15 C=910
  7
TQS_CALIBRI
  0
TEXT
  8
2
  6
CONTINUOUS
 10
29.335489
 20
43.942146
 40
0.200000
 50
276.688000
  1
 
  7
TQS_CALIBRI
  0
TEXT
  8
2
  6
CONTINUOUS
 10
29.303010
 20
44.562586
 40
0.200000
 50
276.688000
  1
(30)
  7
TQS_CALIBRI
  0
TEXT
  8
2
  6
CONTINUOUS
 10
33.664026
 20
44.636990
 40
0.200000
 50
6.688000
  1
2 P17 %%c 5 C/20 C=1090
  7
TQS_CALIBRI
  0
TEXT
  8
2
  6
CONTINUOUS
 10
52.491813
 20
46.450061
 40
0.200000
 50
6.688000
  1
831
  7
TQS_CALIBRI
  0
TEXT
  8
2
  6
CONTINUOUS
 10
61.102944
 20
47.802138
 40
0.200000
 50
6.688000
  1
14
  7
TQS_CALIBRI
  0
TEXT
  8
2
  6
CONTINUOUS
 10
47.873302
 20
46.115904
 40
0.200000
 50
276.688000
  1
 
  7
TQS_CALIBRI
  0
TEXT
  8
2
  6
CONTINUOUS
 10
47.840822
 20
46.736344
 40
0.200000
 50
276.688000
  1
(30)
  7
TQS_CALIBRI
  0
TEXT
  8
2
  6
CONTINUOUS
 10
50.756796
 20
46.649353
 40
0.200000
 50
6.688000
  1
2 P19 %%c 5 C/20 C=845
  7
TQS_CALIBRI
  0
TEXT
  8
2
  6
CONTINUOUS
 10
13.898440
 20
9.039682
 40
0.200000
 50
6.688000
  1
20
  7
TQS_CALIBRI
  0
TEXT
  8
2
  6
CONTINUOUS
 10
13.441440
 20
8.643764
 40
0.200000
 50
6.688000
  1
14
  7
TQS_CALIBRI
  0
TEXT
  8
2
  6
CONTINUOUS
 10
21.457129
 20
9.241360
 40
0.200000
 50
6.688000
  1
783
  7
TQS_CALIBRI
  0
TEXT
  8
2
  6
CONTINUOUS
 10
24.058543
 20
9.671959
 40
0.200000
 50
276.688000
  1
 
  7
TQS_CALIBRI
  0
TEXT
  8
2
  6
CONTINUOUS
 10
24.017131
 20
10.368580
 40
0.200000
 50
276.688000
  1
(22)
  7
TQS_CALIBRI
  0
TEXT
  8
2
  6
CONTINUOUS
 10
19.622793
 20
9.429005
 40
0.200000
 50
6.688000
  1
2 P22 %%c 10 C/15 C=817
  7
TQS_CALIBRI
  0
TEXT
  8
2
  6
CONTINUOUS
 10
56.127972
 20
12.904145
 40
0.200000
 50
6.688000
  1
783
  7
TQS_CALIBRI
  0
TEXT
  8
2
  6
CONTINUOUS
 10
64.263106
 20
14.200406
 40
0.200000
 50
6.688000
  1
14
  7
TQS_CALIBRI
  0
TEXT
  8
2
  6
CONTINUOUS
 10
51.757938
 20
12.920009
 40
0.200000
 50
276.688000
  1
 
  7
TQS_CALIBRI
  0
TEXT
  8
2
  6
CONTINUOUS
 10
51.716526
 20
13.616630
 40
0.200000
 50
276.688000
  1
(22)
  7
TQS_CALIBRI
  0
TEXT
  8
2
  6
CONTINUOUS
 10
54.293636
 20
13.091790
 40
0.200000
 50
6.688000
  1
2 P24 %%c 10 C/15 C=797
  7
TQS_CALIBRI
  0
TEXT
  8
2
  6
CONTINUOUS
 10
32.080457
 20
10.612616
 40
0.200000
 50
276.688000
  1
 
  7
TQS_CALIBRI
  0
TEXT
  8
2
  6
CONTINUOUS
 10
32.039045
 20
11.309237
 40
0.200000
 50
276.688000
  1
(22)
  7
TQS_CALIBRI
  0
TEXT
  8
2
  6
CONTINUOUS
 10
37.018778
 20
10.743936
 40
0.200000
 50
6.688000
  1
2 P3 %%c 10 C/15 C=1180
  7
TQS_CALIBRI
  0
TEXT
  8
2
  6
CONTINUOUS
 10
9.832170
 20
34.942552
 40
0.200000
 50
6.688000
  1
20
  7
TQS_CALIBRI
  0
TEXT
  8
2
  6
CONTINUOUS
 10
9.375170
 20
34.546634
 40
0.200000
 50
6.688000
  1
14
  7
TQS_CALIBRI
  0
TEXT
  8
2
  6
CONTINUOUS
 10
17.841110
 20
35.197026
 40
0.200000
 50
6.688000
  1
828
  7
TQS_CALIBRI
  0
TEXT
  8
2
  6
CONTINUOUS
 10
21.408647
 20
26.298188
 40
0.200000
 50
276.688000
  1
 
  7
TQS_CALIBRI
  0
TEXT
  8
2
  6
CONTINUOUS
 10
23.193065
 20
11.424114
 40
0.200000
 50
276.688000
  1
(1630)
  7
TQS_CALIBRI
  0
TEXT
  8
2
  6
CONTINUOUS
 10
15.808135
 20
35.361379
 40
0.200000
 50
6.688000
  1
110 P16 %%c 10 C/15 C=862
  7
TQS_CALIBRI
  0
TEXT
  8
2
  6
CONTINUOUS
 10
53.393807
 20
39.124316
 40
0.200000
 50
6.688000
  1
828
  7
TQS_CALIBRI
  0
TEXT
  8
2
  6
CONTINUOUS
 10
61.979191
 20
40.473374
 40
0.200000
 50
6.688000
  1
14
  7
TQS_CALIBRI
  0
TEXT
  8
2
  6
CONTINUOUS
 10
49.864507
 20
29.634941
 40
0.200000
 50
276.688000
  1
 
  7
TQS_CALIBRI
  0
TEXT
  8
2
  6
CONTINUOUS
 10
51.648925
 20
14.760867
 40
0.200000
 50
276.688000
  1
(1630)
  7
TQS_CALIBRI
  0
TEXT
  8
2
  6
CONTINUOUS
 10
51.360832
 20
39.288669
 40
0.200000
 50
6.688000
  1
110 P20 %%c 10 C/15 C=842
  7
TQS_CALIBRI
  0
TEXT
  8
2
  6
CONTINUOUS
 10
30.006929
 20
27.306428
 40
0.200000
 50
276.688000
  1
 
  7
TQS_CALIBRI
  0
TEXT
  8
2
  6
CONTINUOUS
 10
31.791347
 20
12.432354
 40
0.200000
 50
276.688000
  1
(1630)
  7
TQS_CALIBRI
  0
TEXT
  8
2
  6
CONTINUOUS
 10
33.617089
 20
37.046929
 40
0.200000
 50
6.688000
  1
110 P3 %%c 10 C/15 C=1180
  7
TQS_CALIBRI
  0
TEXT
  8
2
  6
CONTINUOUS
 10
8.062649
 20
49.443959
 40
0.200000
 50
6.688000
  1
20
  7
TQS_CALIBRI
  0
TEXT
  8
2
  6
CONTINUOUS
 10
7.605649
 20
49.048041
 40
0.200000
 50
6.688000
  1
14
  7
TQS_CALIBRI
  0
TEXT
  8
2
  6
CONTINUOUS
 10
16.138321
 20
49.706259
 40
0.200000
 50
6.688000
  1
835
  7
TQS_CALIBRI
  0
TEXT
  8
2
  6
CONTINUOUS
 10
18.919161
 20
47.629028
 40
0.200000
 50
276.688000
  1
 
  7
TQS_CALIBRI
  0
TEXT
  8
2
  6
CONTINUOUS
 10
19.361260
 20
44.202260
 40
0.200000
 50
276.688000
  1
(457)
  7
TQS_CALIBRI
  0
TEXT
  8
2
  6
CONTINUOUS
 10
14.303985
 20
49.893904
 40
0.200000
 50
6.688000
  1
31 P1 %%c 10 C/15 C=869
  7
TQS_CALIBRI
  0
TEXT
  8
2
  6
CONTINUOUS
 10
51.796544
 20
53.887567
 40
0.200000
 50
6.688000
  1
835
  7
TQS_CALIBRI
  0
TEXT
  8
2
  6
CONTINUOUS
 10
60.448661
 20
55.244450
 40
0.200000
 50
6.688000
  1
14
  7
TQS_CALIBRI
  0
TEXT
  8
2
  6
CONTINUOUS
 10
47.455431
 20
50.975210
 40
0.200000
 50
276.688000
  1
 
  7
TQS_CALIBRI
  0
TEXT
  8
2
  6
CONTINUOUS
 10
47.897530
 20
47.548442
 40
0.200000
 50
276.688000
  1
(457)
  7
TQS_CALIBRI
  0
TEXT
  8
2
  6
CONTINUOUS
 10
49.962208
 20
54.075213
 40
0.200000
 50
6.688000
  1
31 P6 %%c 10 C/15 C=849
  7
TQS_CALIBRI
  0
TEXT
  8
2
  6
CONTINUOUS
 10
27.571153
 20
48.643569
 40
0.200000
 50
276.688000
  1
 
  7
TQS_CALIBRI
  0
TEXT
  8
2
  6
CONTINUOUS
 10
28.013253
 20
45.216799
 40
0.200000
 50
276.688000
  1
(457)
  7
TQS_CALIBRI
  0
TEXT
  8
2
  6
CONTINUOUS
 10
32.024462
 20
52.052366
 40
0.200000
 50
6.688000
  1
31 P3 %%c 10 C/15 C=1180
  7
TQS_CALIBRI
  0
TEXT
  8
2
  6
CONTINUOUS
 10
8.629485
 20
52.228886
 40
0.200000
 50
6.688000
  1
20
  7
TQS_CALIBRI
  0
TEXT
  8
2
  6
CONTINUOUS
 10
8.172485
 20
51.832968
 40
0.200000
 50
6.688000
  1
14
  7
TQS_CALIBRI
  0
TEXT
  8
2
  6
CONTINUOUS
 10
16.487738
 20
52.465691
 40
0.200000
 50
6.688000
  1
813
  7
TQS_CALIBRI
  0
TEXT
  8
2
  6
CONTINUOUS
 10
19.033497
 20
52.852819
 40
0.200000
 50
276.688000
  1
 
  7
TQS_CALIBRI
  0
TEXT
  8
2
  6
CONTINUOUS
 10
19.001018
 20
53.473263
 40
0.200000
 50
276.688000
  1
(30)
  7
TQS_CALIBRI
  0
TEXT
  8
2
  6
CONTINUOUS
 10
14.752722
 20
52.664982
 40
0.200000
 50
6.688000
  1
2 P2 %%c 10 C/15 C=847
  7
TQS_CALIBRI
  0
TEXT
  8
2
  6
CONTINUOUS
 10
51.692483
 20
56.754920
 40
0.200000
 50
6.688000
  1
813
  7
TQS_CALIBRI
  0
TEXT
  8
2
  6
CONTINUOUS
 10
60.127181
 20
58.086307
 40
0.200000
 50
6.688000
  1
14
  7
TQS_CALIBRI
  0
TEXT
  8
2
  6
CONTINUOUS
 10
47.212208
 20
56.157074
 40
0.200000
 50
276.688000
  1
 
  7
TQS_CALIBRI
  0
TEXT
  8
2
  6
CONTINUOUS
 10
47.179729
 20
56.777516
 40
0.200000
 50
276.688000
  1
(30)
  7
TQS_CALIBRI
  0
TEXT
  8
2
  6
CONTINUOUS
 10
49.957467
 20
56.954211
 40
0.200000
 50
6.688000
  1
2 P5 %%c 10 C/15 C=827
  7
TQS_CALIBRI
  0
TEXT
  8
2
  6
CONTINUOUS
 10
27.414903
 20
53.835629
 40
0.200000
 50
276.688000
  1
 
  7
TQS_CALIBRI
  0
TEXT
  8
2
  6
CONTINUOUS
 10
27.382424
 20
54.456070
 40
0.200000
 50
276.688000
  1
(30)
  7
TQS_CALIBRI
  0
TEXT
  8
2
  6
CONTINUOUS
 10
32.218506
 20
55.115770
 40
0.200000
 50
6.688000
  1
2 P3 %%c 10 C/15 C=1180
  7
TQS_CALIBRI
  0
TEXT
  8
1
  6
CONTINUOUS
 10
101.932386
 20
23.396411
 40
0.350000
  1
NOTAS:
  7
TQS_CALIBRI
  0
TEXT
  8
2
  6
CONTINUOUS
 10
101.965840
 20
22.812661
 40
0.240000
  1
1) CONFERIR INFORMAÇÕES DA TABELA ACIMA (TABELA DE FERRERAGEM) NA OBRA
  7
TQS_CALIBRI
  0
TEXT
  8
2
  6
CONTINUOUS
 10
101.965840
 20
22.343353
 40
0.240000
  1
ANTES DA COMPRA DAS ARMADURAS.
  7
TQS_CALIBRI
  0
TEXT
  8
2
  6
CONTINUOUS
 10
114.389469
 20
82.158751
 40
0.250000
  1
COMPRIMENTO
  7
TQS_CALIBRI
  0
TEXT
  8
2
  6
CONTINUOUS
 10
115.959307
 20
81.721251
 40
0.250000
  1
TOTAL
  7
TQS_CALIBRI
  0
TEXT
  8
2
  6
CONTINUOUS
 10
114.486854
 20
81.721251
 40
0.250000
  1
UNIT
  7
TQS_CALIBRI
  0
TEXT
  8
2
  6
CONTINUOUS
 10
109.830000
 20
82.158751
 40
0.250000
  1
POS
  7
TQS_CALIBRI
  0
TEXT
  8
2
  6
CONTINUOUS
 10
111.440000
 20
82.158751
 40
0.250000
  1
BIT
  7
TQS_CALIBRI
  0
TEXT
  8
2
  6
CONTINUOUS
 10
112.736489
 20
82.158751
 40
0.250000
  1
QUANT
  7
TQS_CALIBRI
  0
TEXT
  8
2
  6
CONTINUOUS
 10
107.949580
 20
82.158751
 40
0.250000
  1
AÇO
  7
TQS_CALIBRI
  0
TEXT
  8
2
  6
CONTINUOUS
 10
111.440000
 20
81.283751
 40
0.200000
  1
mm
  7
TQS_CALIBRI
  0
TEXT
  8
2
  6
CONTINUOUS
 10
114.486854
 20
81.283751
 40
0.200000
  1
cm
  7
TQS_CALIBRI
  0
TEXT
  8
2
  6
CONTINUOUS
 10
116.096854
 20
81.283751
 40
0.200000
  1
cm
  7
TQS_CALIBRI
  0
TEXT
  8
2
  6
CONTINUOUS
 10
106.595798
 20
80.846251
 40
0.250000
  1
02-1Pavto(A e B) - Armadura positiva
  7
TQS_CALIBRI
  0
TEXT
  8
2
  6
CONTINUOUS
 10
107.789661
 20
80.477501
 40
0.200000
  1
     50A
  7
TQS_CALIBRI
  0
TEXT
  8
2
  6
CONTINUOUS
 10
110.030000
 20
80.477501
 40
0.200000
  1
  1
  7
TQS_CALIBRI
  0
TEXT
  8
2
  6
CONTINUOUS
 10
111.036543
 20
80.483545
 40
0.200000
  1
     10
  7
TQS_CALIBRI
  0
TEXT
  8
2
  6
CONTINUOUS
 10
112.820000
 20
80.477501
 40
0.200000
  1
   31
  7
TQS_CALIBRI
  0
TEXT
  8
2
  6
CONTINUOUS
 10
114.030000
 20
80.477501
 40
0.200000
  1
    869
  7
TQS_CALIBRI
  0
TEXT
  8
2
  6
CONTINUOUS
 10
115.863622
 20
80.477501
 40
0.200000
  1
  26939
  7
TQS_CALIBRI
  0
TEXT
  8
2
  6
CONTINUOUS
 10
107.789661
 20
80.127501
 40
0.200000
  1
     50A
  7
TQS_CALIBRI
  0
TEXT
  8
2
  6
CONTINUOUS
 10
110.030000
 20
80.127501
 40
0.200000
  1
  2
  7
TQS_CALIBRI
  0
TEXT
  8
2
  6
CONTINUOUS
 10
111.036543
 20
80.133545
 40
0.200000
  1
     10
  7
TQS_CALIBRI
  0
TEXT
  8
2
  6
CONTINUOUS
 10
112.820000
 20
80.127501
 40
0.200000
  1
    2
  7
TQS_CALIBRI
  0
TEXT
  8
2
  6
CONTINUOUS
 10
114.030000
 20
80.127501
 40
0.200000
  1
    847
  7
TQS_CALIBRI
  0
TEXT
  8
2
  6
CONTINUOUS
 10
115.863622
 20
80.127501
 40
0.200000
  1
   1694
  7
TQS_CALIBRI
  0
TEXT
  8
2
  6
CONTINUOUS
 10
107.789661
 20
79.777501
 40
0.200000
  1
     50A
  7
TQS_CALIBRI
  0
TEXT
  8
2
  6
CONTINUOUS
 10
110.030000
 20
79.777501
 40
0.200000
  1
  3
  7
TQS_CALIBRI
  0
TEXT
  8
2
  6
CONTINUOUS
 10
111.036543
 20
79.783545
 40
0.200000
  1
     10
  7
TQS_CALIBRI
  0
TEXT
  8
2
  6
CONTINUOUS
 10
112.820000
 20
79.777501
 40
0.200000
  1
  145
  7
TQS_CALIBRI
  0
TEXT
  8
2
  6
CONTINUOUS
 10
114.030000
 20
79.777501
 40
0.200000
  1
   1180
  7
TQS_CALIBRI
  0
TEXT
  8
2
  6
CONTINUOUS
 10
115.863622
 20
79.777501
 40
0.200000
  1
 171100
  7
TQS_CALIBRI
  0
TEXT
  8
2
  6
CONTINUOUS
 10
107.789661
 20
79.427501
 40
0.200000
  1
     50A
  7
TQS_CALIBRI
  0
TEXT
  8
2
  6
CONTINUOUS
 10
110.030000
 20
79.427501
 40
0.200000
  1
  4
  7
TQS_CALIBRI
  0
TEXT
  8
2
  6
CONTINUOUS
 10
111.036543
 20
79.433545
 40
0.200000
  1
    6.3
  7
TQS_CALIBRI
  0
TEXT
  8
2
  6
CONTINUOUS
 10
112.820000
 20
79.427501
 40
0.200000
  1
  168
  7
TQS_CALIBRI
  0
TEXT
  8
2
  6
CONTINUOUS
 10
114.030000
 20
79.427501
 40
0.200000
  1
    633
  7
TQS_CALIBRI
  0
TEXT
  8
2
  6
CONTINUOUS
 10
115.863622
 20
79.427501
 40
0.200000
  1
 106344
  7
TQS_CALIBRI
  0
TEXT
  8
2
  6
CONTINUOUS
 10
107.789661
 20
79.077501
 40
0.200000
  1
     50A
  7
TQS_CALIBRI
  0
TEXT
  8
2
  6
CONTINUOUS
 10
110.030000
 20
79.077501
 40
0.200000
  1
  5
  7
TQS_CALIBRI
  0
TEXT
  8
2
  6
CONTINUOUS
 10
111.036543
 20
79.083545
 40
0.200000
  1
     10
  7
TQS_CALIBRI
  0
TEXT
  8
2
  6
CONTINUOUS
 10
112.820000
 20
79.077501
 40
0.200000
  1
    2
  7
TQS_CALIBRI
  0
TEXT
  8
2
  6
CONTINUOUS
 10
114.030000
 20
79.077501
 40
0.200000
  1
    827
  7
TQS_CALIBRI
  0
TEXT
  8
2
  6
CONTINUOUS
 10
115.863622
 20
79.077501
 40
0.200000
  1
   1654
  7
TQS_CALIBRI
  0
TEXT
  8
2
  6
CONTINUOUS
 10
107.789661
 20
78.727501
 40
0.200000
  1
     50A
  7
TQS_CALIBRI
  0
TEXT
  8
2
  6
CONTINUOUS
 10
110.030000
 20
78.727501
 40
0.200000
  1
  6
  7
TQS_CALIBRI
  0
TEXT
  8
2
  6
CONTINUOUS
 10
111.036543
 20
78.733545
 40
0.200000
  1
     10
  7
TQS_CALIBRI
  0
TEXT
  8
2
  6
CONTINUOUS
 10
112.820000
 20
78.727501
 40
0.200000
  1
   31
  7
TQS_CALIBRI
  0
TEXT
  8
2
  6
CONTINUOUS
 10
114.030000
 20
78.727501
 40
0.200000
  1
    849
  7
TQS_CALIBRI
  0
TEXT
  8
2
  6
CONTINUOUS
 10
115.863622
 20
78.727501
 40
0.200000
  1
  26319
  7
TQS_CALIBRI
  0
TEXT
  8
2
  6
CONTINUOUS
 10
107.789661
 20
78.377502
 40
0.200000
  1
     50A
  7
TQS_CALIBRI
  0
TEXT
  8
2
  6
CONTINUOUS
 10
110.030000
 20
78.377502
 40
0.200000
  1
  7
  7
TQS_CALIBRI
  0
TEXT
  8
2
  6
CONTINUOUS
 10
111.036543
 20
78.383545
 40
0.200000
  1
      8
  7
TQS_CALIBRI
  0
TEXT
  8
2
  6
CONTINUOUS
 10
112.820000
 20
78.377502
 40
0.200000
  1
    2
  7
TQS_CALIBRI
  0
TEXT
  8
2
  6
CONTINUOUS
 10
114.030000
 20
78.377502
 40
0.200000
  1
    529
  7
TQS_CALIBRI
  0
TEXT
  8
2
  6
CONTINUOUS
 10
115.863622
 20
78.377502
 40
0.200000
  1
   1058
  7
TQS_CALIBRI
  0
TEXT
  8
2
  6
CONTINUOUS
 10
107.789661
 20
78.027502
 40
0.200000
  1
     50A
  7
TQS_CALIBRI
  0
TEXT
  8
2
  6
CONTINUOUS
 10
110.030000
 20
78.027502
 40
0.200000
  1
  8
  7
TQS_CALIBRI
  0
TEXT
  8
2
  6
CONTINUOUS
 10
111.036543
 20
78.033546
 40
0.200000
  1
    6.3
  7
TQS_CALIBRI
  0
TEXT
  8
2
  6
CONTINUOUS
 10
112.820000
 20
78.027502
 40
0.200000
  1
    4
  7
TQS_CALIBRI
  0
TEXT
  8
2
  6
CONTINUOUS
 10
114.030000
 20
78.027502
 40
0.200000
  1
    652
  7
TQS_CALIBRI
  0
TEXT
  8
2
  6
CONTINUOUS
 10
115.863622
 20
78.027502
 40
0.200000
  1
   2608
  7
TQS_CALIBRI
  0
TEXT
  8
2
  6
CONTINUOUS
 10
107.789661
 20
77.677502
 40
0.200000
  1
     50A
  7
TQS_CALIBRI
  0
TEXT
  8
2
  6
CONTINUOUS
 10
110.030000
 20
77.677502
 40
0.200000
  1
  9
  7
TQS_CALIBRI
  0
TEXT
  8
2
  6
CONTINUOUS
 10
111.036543
 20
77.683546
 40
0.200000
  1
      8
  7
TQS_CALIBRI
  0
TEXT
  8
2
  6
CONTINUOUS
 10
112.820000
 20
77.677502
 40
0.200000
  1
    1
  7
TQS_CALIBRI
  0
TEXT
  8
2
  6
CONTINUOUS
 10
114.030000
 20
77.677502
 40
0.200000
  1
    480
  7
TQS_CALIBRI
  0
TEXT
  8
2
  6
CONTINUOUS
 10
115.863622
 20
77.677502
 40
0.200000
  1
    480
  7
TQS_CALIBRI
  0
TEXT
  8
2
  6
CONTINUOUS
 10
107.789661
 20
77.327502
 40
0.200000
  1
     50A
  7
TQS_CALIBRI
  0
TEXT
  8
2
  6
CONTINUOUS
 10
110.030000
 20
77.327502
 40
0.200000
  1
 10
  7
TQS_CALIBRI
  0
TEXT
  8
2
  6
CONTINUOUS
 10
111.036543
 20
77.333546
 40
0.200000
  1
      8
  7
TQS_CALIBRI
  0
TEXT
  8
2
  6
CONTINUOUS
 10
112.820000
 20
77.327502
 40
0.200000
  1
  175
  7
TQS_CALIBRI
  0
TEXT
  8
2
  6
CONTINUOUS
 10
114.030000
 20
77.327502
 40
0.200000
  1
    525
  7
TQS_CALIBRI
  0
TEXT
  8
2
  6
CONTINUOUS
 10
115.863622
 20
77.327502
 40
0.200000
  1
  91875
  7
TQS_CALIBRI
  0
TEXT
  8
2
  6
CONTINUOUS
 10
107.789661
 20
76.977502
 40
0.200000
  1
     50A
  7
TQS_CALIBRI
  0
TEXT
  8
2
  6
CONTINUOUS
 10
110.030000
 20
76.977502
 40
0.200000
  1
 11
  7
TQS_CALIBRI
  0
TEXT
  8
2
  6
CONTINUOUS
 10
111.036543
 20
76.983546
 40
0.200000
  1
      8
  7
TQS_CALIBRI
  0
TEXT
  8
2
  6
CONTINUOUS
 10
112.820000
 20
76.977502
 40
0.200000
  1
  179
  7
TQS_CALIBRI
  0
TEXT
  8
2
  6
CONTINUOUS
 10
114.030000
 20
76.977502
 40
0.200000
  1
   1180
  7
TQS_CALIBRI
  0
TEXT
  8
2
  6
CONTINUOUS
 10
115.863622
 20
76.977502
 40
0.200000
  1
 211220
  7
TQS_CALIBRI
  0
TEXT
  8
2
  6
CONTINUOUS
 10
107.789661
 20
76.627502
 40
0.200000
  1
     50A
  7
TQS_CALIBRI
  0
TEXT
  8
2
  6
CONTINUOUS
 10
110.030000
 20
76.627502
 40
0.200000
  1
 12
  7
TQS_CALIBRI
  0
TEXT
  8
2
  6
CONTINUOUS
 10
111.036543
 20
76.633546
 40
0.200000
  1
    6.3
  7
TQS_CALIBRI
  0
TEXT
  8
2
  6
CONTINUOUS
 10
112.820000
 20
76.627502
 40
0.200000
  1
  194
  7
TQS_CALIBRI
  0
TEXT
  8
2
  6
CONTINUOUS
 10
114.030000
 20
76.627502
 40
0.200000
  1
    674
  7
TQS_CALIBRI
  0
TEXT
  8
2
  6
CONTINUOUS
 10
115.863622
 20
76.627502
 40
0.200000
  1
 130756
  7
TQS_CALIBRI
  0
TEXT
  8
2
  6
CONTINUOUS
 10
107.789661
 20
76.277502
 40
0.200000
  1
     50A
  7
TQS_CALIBRI
  0
TEXT
  8
2
  6
CONTINUOUS
 10
110.030000
 20
76.277502
 40
0.200000
  1
 13
  7
TQS_CALIBRI
  0
TEXT
  8
2
  6
CONTINUOUS
 10
111.036543
 20
76.283546
 40
0.200000
  1
    6.3
  7
TQS_CALIBRI
  0
TEXT
  8
2
  6
CONTINUOUS
 10
112.820000
 20
76.277502
 40
0.200000
  1
    4
  7
TQS_CALIBRI
  0
TEXT
  8
2
  6
CONTINUOUS
 10
114.030000
 20
76.277502
 40
0.200000
  1
    648
  7
TQS_CALIBRI
  0
TEXT
  8
2
  6
CONTINUOUS
 10
115.863622
 20
76.277502
 40
0.200000
  1
   2592
  7
TQS_CALIBRI
  0
TEXT
  8
2
  6
CONTINUOUS
 10
107.789661
 20
75.927502
 40
0.200000
  1
     50A
  7
TQS_CALIBRI
  0
TEXT
  8
2
  6
CONTINUOUS
 10
110.030000
 20
75.927502
 40
0.200000
  1
 14
  7
TQS_CALIBRI
  0
TEXT
  8
2
  6
CONTINUOUS
 10
111.036543
 20
75.933546
 40
0.200000
  1
    6.3
  7
TQS_CALIBRI
  0
TEXT
  8
2
  6
CONTINUOUS
 10
112.820000
 20
75.927502
 40
0.200000
  1
    2
  7
TQS_CALIBRI
  0
TEXT
  8
2
  6
CONTINUOUS
 10
114.030000
 20
75.927502
 40
0.200000
  1
 --VAR-
  7
TQS_CALIBRI
  0
TEXT
  8
2
  6
CONTINUOUS
 10
115.863622
 20
75.927502
 40
0.200000
  1
   4470
  7
TQS_CALIBRI
  0
TEXT
  8
2
  6
CONTINUOUS
 10
107.789661
 20
75.577502
 40
0.200000
  1
     50A
  7
TQS_CALIBRI
  0
TEXT
  8
2
  6
CONTINUOUS
 10
110.030000
 20
75.577502
 40
0.200000
  1
 15
  7
TQS_CALIBRI
  0
TEXT
  8
2
  6
CONTINUOUS
 10
111.036543
 20
75.583546
 40
0.200000
  1
    6.3
  7
TQS_CALIBRI
  0
TEXT
  8
2
  6
CONTINUOUS
 10
112.820000
 20
75.577502
 40
0.200000
  1
    2
  7
TQS_CALIBRI
  0
TEXT
  8
2
  6
CONTINUOUS
 10
114.030000
 20
75.577502
 40
0.200000
  1
    910
  7
TQS_CALIBRI
  0
TEXT
  8
2
  6
CONTINUOUS
 10
115.863622
 20
75.577502
 40
0.200000
  1
   1820
  7
TQS_CALIBRI
  0
TEXT
  8
2
  6
CONTINUOUS
 10
107.789661
 20
75.227502
 40
0.200000
  1
     50A
  7
TQS_CALIBRI
  0
TEXT
  8
2
  6
CONTINUOUS
 10
110.030000
 20
75.227502
 40
0.200000
  1
 16
  7
TQS_CALIBRI
  0
TEXT
  8
2
  6
CONTINUOUS
 10
111.036543
 20
75.233546
 40
0.200000
  1
     10
  7
TQS_CALIBRI
  0
TEXT
  8
2
  6
CONTINUOUS
 10
112.820000
 20
75.227502
 40
0.200000
  1
  110
  7
TQS_CALIBRI
  0
TEXT
  8
2
  6
CONTINUOUS
 10
114.030000
 20
75.227502
 40
0.200000
  1
    862
  7
TQS_CALIBRI
  0
TEXT
  8
2
  6
CONTINUOUS
 10
115.863622
 20
75.227502
 40
0.200000
  1
  94820
  7
TQS_CALIBRI
  0
TEXT
  8
2
  6
CONTINUOUS
 10
107.789661
 20
74.877502
 40
0.200000
  1
     60A
  7
TQS_CALIBRI
  0
TEXT
  8
2
  6
CONTINUOUS
 10
110.030000
 20
74.877502
 40
0.200000
  1
 17
  7
TQS_CALIBRI
  0
TEXT
  8
2
  6
CONTINUOUS
 10
111.036543
 20
74.883546
 40
0.200000
  1
      5
  7
TQS_CALIBRI
  0
TEXT
  8
2
  6
CONTINUOUS
 10
112.820000
 20
74.877502
 40
0.200000
  1
    2
  7
TQS_CALIBRI
  0
TEXT
  8
2
  6
CONTINUOUS
 10
114.030000
 20
74.877502
 40
0.200000
  1
   1090
  7
TQS_CALIBRI
  0
TEXT
  8
2
  6
CONTINUOUS
 10
115.863622
 20
74.877502
 40
0.200000
  1
   2180
  7
TQS_CALIBRI
  0
TEXT
  8
2
  6
CONTINUOUS
 10
107.789661
 20
74.527503
 40
0.200000
  1
     50A
  7
TQS_CALIBRI
  0
TEXT
  8
2
  6
CONTINUOUS
 10
110.030000
 20
74.527503
 40
0.200000
  1
 18
  7
TQS_CALIBRI
  0
TEXT
  8
2
  6
CONTINUOUS
 10
111.036543
 20
74.533546
 40
0.200000
  1
    6.3
  7
TQS_CALIBRI
  0
TEXT
  8
2
  6
CONTINUOUS
 10
112.820000
 20
74.527503
 40
0.200000
  1
  269
  7
TQS_CALIBRI
  0
TEXT
  8
2
  6
CONTINUOUS
 10
114.030000
 20
74.527503
 40
0.200000
  1
   1180
  7
TQS_CALIBRI
  0
TEXT
  8
2
  6
CONTINUOUS
 10
115.863622
 20
74.527503
 40
0.200000
  1
 317420
  7
TQS_CALIBRI
  0
TEXT
  8
2
  6
CONTINUOUS
 10
107.789661
 20
74.177503
 40
0.200000
  1
     60A
  7
TQS_CALIBRI
  0
TEXT
  8
2
  6
CONTINUOUS
 10
110.030000
 20
74.177503
 40
0.200000
  1
 19
  7
TQS_CALIBRI
  0
TEXT
  8
2
  6
CONTINUOUS
 10
111.036543
 20
74.183547
 40
0.200000
  1
      5
  7
TQS_CALIBRI
  0
TEXT
  8
2
  6
CONTINUOUS
 10
112.820000
 20
74.177503
 40
0.200000
  1
    2
  7
TQS_CALIBRI
  0
TEXT
  8
2
  6
CONTINUOUS
 10
114.030000
 20
74.177503
 40
0.200000
  1
    845
  7
TQS_CALIBRI
  0
TEXT
  8
2
  6
CONTINUOUS
 10
115.863622
 20
74.177503
 40
0.200000
  1
   1690
  7
TQS_CALIBRI
  0
TEXT
  8
2
  6
CONTINUOUS
 10
107.789661
 20
73.827503
 40
0.200000
  1
     50A
  7
TQS_CALIBRI
  0
TEXT
  8
2
  6
CONTINUOUS
 10
110.030000
 20
73.827503
 40
0.200000
  1
 20
  7
TQS_CALIBRI
  0
TEXT
  8
2
  6
CONTINUOUS
 10
111.036543
 20
73.833547
 40
0.200000
  1
     10
  7
TQS_CALIBRI
  0
TEXT
  8
2
  6
CONTINUOUS
 10
112.820000
 20
73.827503
 40
0.200000
  1
  110
  7
TQS_CALIBRI
  0
TEXT
  8
2
  6
CONTINUOUS
 10
114.030000
 20
73.827503
 40
0.200000
  1
    842
  7
TQS_CALIBRI
  0
TEXT
  8
2
  6
CONTINUOUS
 10
115.863622
 20
73.827503
 40
0.200000
  1
  92620
  7
TQS_CALIBRI
  0
TEXT
  8
2
  6
CONTINUOUS
 10
107.789661
 20
73.477503
 40
0.200000
  1
     50A
  7
TQS_CALIBRI
  0
TEXT
  8
2
  6
CONTINUOUS
 10
110.030000
 20
73.477503
 40
0.200000
  1
 21
  7
TQS_CALIBRI
  0
TEXT
  8
2
  6
CONTINUOUS
 10
111.036543
 20
73.483547
 40
0.200000
  1
      8
  7
TQS_CALIBRI
  0
TEXT
  8
2
  6
CONTINUOUS
 10
112.820000
 20
73.477503
 40
0.200000
  1
    2
  7
TQS_CALIBRI
  0
TEXT
  8
2
  6
CONTINUOUS
 10
114.030000
 20
73.477503
 40
0.200000
  1
    767
  7
TQS_CALIBRI
  0
TEXT
  8
2
  6
CONTINUOUS
 10
115.863622
 20
73.477503
 40
0.200000
  1
   1534
  7
TQS_CALIBRI
  0
TEXT
  8
2
  6
CONTINUOUS
 10
107.789661
 20
73.127503
 40
0.200000
  1
     50A
  7
TQS_CALIBRI
  0
TEXT
  8
2
  6
CONTINUOUS
 10
110.030000
 20
73.127503
 40
0.200000
  1
 22
  7
TQS_CALIBRI
  0
TEXT
  8
2
  6
CONTINUOUS
 10
111.036543
 20
73.133547
 40
0.200000
  1
     10
  7
TQS_CALIBRI
  0
TEXT
  8
2
  6
CONTINUOUS
 10
112.820000
 20
73.127503
 40
0.200000
  1
    2
  7
TQS_CALIBRI
  0
TEXT
  8
2
  6
CONTINUOUS
 10
114.030000
 20
73.127503
 40
0.200000
  1
    817
  7
TQS_CALIBRI
  0
TEXT
  8
2
  6
CONTINUOUS
 10
115.863622
 20
73.127503
 40
0.200000
  1
   1634
  7
TQS_CALIBRI
  0
TEXT
  8
2
  6
CONTINUOUS
 10
107.789661
 20
72.777503
 40
0.200000
  1
     50A
  7
TQS_CALIBRI
  0
TEXT
  8
2
  6
CONTINUOUS
 10
110.030000
 20
72.777503
 40
0.200000
  1
 23
  7
TQS_CALIBRI
  0
TEXT
  8
2
  6
CONTINUOUS
 10
111.036543
 20
72.783547
 40
0.200000
  1
    6.3
  7
TQS_CALIBRI
  0
TEXT
  8
2
  6
CONTINUOUS
 10
112.820000
 20
72.777503
 40
0.200000
  1
  168
  7
TQS_CALIBRI
  0
TEXT
  8
2
  6
CONTINUOUS
 10
114.030000
 20
72.777503
 40
0.200000
  1
    653
  7
TQS_CALIBRI
  0
TEXT
  8
2
  6
CONTINUOUS
 10
115.863622
 20
72.777503
 40
0.200000
  1
 109704
  7
TQS_CALIBRI
  0
TEXT
  8
2
  6
CONTINUOUS
 10
107.789661
 20
72.427503
 40
0.200000
  1
     50A
  7
TQS_CALIBRI
  0
TEXT
  8
2
  6
CONTINUOUS
 10
110.030000
 20
72.427503
 40
0.200000
  1
 24
  7
TQS_CALIBRI
  0
TEXT
  8
2
  6
CONTINUOUS
 10
111.036543
 20
72.433547
 40
0.200000
  1
     10
  7
TQS_CALIBRI
  0
TEXT
  8
2
  6
CONTINUOUS
 10
112.820000
 20
72.427503
 40
0.200000
  1
    2
  7
TQS_CALIBRI
  0
TEXT
  8
2
  6
CONTINUOUS
 10
114.030000
 20
72.427503
 40
0.200000
  1
    797
  7
TQS_CALIBRI
  0
TEXT
  8
2
  6
CONTINUOUS
 10
115.863622
 20
72.427503
 40
0.200000
  1
   1594
  7
TQS_CALIBRI
  0
TEXT
  8
2
  6
CONTINUOUS
 10
107.789661
 20
72.077503
 40
0.200000
  1
     50A
  7
TQS_CALIBRI
  0
TEXT
  8
2
  6
CONTINUOUS
 10
110.030000
 20
72.077503
 40
0.200000
  1
 25
  7
TQS_CALIBRI
  0
TEXT
  8
2
  6
CONTINUOUS
 10
111.036543
 20
72.083547
 40
0.200000
  1
      8
  7
TQS_CALIBRI
  0
TEXT
  8
2
  6
CONTINUOUS
 10
112.820000
 20
72.077503
 40
0.200000
  1
    2
  7
TQS_CALIBRI
  0
TEXT
  8
2
  6
CONTINUOUS
 10
114.030000
 20
72.077503
 40
0.200000
  1
    635
  7
TQS_CALIBRI
  0
TEXT
  8
2
  6
CONTINUOUS
 10
115.863622
 20
72.077503
 40
0.200000
  1
   1270
  7
TQS_CALIBRI
  0
TEXT
  8
2
  6
CONTINUOUS
 10
107.789661
 20
71.727503
 40
0.200000
  1
     50A
  7
TQS_CALIBRI
  0
TEXT
  8
2
  6
CONTINUOUS
 10
110.030000
 20
71.727503
 40
0.200000
  1
 26
  7
TQS_CALIBRI
  0
TEXT
  8
2
  6
CONTINUOUS
 10
111.036543
 20
71.733547
 40
0.200000
  1
      8
  7
TQS_CALIBRI
  0
TEXT
  8
2
  6
CONTINUOUS
 10
112.820000
 20
71.727503
 40
0.200000
  1
    1
  7
TQS_CALIBRI
  0
TEXT
  8
2
  6
CONTINUOUS
 10
114.030000
 20
71.727503
 40
0.200000
  1
    535
  7
TQS_CALIBRI
  0
TEXT
  8
2
  6
CONTINUOUS
 10
115.863622
 20
71.727503
 40
0.200000
  1
    535
  7
TQS_CALIBRI
  0
TEXT
  8
2
  6
CONTINUOUS
 10
107.789661
 20
71.377503
 40
0.200000
  1
     50A
  7
TQS_CALIBRI
  0
TEXT
  8
2
  6
CONTINUOUS
 10
110.030000
 20
71.377503
 40
0.200000
  1
 27
  7
TQS_CALIBRI
  0
TEXT
  8
2
  6
CONTINUOUS
 10
111.036543
 20
71.383547
 40
0.200000
  1
      8
  7
TQS_CALIBRI
  0
TEXT
  8
2
  6
CONTINUOUS
 10
112.820000
 20
71.377503
 40
0.200000
  1
    2
  7
TQS_CALIBRI
  0
TEXT
  8
2
  6
CONTINUOUS
 10
114.030000
 20
71.377503
 40
0.200000
  1
    491
  7
TQS_CALIBRI
  0
TEXT
  8
2
  6
CONTINUOUS
 10
115.863622
 20
71.377503
 40
0.200000
  1
    982
  7
TQS_CALIBRI
  0
TEXT
  8
2
  6
CONTINUOUS
 10
111.808841
 20
69.524855
 40
0.250000
  1
COMPR
  7
TQS_CALIBRI
  0
TEXT
  8
2
  6
CONTINUOUS
 10
115.437840
 20
69.524855
 40
0.250000
  1
PESO
  7
TQS_CALIBRI
  0
TEXT
  8
2
  6
CONTINUOUS
 10
109.830000
 20
69.521254
 40
0.250000
  1
BIT
  7
TQS_CALIBRI
  0
TEXT
  8
2
  6
CONTINUOUS
 10
107.719580
 20
69.521254
 40
0.250000
  1
AÇO
  7
TQS_CALIBRI
  0
TEXT
  8
2
  6
CONTINUOUS
 10
109.680497
 20
69.958754
 40
0.250000
  1
RESUMO DE AÇO
  7
TQS_CALIBRI
  0
TEXT
  8
2
  6
CONTINUOUS
 10
110.150798
 20
69.047152
 40
0.200000
  1
mm
  7
TQS_CALIBRI
  0
TEXT
  8
2
  6
CONTINUOUS
 10
112.522841
 20
69.093754
 40
0.200000
  1
m
  7
TQS_CALIBRI
  0
TEXT
  8
2
  6
CONTINUOUS
 10
115.900630
 20
69.093754
 40
0.200000
  1
kgf
  7
TQS_CALIBRI
  0
TEXT
  8
2
  6
CONTINUOUS
 10
111.567658
 20
68.715004
 40
0.200000
  1
     39
  7
TQS_CALIBRI
  0
TEXT
  8
2
  6
CONTINUOUS
 10
115.415265
 20
68.715004
 40
0.200000
  1
       6
  7
TQS_CALIBRI
  0
TEXT
  8
2
  6
CONTINUOUS
 10
109.326542
 20
68.721047
 40
0.200000
  1
      5
  7
TQS_CALIBRI
  0
TEXT
  8
2
  6
CONTINUOUS
 10
107.159661
 20
68.715004
 40
0.200000
  1
     60A
  7
TQS_CALIBRI
  0
TEXT
  8
2
  6
CONTINUOUS
 10
111.567658
 20
68.365004
 40
0.200000
  1
   6757
  7
TQS_CALIBRI
  0
TEXT
  8
2
  6
CONTINUOUS
 10
115.415265
 20
68.365004
 40
0.200000
  1
    1655
  7
TQS_CALIBRI
  0
TEXT
  8
2
  6
CONTINUOUS
 10
109.326542
 20
68.371047
 40
0.200000
  1
    6.3
  7
TQS_CALIBRI
  0
TEXT
  8
2
  6
CONTINUOUS
 10
107.159661
 20
68.365003
 40
0.200000
  1
     50A
  7
TQS_CALIBRI
  0
TEXT
  8
2
  6
CONTINUOUS
 10
111.567658
 20
68.015003
 40
0.200000
  1
   3090
  7
TQS_CALIBRI
  0
TEXT
  8
2
  6
CONTINUOUS
 10
115.415265
 20
68.015003
 40
0.200000
  1
    1220
  7
TQS_CALIBRI
  0
TEXT
  8
2
  6
CONTINUOUS
 10
109.326542
 20
68.021047
 40
0.200000
  1
      8
  7
TQS_CALIBRI
  0
TEXT
  8
2
  6
CONTINUOUS
 10
107.159661
 20
68.015003
 40
0.200000
  1
     50A
  7
TQS_CALIBRI
  0
TEXT
  8
2
  6
CONTINUOUS
 10
111.567658
 20
67.665003
 40
0.200000
  1
   4184
  7
TQS_CALIBRI
  0
TEXT
  8
2
  6
CONTINUOUS
 10
115.415265
 20
67.665003
 40
0.200000
  1
    2581
  7
TQS_CALIBRI
  0
TEXT
  8
2
  6
CONTINUOUS
 10
109.326542
 20
67.671046
 40
0.200000
  1
     10
  7
TQS_CALIBRI
  0
TEXT
  8
2
  6
CONTINUOUS
 10
107.159661
 20
67.665002
 40
0.200000
  1
     50A
  7
TQS_CALIBRI
  0
TEXT
  8
2
  6
CONTINUOUS
 10
106.792829
 20
67.246252
 40
0.250000
  1
Peso Total        60A =
  7
TQS_CALIBRI
  0
TEXT
  8
2
  6
CONTINUOUS
 10
114.157004
 20
67.246252
 40
0.250000
  1
       6 kgf
  7
TQS_CALIBRI
  0
TEXT
  8
2
  6
CONTINUOUS
 10
106.792829
 20
66.808752
 40
0.250000
  1
Peso Total        50A =
  7
TQS_CALIBRI
  0
TEXT
  8
2
  6
CONTINUOUS
 10
114.157004
 20
66.808752
 40
0.250000
  1
    5457 kgf
  7
TQS_CALIBRI
  0
TEXT
  8
1
  6
CONTINUOUS
 10
102.073109
 20
8.835799
 40
0.455000
  1
ENGENHARIA
  7
TQS_CALIBRI
  0
TEXT
  8
1
  6
CONTINUOUS
 10
101.876737
 20
16.222571
 40
0.250000
  1
REV
  7
TQS_CALIBRI
  0
TEXT
  8
1
  6
CONTINUOUS
 10
103.356169
 20
16.222571
 40
0.250000
  1
DATA
  7
TQS_CALIBRI
  0
TEXT
  8
1
  6
CONTINUOUS
 10
105.030516
 20
16.222571
 40
0.250000
  1
ASSUNTO
  7
TQS_CALIBRI
  0
TEXT
  8
1
  6
CONTINUOUS
 10
101.832253
 20
14.047181
 40
0.250000
  1
PROPRIETÁRIO - 
  7
TQS_CALIBRI
  0
TEXT
  8
1
  6
CONTINUOUS
 10
108.042444
 20
2.579059
 40
0.250000
  1
ENGENHEIRO:
  7
TQS_CALIBRI
  0
TEXT
  8
1
  6
CONTINUOUS
 10
108.046365
 20
2.149652
 40
0.250000
  1
CREA REG.:
  7
TQS_CALIBRI
  0
TEXT
  8
1
  6
CONTINUOUS
 10
110.430567
 20
2.160333
 40
0.250000
  1
020930945-8
  7
TQS_CALIBRI
  0
TEXT
  8
1
  6
CONTINUOUS
 10
103.739739
 20
9.759850
 40
1.000000
  1
VGF
  7
TQS_CALIBRI
  0
TEXT
  8
1
  6
CONTINUOUS
 10
101.832253
 20
12.147181
 40
0.250000
  1
PROJETO              Eng. Civil - CREA:020930945-8
  7
TQS_CALIBRI
  0
TEXT
  8
1
  6
CONTINUOUS
 10
101.800510
 20
2.752624
 40
0.150000
  1
DATA:
  7
TQS_CALIBRI
  0
TEXT
  8
1
  6
CONTINUOUS
 10
101.788178
 20
1.752624
 40
0.150000
  1
FASE:
  7
TQS_CALIBRI
  0
TEXT
  8
1
  6
CONTINUOUS
 10
105.124829
 20
2.752624
 40
0.150000
  1
ESCALA:
  7
TQS_CALIBRI
  0
TEXT
  8
1
  6
CONTINUOUS
 10
105.112497
 20
1.752624
 40
0.150000
  1
PLANTA:
  7
TQS_CALIBRI
  0
TEXT
  8
1
  6
CONTINUOUS
 10
101.800510
 20
6.352624
 40
0.150000
  1
TÍTULO:
  7
TQS_CALIBRI
  0
TEXT
  8
1
  6
CONTINUOUS
 10
101.787482
 20
5.577767
 40
0.150000
  1
ELEMENTOS DA PRANCHA:
  7
TQS_CALIBRI
  0
TEXT
  8
1
  6
CONTINUOUS
 10
101.800510
 20
8.252624
 40
0.150000
  1
EMPREENDIMENTO/LOCAL:
  7
TQS_CALIBRI
  0
TEXT
  8
1
  6
CONTINUOUS
 10
106.761120
 20
11.025301
 40
0.150000
  1
CONTATOS:
  7
TQS_CALIBRI
  0
TEXT
  8
1
  6
CONTINUOUS
 10
114.224829
 20
2.752624
 40
0.150000
  1
PLANTA-REVISÃO:
  7
TQS_CALIBRI
  0
TEXT
  8
1
  6
CONTINUOUS
 10
102.041441
 20
16.843956
 40
0.200000
  1
00
  7
TQS_CALIBRI
  0
TEXT
  8
1
  6
CONTINUOUS
 10
102.041441
 20
17.343956
 40
0.200000
  1
01
  7
TQS_CALIBRI
  0
TEXT
  8
1
  6
CONTINUOUS
 10
102.041441
 20
17.843956
 40
0.200000
  1
02
  7
TQS_CALIBRI
  0
TEXT
  8
1
  6
CONTINUOUS
 10
102.041441
 20
18.343956
 40
0.200000
  1
03
  7
TQS_CALIBRI
  0
TEXT
  8
1
  6
CONTINUOUS
 10
102.041441
 20
18.843956
 40
0.200000
  1
04
  7
TQS_CALIBRI
  0
TEXT
  8
1
  6
CONTINUOUS
 10
102.041441
 20
19.343956
 40
0.200000
  1
05
  7
TQS_CALIBRI
  0
TEXT
  8
1
  6
CONTINUOUS
 10
102.041441
 20
19.843956
 40
0.200000
  1
06
  7
TQS_CALIBRI
  0
TEXT
  8
1
  6
CONTINUOUS
 10
102.041441
 20
20.343956
 40
0.200000
  1
07
  7
TQS_CALIBRI
  0
TEXT
  8
1
  6
CONTINUOUS
 10
102.041441
 20
20.843956
 40
0.200000
  1
08
  7
TQS_CALIBRI
  0
TEXT
  8
1
  6
CONTINUOUS
 10
102.041441
 20
21.343956
 40
0.200000
  1
09
  7
TQS_CALIBRI
  0
TEXT
  8
1
  6
CONTINUOUS
 10
102.041441
 20
21.843956
 40
0.200000
  1
10
  7
TQS_CALIBRI
  0
TEXT
  8
1
  6
CONTINUOUS
 10
116.437973
 20
16.222571
 40
0.250000
  1
AUTOR
  7
TQS_CALIBRI
  0
TEXT
  8
1
  6
CONTINUOUS
 10
106.749019
 20
10.335784
 40
0.195000
  1
Tel: 99928-2128
  7
TQS_CALIBRI
  0
TEXT
  8
1
  6
CONTINUOUS
 10
106.749019
 20
10.012284
 40
0.195000
  1
franciscogonca@hotmail.com 
  7
TQS_CALIBRI
  0
TEXT
  8
1
  6
CONTINUOUS
 10
106.749019
 20
9.680784
 40
0.195000
  1
Tel: 99981-6458
  7
TQS_CALIBRI
  0
TEXT
  8
1
  6
CONTINUOUS
 10
106.749019
 20
9.357284
 40
0.195000
  1
tiago@vgfengenharia.com.br 
  7
TQS_CALIBRI
  0
TEXT
  8
1
  6
CONTINUOUS
 10
106.749019
 20
9.025784
 40
0.195000
  1
Tel: 99912-8379
  7
TQS_CALIBRI
  0
TEXT
  8
1
  6
CONTINUOUS
 10
110.809443
 20
11.052624
 40
0.150000
  1
CLIENTE:
  7
TQS_CALIBRI
  0
TEXT
  8
1
  6
CONTINUOUS
 10
116.009770
 20
1.647683
 40
0.500000
  1
-R
  7
TQS_CALIBRI
  0
TEXT
  8
1
  6
CONTINUOUS
 10
101.832253
 20
12.547181
 40
0.250000
  1
RESPONSÁVEL -  Diego de Vasconcelos Gonçalves Ferreira
  7
TQS_CALIBRI
  0
TEXT
  8
1
  6
CONTINUOUS
 10
110.422141
 20
2.578345
 40
0.250000
  1
Diego Vasconcelos
  7
TQS_CALIBRI
  0
TEXT
  8
1
  6
CONTINUOUS
 10
106.749019
 20
10.667284
 40
0.195000
  1
diego@vgfengenharia.com.br 
  7
TQS_CALIBRI
  0
TEXT
  8
1
  6
CONTINUOUS
 10
104.982892
 20
16.853163
 40
0.200000
  1
Emissão inicial.
  7
TQS_CALIBRI
  0
TEXT
  8
1
  6
CONTINUOUS
 10
101.795719
 20
7.825700
 40
0.250000
  1
Assembléia Legislativa de Alagoas
  7
TQS_CALIBRI
  0
TEXT
  8
1
  6
CONTINUOUS
 10
104.517953
 20
14.045361
 40
0.250000
  1
ALA
  7
TQS_CALIBRI
  0
TEXT
  8
1
  6
CONTINUOUS
 10
101.789281
 20
2.263237
 40
0.250000
  1
26/02/2024
  7
TQS_CALIBRI
  0
TEXT
  8
1
  6
CONTINUOUS
 10
101.760893
 20
5.200495
 40
0.250000
  1
02-1Pavto(A e B) - Armadura positiva
  7
TQS_CALIBRI
  0
TEXT
  8
1
  6
CONTINUOUS
 10
102.992347
 20
16.854551
 40
0.200000
  1
26/02/24
  7
TQS_CALIBRI
  0
TEXT
  8
1
  6
CONTINUOUS
 10
101.787954
 20
7.415393
 40
0.200000
  1
RUA SÁ E ALBUQUERQUE, NÚMERO 807, JARAGUÁ - MACEIÓ-AL
  7
TQS_CALIBRI
  0
TEXT
  8
1
  6
CONTINUOUS
 10
101.789859
 20
1.251887
 40
0.250000
  1
PE
  7
TQS_CALIBRI
  0
TEXT
  8
1
  6
CONTINUOUS
 10
105.113600
 20
2.263237
 40
0.250000
  1
1:50
  7
TQS_CALIBRI
  0
TEXT
  8
1
  6
CONTINUOUS
 10
105.114178
 20
1.251887
 40
0.250000
  1
CLA-EEM-EST-PE-0330-ARM-R00
  7
TQS_CALIBRI
  0
TEXT
  8
1
  6
CONTINUOUS
 10
116.547332
 20
16.842370
 40
0.200000
  1
DIEGO
  7
TQS_CALIBRI
  0
TEXT
  8
1
  6
CONTINUOUS
 10
114.396264
 20
1.644018
 40
0.500000
  1
0330
  7
TQS_CALIBRI
  0
TEXT
  8
1
  6
CONTINUOUS
 10
116.689770
 20
1.647683
 40
0.500000
  1
00
  7
TQS_CALIBRI
  0
TEXT
  8
1
  6
CONTINUOUS
 10
110.802729
 20
10.513659
 40
0.400000
  1
ALA
  7
TQS_CALIBRI
  0
TEXT
  8
1
  6
CONTINUOUS
 10
101.762319
 20
5.951739
 40
0.250000
  1
ARM. POSITIVA DA LAJE (02-1Pavto) - 01 - A e B
  7
TQS_CALIBRI
  0
ENDSEC
  0
EOF
