  0
SECTION
  2
HEADER
  9
$ACADVER
  1
AC1002
  9
$USERI1
 70
0
  9
$INSBASE
 10
0.000000
 20
0.000000
  9
$EXTMIN
 10
0.000000
 20
0.000000
  9
$EXTMAX
 10
7.761771
 20
4.436620
  9
$LIMMIN
 10
0.000000
 20
0.000000
  9
$LIMMAX
 10
12.000000
 20
9.000000
  9
$VIEWCTR
 10
78.887138
 20
59.361758
  9
$VIEWSIZE
 40
127.522840
  9
$TEXTSIZE
 40
0.100000
  9
$TRACEWID
 40
0.010000
  9
$LTSCALE
 40
1.000000
  0
ENDSEC
  0
SECTION
  2
TABLES
  0
TABLE
  2
LTYPE
 70
     3
  0
LTYPE
  2
CONTINUOUS
 70
    64
  3
Solid line
 72
    65
 73
     0
 40
0.000000
  0
LTYPE
  2
ESTILO_TQS_0001
 70
    64
  3
-  -  -  -  -  -
 72
    65
 73
     2
 40
1.000000
 49
0.700000
 49
-0.300000
  0
LTYPE
  2
ESTILO_TQS_0002
 70
    64
  3
. . . . . . . .
 72
    65
 73
     2
 40
0.400000
 49
0.100000
 49
-0.300000
  0
LTYPE
  2
ESTILO_TQS_0003
 70
    64
  3
- . - . - . - .
 72
    65
 73
     4
 40
0.910000
 49
0.500000
 49
-0.200000
 49
0.010000
 49
-0.200000
  0
LTYPE
  2
ESTILO_TQS_0004
 70
    64
  3
- .. - .. - ..
 72
    65
 73
     6
 40
1.120000
 49
0.500000
 49
-0.200000
 49
0.010000
 49
-0.200000
 49
0.010000
 49
-0.200000
  0
LTYPE
  2
CONTINUOUS
 70
    64
  3
- - - - - - - -
 72
    65
 73
     2
 40
0.400000
 49
0.300000
 49
-0.100000
  0
ENDTAB
  0
TABLE
  2
LAYER
 70
    89
  0
LAYER
  2
0
 70
     0
 62
     7
  6
CONTINUOUS
  0
LAYER
  2
1
 70
     0
 62
     1
  6
CONTINUOUS
  0
LAYER
  2
2
 70
     0
 62
     2
  6
CONTINUOUS
  0
LAYER
  2
3
 70
     0
 62
     3
  6
CONTINUOUS
  0
LAYER
  2
4
 70
     0
 62
     4
  6
CONTINUOUS
  0
LAYER
  2
5
 70
     0
 62
     5
  6
CONTINUOUS
  0
LAYER
  2
6
 70
     0
 62
     6
  6
CONTINUOUS
  0
LAYER
  2
7
 70
     0
 62
     7
  6
CONTINUOUS
  0
LAYER
  2
8
 70
     0
 62
     8
  6
CONTINUOUS
  0
LAYER
  2
9
 70
     0
 62
     9
  6
CONTINUOUS
  0
LAYER
  2
10
 70
     0
 62
    10
  6
CONTINUOUS
  0
LAYER
  2
11
 70
     0
 62
    11
  6
CONTINUOUS
  0
LAYER
  2
12
 70
     0
 62
    12
  6
CONTINUOUS
  0
LAYER
  2
13
 70
     0
 62
    13
  6
CONTINUOUS
  0
LAYER
  2
14
 70
     0
 62
    14
  6
CONTINUOUS
  0
LAYER
  2
15
 70
     0
 62
    15
  6
CONTINUOUS
  0
LAYER
  2
16
 70
     0
 62
     7
  6
CONTINUOUS
  0
LAYER
  2
17
 70
     0
 62
     2
  6
CONTINUOUS
  0
LAYER
  2
18
 70
     0
 62
     4
  6
CONTINUOUS
  0
LAYER
  2
19
 70
     0
 62
     5
  6
CONTINUOUS
  0
LAYER
  2
20
 70
     0
 62
     4
  6
CONTINUOUS
  0
LAYER
  2
21
 70
     0
 62
     2
  6
CONTINUOUS
  0
LAYER
  2
22
 70
     0
 62
     1
  6
CONTINUOUS
  0
LAYER
  2
23
 70
     0
 62
     7
  6
CONTINUOUS
  0
LAYER
  2
24
 70
     0
 62
     6
  6
CONTINUOUS
  0
LAYER
  2
25
 70
     0
 62
     1
  6
CONTINUOUS
  0
LAYER
  2
26
 70
     0
 62
     3
  6
CONTINUOUS
  0
LAYER
  2
27
 70
     0
 62
     4
  6
CONTINUOUS
  0
LAYER
  2
28
 70
     0
 62
     4
  6
CONTINUOUS
  0
LAYER
  2
30
 70
     0
 62
     4
  6
CONTINUOUS
  0
LAYER
  2
100
 70
     0
 62
     1
  6
CONTINUOUS
  0
LAYER
  2
101
 70
     0
 62
     9
  6
CONTINUOUS
  0
LAYER
  2
102
 70
     0
 62
     7
  6
CONTINUOUS
  0
LAYER
  2
103
 70
     0
 62
     2
  6
CONTINUOUS
  0
LAYER
  2
104
 70
     0
 62
    11
  6
CONTINUOUS
  0
LAYER
  2
105
 70
     0
 62
     3
  6
CONTINUOUS
  0
LAYER
  2
106
 70
     0
 62
     5
  6
CONTINUOUS
  0
LAYER
  2
107
 70
     0
 62
     3
  6
CONTINUOUS
  0
LAYER
  2
108
 70
     0
 62
     5
  6
CONTINUOUS
  0
LAYER
  2
109
 70
     0
 62
     3
  6
CONTINUOUS
  0
LAYER
  2
197
 70
     0
 62
     3
  6
CONTINUOUS
  0
LAYER
  2
198
 70
     0
 62
     2
  6
CONTINUOUS
  0
LAYER
  2
199
 70
     0
 62
     6
  6
CONTINUOUS
  0
LAYER
  2
200
 70
     0
 62
     7
  6
ESTILO_TQS_0002
  0
LAYER
  2
201
 70
     0
 62
     7
  6
ESTILO_TQS_0001
  0
LAYER
  2
202
 70
     0
 62
     7
  6
CONTINUOUS
  0
LAYER
  2
203
 70
     0
 62
     7
  6
ESTILO_TQS_0001
  0
LAYER
  2
204
 70
     0
 62
     7
  6
ESTILO_TQS_0003
  0
LAYER
  2
205
 70
     0
 62
     5
  6
ESTILO_TQS_0004
  0
LAYER
  2
206
 70
     0
 62
    15
  6
CONTINUOUS
  0
LAYER
  2
207
 70
     0
 62
     2
  6
CONTINUOUS
  0
LAYER
  2
208
 70
     0
 62
     5
  6
CONTINUOUS
  0
LAYER
  2
210
 70
     0
 62
    15
  6
ESTILO_TQS_0002
  0
LAYER
  2
211
 70
     0
 62
     7
  6
ESTILO_TQS_0001
  0
LAYER
  2
214
 70
     0
 62
    15
  6
CONTINUOUS
  0
LAYER
  2
215
 70
     0
 62
     2
  6
CONTINUOUS
  0
LAYER
  2
216
 70
     0
 62
     3
  6
CONTINUOUS
  0
LAYER
  2
217
 70
     0
 62
     3
  6
CONTINUOUS
  0
LAYER
  2
218
 70
     0
 62
     2
  6
CONTINUOUS
  0
LAYER
  2
219
 70
     0
 62
    15
  6
CONTINUOUS
  0
LAYER
  2
220
 70
     0
 62
    10
  6
CONTINUOUS
  0
LAYER
  2
221
 70
     0
 62
    11
  6
CONTINUOUS
  0
LAYER
  2
222
 70
     0
 62
    12
  6
CONTINUOUS
  0
LAYER
  2
223
 70
     0
 62
     6
  6
CONTINUOUS
  0
LAYER
  2
224
 70
     0
 62
     1
  6
CONTINUOUS
  0
LAYER
  2
225
 70
     0
 62
    15
  6
CONTINUOUS
  0
LAYER
  2
226
 70
     0
 62
     2
  6
CONTINUOUS
  0
LAYER
  2
227
 70
     0
 62
    10
  6
CONTINUOUS
  0
LAYER
  2
228
 70
     0
 62
    11
  6
CONTINUOUS
  0
LAYER
  2
229
 70
     0
 62
    12
  6
CONTINUOUS
  0
LAYER
  2
230
 70
     0
 62
     6
  6
CONTINUOUS
  0
LAYER
  2
231
 70
     0
 62
     3
  6
CONTINUOUS
  0
LAYER
  2
232
 70
     0
 62
    12
  6
CONTINUOUS
  0
LAYER
  2
233
 70
     0
 62
     4
  6
CONTINUOUS
  0
LAYER
  2
234
 70
     0
 62
    13
  6
CONTINUOUS
  0
LAYER
  2
235
 70
     0
 62
     5
  6
CONTINUOUS
  0
LAYER
  2
236
 70
     0
 62
     2
  6
CONTINUOUS
  0
LAYER
  2
237
 70
     0
 62
     6
  6
CONTINUOUS
  0
LAYER
  2
238
 70
     0
 62
    12
  6
CONTINUOUS
  0
LAYER
  2
239
 70
     0
 62
    11
  6
CONTINUOUS
  0
LAYER
  2
240
 70
     0
 62
    11
  6
CONTINUOUS
  0
LAYER
  2
241
 70
     0
 62
    12
  6
CONTINUOUS
  0
ENDTAB
  0
TABLE
  2
STYLE
 70
     1
  0
STYLE
  2
STANDARD
 70
    64
 40
0.000000
 41
1.000000
 50
0.000000
 71
     0
 42
0.200000
  3
ROMANS.SHX
  4

  0
STYLE
  2
TQS_CALIBRI
 70
     0
 40
0.000000
 41
1.000000
 50
0.000000
 71
     0
 42
0.200000
  3
calibri.ttf
  0
STYLE
  2
TQS_CALIBRI_U
 70
     0
 40
0.000000
 41
1.000000
 50
0.000000
 71
     0
 42
0.200000
  3
calibri.ttf
  0
STYLE
  2
TQS_CALIBRI_I
 70
     0
 40
0.000000
 41
1.000000
 50
0.000000
 71
     0
 42
0.200000
  3
calibri.ttf
  0
STYLE
  2
TQS_CALIBRI_I_U
 70
     0
 40
0.000000
 41
1.000000
 50
0.000000
 71
     0
 42
0.200000
  3
calibri.ttf
  0
STYLE
  2
TQS_CALIBRI_B
 70
     0
 40
0.000000
 41
1.000000
 50
0.000000
 71
     0
 42
0.200000
  3
calibri.ttf
  0
STYLE
  2
TQS_CALIBRI_B_U
 70
     0
 40
0.000000
 41
1.000000
 50
0.000000
 71
     0
 42
0.200000
  3
calibri.ttf
  0
STYLE
  2
TQS_CALIBRI_B_I
 70
     0
 40
0.000000
 41
1.000000
 50
0.000000
 71
     0
 42
0.200000
  3
calibri.ttf
  0
STYLE
  2
TQS_CALIBRI_B_I_U
 70
     0
 40
0.000000
 41
1.000000
 50
0.000000
 71
     0
 42
0.200000
  3
calibri.ttf
  0
ENDTAB
  0
TABLE
  2
VIEW
 70
     0
  0
ENDTAB
  0
ENDSEC
  0
SECTION
  2
BLOCKS
  0
BLOCK
  8
0
  2
_PLWTQS
 70
    64
 10
0.000000
 20
0.000000
  0
TEXT
  8
0
  6
CONTINUOUS
 10
0.000000
 20
0.000000
 40
0.200000
  1
$PLWDWGGlBMVwAAAAAAAChABAAAAMHC82deG7a4TWoBHUHqWtdjQd6aEmW3+4WQAnF0jpIk39rIeBZ9FTPlZyY8+rnfaufQCbvg+JxYrJ65KxE5R77u4U3q3N3Ly9Vl4VSmZl3EE0XSZXvC7uUt97c55poP3kIQw2OQZfPd6teweaACmQo=
  7
TQS_CALIBRI
  0
TEXT
  8
0
  6
CONTINUOUS
 10
0.000000
 20
-0.250000
 40
0.200000
  1
$PLWDWG+xsnr1nfZ83k4KUQWbYtGEC7qFO3jIx8wgrI6o1O8W63Y6StzoV+4hdiOrxuuL9t6UpZ/Grlau1389rKh1weyLBwFuKEKanWIP63Dsaisu7OfFwC7w188KCAuuSmKKUZ4HUJccQBVK9Gb7DbagNo1Db0SIc+fugTW3VVEdtz4Sk=
  7
TQS_CALIBRI
  0
TEXT
  8
0
  6
CONTINUOUS
 10
0.000000
 20
-0.500000
 40
0.200000
  1
$PLWDWGafN0WKn1ECG8wipdfLNwmRq7h+i7ch6N4HrvntgbDj8fxXdaOsQU78jwjv2912VV0SbMuBi06MfS8NsLlX6bpVqMM8ZqRMqq6D9xIntqZ4kQrBJZdJafuwqr6RivUuEfz2RsKsJu9ozWSTR9ckUWjKi45xPdPQmjq1b5CwJnJ8g=
  7
TQS_CALIBRI
  0
TEXT
  8
0
  6
CONTINUOUS
 10
0.000000
 20
-0.750000
 40
0.200000
  1
$PLWDWGsbHrf6+M2dIL26egwlRno3qFUR8z+HKU2i8Fo+sh7O1FiIsDsN3daVWIMjSh0ykHHxvjqvecABNpfyOhWxMe/w0OuTX9V48+kRfP9ZUVl5kPwFpa2QXvho1R7EUpTuGX7RxZeVCo7C0+yfA+ozVkq6/AfgxJcLeWqJD9ixEITgs=
  7
TQS_CALIBRI
  0
TEXT
  8
0
  6
CONTINUOUS
 10
0.000000
 20
-1.000000
 40
0.200000
  1
$PLWDWGZ3OPeQdJv/Nc/yE4yc08nBSPoqKHshVOzYNMtewrpnicv40mkRQLMXCO/nUv4MR2pBY/FXTzq7aoMMY4SZ7TiZ6zTxZAIqxqGrY6w45S7s7vRgZ023IFDTfIO307pIMsM/PmikQoaktJQlsXDe4IB35OBtdR11rqKAVZy/EmfYI=
  7
TQS_CALIBRI
  0
TEXT
  8
0
  6
CONTINUOUS
 10
0.000000
 20
-1.250000
 40
0.200000
  1
$PLWDWGwfPO9NM4hrVBXK78l+/xhUNBNTuixJV70Bt+HKe7yXmGjakEP7sCPKgu2pF3FDlsE1xPvJ6ZEp/Tc3H6pPcIu5pEoCf09CmEublh3/WssIUF7tydB/hwM1HslBHRRMlqY3lz8bYrCTdvnrrEbQmYSExdeP98DWv3iJec5rUXVc0=
  7
TQS_CALIBRI
  0
TEXT
  8
0
  6
CONTINUOUS
 10
0.000000
 20
-1.500000
 40
0.200000
  1
$PLWDWGRCCRtkBV4daVaUUBCKRFBFBvndJSA1om0BT7DLizHkOqRacmDisMkXxG51YFG6VEqALJPTgRozRIpPcV6CVALOtd7rNJkIkLfuX+RZAH54/F4McZi4G4120ds7yvyD0hIeLr8VAATeLcPHsAEclwApEkJTA3tIeIHsSM39YiH9k=
  7
TQS_CALIBRI
  0
TEXT
  8
0
  6
CONTINUOUS
 10
0.000000
 20
-1.750000
 40
0.200000
  1
$PLWDWGe7NHgBCwpAWe7U1zea7iwBJVV/beqgb8G5GLKfTkFgxGVW/bSgn+zdfJS7/f2cNWmsHNUkysCTcAAAAAwhNeJI4FfpqSFdVeEpgRgprBzVJMrAk3AAAAAA==
  7
TQS_CALIBRI
  0
ENDBLK
  8
0
  0
ENDSEC
  0
SECTION
  2
ENTITIES
  0
SOLID
  8
13
  6
CONTINUOUS
 10
102.095046
 20
10.244446
 11
102.095046
 21
9.498246
 12
101.971546
 22
9.498246
 13
101.971546
 23
9.498246
  0
SOLID
  8
13
  6
CONTINUOUS
 10
102.095046
 20
10.244446
 11
101.971546
 21
9.498246
 12
101.971546
 22
11.162246
 13
101.971546
 23
11.162246
  0
SOLID
  8
13
  6
CONTINUOUS
 10
102.095046
 20
10.244446
 11
101.971546
 21
11.162246
 12
102.095046
 22
11.162246
 13
102.095046
 23
11.162246
  0
SOLID
  8
13
  6
CONTINUOUS
 10
102.095046
 20
10.244446
 11
102.095046
 21
11.162246
 12
102.095046
 22
10.244446
 13
102.095046
 23
10.244446
  0
SOLID
  8
13
  6
CONTINUOUS
 10
102.522746
 20
10.230979
 11
102.522746
 21
9.498246
 12
102.095046
 22
9.498246
 13
102.095046
 23
9.498246
  0
SOLID
  8
13
  6
CONTINUOUS
 10
102.522746
 20
10.230979
 11
102.095046
 21
9.498246
 12
102.095046
 22
10.244446
 13
102.095046
 23
10.244446
  0
SOLID
  8
13
  6
CONTINUOUS
 10
102.522746
 20
10.230979
 11
102.095046
 21
10.244446
 12
102.143544
 22
10.248642
 13
102.143544
 23
10.248642
  0
SOLID
  8
13
  6
CONTINUOUS
 10
102.522746
 20
10.230979
 11
102.143544
 21
10.248642
 12
102.211078
 22
10.252071
 13
102.211078
 23
10.252071
  0
SOLID
  8
13
  6
CONTINUOUS
 10
102.522746
 20
10.230979
 11
102.211078
 21
10.252071
 12
102.259959
 22
10.252484
 13
102.259959
 23
10.252484
  0
SOLID
  8
13
  6
CONTINUOUS
 10
102.522746
 20
10.230979
 11
102.259959
 21
10.252484
 12
102.290321
 22
10.252141
 13
102.290321
 23
10.252141
  0
SOLID
  8
13
  6
CONTINUOUS
 10
102.522746
 20
10.230979
 11
102.290321
 21
10.252141
 12
102.334203
 22
10.250668
 13
102.334203
 23
10.250668
  0
SOLID
  8
13
  6
CONTINUOUS
 10
102.522746
 20
10.230979
 11
102.334203
 21
10.250668
 12
102.394518
 22
10.246747
 13
102.394518
 23
10.246747
  0
SOLID
  8
13
  6
CONTINUOUS
 10
102.522746
 20
10.230979
 11
102.394518
 21
10.246747
 12
102.446340
 22
10.241621
 13
102.446340
 23
10.241621
  0
SOLID
  8
13
  6
CONTINUOUS
 10
102.522746
 20
10.230979
 11
102.446340
 21
10.241621
 12
102.490083
 22
10.235974
 13
102.490083
 23
10.235974
  0
SOLID
  8
13
  6
CONTINUOUS
 10
102.522746
 20
10.230979
 11
102.490083
 21
10.235974
 12
102.522746
 22
10.230979
 13
102.522746
 23
10.230979
  0
SOLID
  8
13
  6
CONTINUOUS
 10
102.594246
 20
10.217654
 11
102.594246
 21
9.498246
 12
103.021946
 22
9.498246
 13
103.021946
 23
9.498246
  0
SOLID
  8
13
  6
CONTINUOUS
 10
102.594246
 20
10.217654
 11
103.021946
 21
9.498246
 12
103.021946
 22
10.064184
 13
103.021946
 23
10.064184
  0
SOLID
  8
13
  6
CONTINUOUS
 10
102.594246
 20
10.217654
 11
103.021946
 21
10.064184
 12
103.003898
 22
10.073542
 13
103.003898
 23
10.073542
  0
SOLID
  8
13
  6
CONTINUOUS
 10
102.594246
 20
10.217654
 11
103.003898
 21
10.073542
 12
102.981716
 22
10.084501
 13
102.981716
 23
10.084501
  0
SOLID
  8
13
  6
CONTINUOUS
 10
102.594246
 20
10.217654
 11
102.981716
 21
10.084501
 12
102.953307
 22
10.098271
 13
102.953307
 23
10.098271
  0
SOLID
  8
13
  6
CONTINUOUS
 10
102.594246
 20
10.217654
 11
102.953307
 21
10.098271
 12
102.912865
 22
10.116383
 13
102.912865
 23
10.116383
  0
SOLID
  8
13
  6
CONTINUOUS
 10
102.594246
 20
10.217654
 11
102.912865
 21
10.116383
 12
102.885024
 22
10.128001
 13
102.885024
 23
10.128001
  0
SOLID
  8
13
  6
CONTINUOUS
 10
102.594246
 20
10.217654
 11
102.885024
 21
10.128001
 12
102.844071
 22
10.144755
 13
102.844071
 23
10.144755
  0
SOLID
  8
13
  6
CONTINUOUS
 10
102.594246
 20
10.217654
 11
102.844071
 21
10.144755
 12
102.813490
 22
10.155923
 13
102.813490
 23
10.155923
  0
SOLID
  8
13
  6
CONTINUOUS
 10
102.594246
 20
10.217654
 11
102.813490
 21
10.155923
 12
102.778388
 22
10.168156
 13
102.778388
 23
10.168156
  0
SOLID
  8
13
  6
CONTINUOUS
 10
102.594246
 20
10.217654
 11
102.778388
 21
10.168156
 12
102.744083
 22
10.178793
 13
102.744083
 23
10.178793
  0
SOLID
  8
13
  6
CONTINUOUS
 10
102.594246
 20
10.217654
 11
102.744083
 21
10.178793
 12
102.703465
 22
10.191172
 13
102.703465
 23
10.191172
  0
SOLID
  8
13
  6
CONTINUOUS
 10
102.594246
 20
10.217654
 11
102.703465
 21
10.191172
 12
102.665141
 22
10.201162
 13
102.665141
 23
10.201162
  0
SOLID
  8
13
  6
CONTINUOUS
 10
102.594246
 20
10.217654
 11
102.665141
 21
10.201162
 12
102.624819
 22
10.210970
 13
102.624819
 23
10.210970
  0
SOLID
  8
13
  6
CONTINUOUS
 10
102.594246
 20
10.217654
 11
102.624819
 21
10.210970
 12
102.594246
 22
10.217654
 13
102.594246
 23
10.217654
  0
SOLID
  8
13
  6
CONTINUOUS
 10
103.093446
 20
10.024343
 11
103.093446
 21
9.498246
 12
103.521146
 22
9.498246
 13
103.521146
 23
9.498246
  0
SOLID
  8
13
  6
CONTINUOUS
 10
103.093446
 20
10.024343
 11
103.521146
 21
9.498246
 12
103.521146
 22
9.661030
 13
103.521146
 23
9.661030
  0
SOLID
  8
13
  6
CONTINUOUS
 10
103.093446
 20
10.024343
 11
103.521146
 21
9.661030
 12
103.507797
 22
9.676793
 13
103.507797
 23
9.676793
  0
SOLID
  8
13
  6
CONTINUOUS
 10
103.093446
 20
10.024343
 11
103.507797
 21
9.676793
 12
103.495964
 22
9.690528
 13
103.495964
 23
9.690528
  0
SOLID
  8
13
  6
CONTINUOUS
 10
103.093446
 20
10.024343
 11
103.495964
 21
9.690528
 12
103.473877
 22
9.715277
 13
103.473877
 23
9.715277
  0
SOLID
  8
13
  6
CONTINUOUS
 10
103.093446
 20
10.024343
 11
103.473877
 21
9.715277
 12
103.454164
 22
9.736530
 13
103.454164
 23
9.736530
  0
SOLID
  8
13
  6
CONTINUOUS
 10
103.093446
 20
10.024343
 11
103.454164
 21
9.736530
 12
103.434048
 22
9.757502
 13
103.434048
 23
9.757502
  0
SOLID
  8
13
  6
CONTINUOUS
 10
103.093446
 20
10.024343
 11
103.434048
 21
9.757502
 12
103.410015
 22
9.781535
 13
103.410015
 23
9.781535
  0
SOLID
  8
13
  6
CONTINUOUS
 10
103.093446
 20
10.024343
 11
103.410015
 21
9.781535
 12
103.399294
 22
9.791943
 13
103.399294
 23
9.791943
  0
SOLID
  8
13
  6
CONTINUOUS
 10
103.093446
 20
10.024343
 11
103.399294
 21
9.791943
 12
103.388429
 22
9.802406
 13
103.388429
 23
9.802406
  0
SOLID
  8
13
  6
CONTINUOUS
 10
103.093446
 20
10.024343
 11
103.388429
 21
9.802406
 12
103.359952
 22
9.828752
 13
103.359952
 23
9.828752
  0
SOLID
  8
13
  6
CONTINUOUS
 10
103.093446
 20
10.024343
 11
103.359952
 21
9.828752
 12
103.325139
 22
9.859181
 13
103.325139
 23
9.859181
  0
SOLID
  8
13
  6
CONTINUOUS
 10
103.093446
 20
10.024343
 11
103.325139
 21
9.859181
 12
103.286846
 22
9.890826
 13
103.286846
 23
9.890826
  0
SOLID
  8
13
  6
CONTINUOUS
 10
103.093446
 20
10.024343
 11
103.286846
 21
9.890826
 12
103.251036
 22
9.918745
 13
103.251036
 23
9.918745
  0
SOLID
  8
13
  6
CONTINUOUS
 10
103.093446
 20
10.024343
 11
103.251036
 21
9.918745
 12
103.200839
 22
9.955427
 13
103.200839
 23
9.955427
  0
SOLID
  8
13
  6
CONTINUOUS
 10
103.093446
 20
10.024343
 11
103.200839
 21
9.955427
 12
103.134352
 22
9.999676
 13
103.134352
 23
9.999676
  0
SOLID
  8
13
  6
CONTINUOUS
 10
103.093446
 20
10.024343
 11
103.134352
 21
9.999676
 12
103.093446
 22
10.024343
 13
103.093446
 23
10.024343
  0
SOLID
  8
13
  6
CONTINUOUS
 10
102.522746
 20
10.635283
 11
102.522746
 21
11.162246
 12
102.095046
 22
11.162246
 13
102.095046
 23
11.162246
  0
SOLID
  8
13
  6
CONTINUOUS
 10
102.522746
 20
10.635283
 11
102.095046
 21
11.162246
 12
102.095046
 22
10.995122
 13
102.095046
 23
10.995122
  0
SOLID
  8
13
  6
CONTINUOUS
 10
102.522746
 20
10.635283
 11
102.095046
 21
10.995122
 12
102.153689
 22
10.929235
 13
102.153689
 23
10.929235
  0
SOLID
  8
13
  6
CONTINUOUS
 10
102.522746
 20
10.635283
 11
102.153689
 21
10.929235
 12
102.237359
 22
10.846559
 13
102.237359
 23
10.846559
  0
SOLID
  8
13
  6
CONTINUOUS
 10
102.522746
 20
10.635283
 11
102.237359
 21
10.846559
 12
102.308389
 22
10.784730
 13
102.308389
 23
10.784730
  0
SOLID
  8
13
  6
CONTINUOUS
 10
102.522746
 20
10.635283
 11
102.308389
 21
10.784730
 12
102.366624
 22
10.739274
 13
102.366624
 23
10.739274
  0
SOLID
  8
13
  6
CONTINUOUS
 10
102.522746
 20
10.635283
 11
102.366624
 21
10.739274
 12
102.406322
 22
10.710064
 13
102.406322
 23
10.710064
  0
SOLID
  8
13
  6
CONTINUOUS
 10
102.522746
 20
10.635283
 11
102.406322
 21
10.710064
 12
102.455827
 22
10.676682
 13
102.455827
 23
10.676682
  0
SOLID
  8
13
  6
CONTINUOUS
 10
102.522746
 20
10.635283
 11
102.455827
 21
10.676682
 12
102.493954
 22
10.652515
 13
102.493954
 23
10.652515
  0
SOLID
  8
13
  6
CONTINUOUS
 10
102.522746
 20
10.635283
 11
102.493954
 21
10.652515
 12
102.522746
 22
10.635283
 13
102.522746
 23
10.635283
  0
SOLID
  8
13
  6
CONTINUOUS
 10
103.021946
 20
10.443678
 11
103.021946
 21
11.162246
 12
102.594246
 22
11.162246
 13
102.594246
 23
11.162246
  0
SOLID
  8
13
  6
CONTINUOUS
 10
103.021946
 20
10.443678
 11
102.594246
 21
11.162246
 12
102.594246
 22
10.595859
 13
102.594246
 23
10.595859
  0
SOLID
  8
13
  6
CONTINUOUS
 10
103.021946
 20
10.443678
 11
102.594246
 21
10.595859
 12
102.663800
 22
10.561766
 13
102.663800
 23
10.561766
  0
SOLID
  8
13
  6
CONTINUOUS
 10
103.021946
 20
10.443678
 11
102.663800
 21
10.561766
 12
102.744359
 22
10.527375
 13
102.744359
 23
10.527375
  0
SOLID
  8
13
  6
CONTINUOUS
 10
103.021946
 20
10.443678
 11
102.744359
 21
10.527375
 12
102.812197
 22
10.501464
 13
102.812197
 23
10.501464
  0
SOLID
  8
13
  6
CONTINUOUS
 10
103.021946
 20
10.443678
 11
102.812197
 21
10.501464
 12
102.889458
 22
10.476967
 13
102.889458
 23
10.476967
  0
SOLID
  8
13
  6
CONTINUOUS
 10
103.021946
 20
10.443678
 11
102.889458
 21
10.476967
 12
102.950702
 22
10.460007
 13
102.950702
 23
10.460007
  0
SOLID
  8
13
  6
CONTINUOUS
 10
103.021946
 20
10.443678
 11
102.950702
 21
10.460007
 12
103.021946
 22
10.443678
 13
103.021946
 23
10.443678
  0
SOLID
  8
13
  6
CONTINUOUS
 10
103.093446
 20
10.430307
 11
103.093446
 21
11.162246
 12
103.521146
 22
11.162246
 13
103.521146
 23
11.162246
  0
SOLID
  8
13
  6
CONTINUOUS
 10
103.093446
 20
10.430307
 11
103.521146
 21
11.162246
 12
103.521146
 22
10.417580
 13
103.521146
 23
10.417580
  0
SOLID
  8
13
  6
CONTINUOUS
 10
103.093446
 20
10.430307
 11
103.521146
 21
10.417580
 12
103.476372
 22
10.413637
 13
103.476372
 23
10.413637
  0
SOLID
  8
13
  6
CONTINUOUS
 10
103.093446
 20
10.430307
 11
103.476372
 21
10.413637
 12
103.416577
 22
10.410480
 13
103.416577
 23
10.410480
  0
SOLID
  8
13
  6
CONTINUOUS
 10
103.093446
 20
10.430307
 11
103.416577
 21
10.410480
 12
103.366788
 22
10.409453
 13
103.366788
 23
10.409453
  0
SOLID
  8
13
  6
CONTINUOUS
 10
103.093446
 20
10.430307
 11
103.366788
 21
10.409453
 12
103.336830
 22
10.409453
 13
103.336830
 23
10.409453
  0
SOLID
  8
13
  6
CONTINUOUS
 10
103.093446
 20
10.430307
 11
103.336830
 21
10.409453
 12
103.286182
 22
10.410821
 13
103.286182
 23
10.410821
  0
SOLID
  8
13
  6
CONTINUOUS
 10
103.093446
 20
10.430307
 11
103.286182
 21
10.410821
 12
103.241261
 22
10.413321
 13
103.241261
 23
10.413321
  0
SOLID
  8
13
  6
CONTINUOUS
 10
103.093446
 20
10.430307
 11
103.241261
 21
10.413321
 12
103.205545
 22
10.416539
 13
103.205545
 23
10.416539
  0
SOLID
  8
13
  6
CONTINUOUS
 10
103.093446
 20
10.430307
 11
103.205545
 21
10.416539
 12
103.155349
 22
10.421044
 13
103.155349
 23
10.421044
  0
SOLID
  8
13
  6
CONTINUOUS
 10
103.093446
 20
10.430307
 11
103.155349
 21
10.421044
 12
103.093446
 22
10.430307
 13
103.093446
 23
10.430307
  0
SOLID
  8
13
  6
CONTINUOUS
 10
102.594246
 20
9.498246
 11
102.594246
 21
11.162246
 12
102.522746
 22
11.162246
 13
102.522746
 23
11.162246
  0
SOLID
  8
13
  6
CONTINUOUS
 10
102.594246
 20
9.498246
 11
102.522746
 21
11.162246
 12
102.522746
 22
9.498246
 13
102.522746
 23
9.498246
  0
SOLID
  8
13
  6
CONTINUOUS
 10
102.594246
 20
9.498246
 11
102.522746
 21
9.498246
 12
102.522746
 22
9.498246
 13
102.522746
 23
9.498246
  0
SOLID
  8
13
  6
CONTINUOUS
 10
103.021946
 20
11.162246
 11
103.093446
 21
11.162246
 12
103.093446
 22
9.498246
 13
103.093446
 23
9.498246
  0
SOLID
  8
13
  6
CONTINUOUS
 10
103.021946
 20
11.162246
 11
103.093446
 21
9.498246
 12
103.021946
 22
9.498246
 13
103.021946
 23
9.498246
  0
SOLID
  8
13
  6
CONTINUOUS
 10
103.021946
 20
11.162246
 11
103.021946
 21
9.498246
 12
103.021946
 22
11.162246
 13
103.021946
 23
11.162246
  0
SOLID
  8
13
  6
CONTINUOUS
 10
103.521146
 20
9.498246
 11
103.635546
 21
9.498246
 12
103.635546
 22
11.162246
 13
103.635546
 23
11.162246
  0
SOLID
  8
13
  6
CONTINUOUS
 10
103.521146
 20
9.498246
 11
103.635546
 21
11.162246
 12
103.521146
 22
11.162246
 13
103.521146
 23
11.162246
  0
SOLID
  8
13
  6
CONTINUOUS
 10
103.521146
 20
9.498246
 11
103.521146
 21
11.162246
 12
103.521146
 22
9.498246
 13
103.521146
 23
9.498246
  0
POLYLINE
  8
1
  6
CONTINUOUS
 66
     1
  0
VERTEX
  8
1
  6
CONTINUOUS
 10
20.262760
 20
6.773798
  0
VERTEX
  8
1
  6
CONTINUOUS
 10
12.428609
 20
5.946325
  0
SEQEND
  8
1
  6
CONTINUOUS
  0
POLYLINE
  8
1
  6
CONTINUOUS
 66
     1
  0
VERTEX
  8
1
  6
CONTINUOUS
 10
12.304262
 20
5.530966
  0
VERTEX
  8
1
  6
CONTINUOUS
 10
20.309474
 20
6.376507
  0
SEQEND
  8
1
  6
CONTINUOUS
  0
POLYLINE
  8
1
  6
CONTINUOUS
 66
     1
  0
VERTEX
  8
1
  6
CONTINUOUS
 10
30.901629
 20
7.910097
  0
VERTEX
  8
1
  6
CONTINUOUS
 10
21.058334
 20
6.858316
  0
SEQEND
  8
1
  6
CONTINUOUS
  0
POLYLINE
  8
1
  6
CONTINUOUS
 66
     1
  0
VERTEX
  8
1
  6
CONTINUOUS
 10
21.105046
 20
6.461030
  0
VERTEX
  8
1
  6
CONTINUOUS
 10
30.948342
 20
7.512812
  0
SEQEND
  8
1
  6
CONTINUOUS
  0
POLYLINE
  8
1
  6
CONTINUOUS
 66
     1
  0
VERTEX
  8
1
  6
CONTINUOUS
 10
44.733728
 20
9.383600
  0
VERTEX
  8
1
  6
CONTINUOUS
 10
31.697161
 20
7.994970
  0
SEQEND
  8
1
  6
CONTINUOUS
  0
POLYLINE
  8
1
  6
CONTINUOUS
 66
     1
  0
VERTEX
  8
1
  6
CONTINUOUS
 10
31.743874
 20
7.597683
  0
VERTEX
  8
1
  6
CONTINUOUS
 10
44.780440
 20
8.986312
  0
SEQEND
  8
1
  6
CONTINUOUS
  0
POLYLINE
  8
1
  6
CONTINUOUS
 66
     1
  0
VERTEX
  8
1
  6
CONTINUOUS
 10
55.163150
 20
10.489964
  0
VERTEX
  8
1
  6
CONTINUOUS
 10
45.529296
 20
9.468162
  0
SEQEND
  8
1
  6
CONTINUOUS
  0
POLYLINE
  8
1
  6
CONTINUOUS
 66
     1
  0
VERTEX
  8
1
  6
CONTINUOUS
 10
45.576009
 20
9.070873
  0
VERTEX
  8
1
  6
CONTINUOUS
 10
55.209863
 20
10.092675
  0
SEQEND
  8
1
  6
CONTINUOUS
  0
POLYLINE
  8
1
  6
CONTINUOUS
 66
     1
  0
VERTEX
  8
1
  6
CONTINUOUS
 10
62.860457
 20
11.306368
  0
VERTEX
  8
1
  6
CONTINUOUS
 10
55.560945
 20
10.532156
  0
SEQEND
  8
1
  6
CONTINUOUS
  0
POLYLINE
  8
1
  6
CONTINUOUS
 66
     1
  0
VERTEX
  8
1
  6
CONTINUOUS
 10
55.607658
 20
10.134867
  0
VERTEX
  8
1
  6
CONTINUOUS
 10
62.910303
 20
10.909412
  0
SEQEND
  8
1
  6
CONTINUOUS
  0
POLYLINE
  8
1
  6
CONTINUOUS
 66
     1
  0
VERTEX
  8
1
  6
CONTINUOUS
 10
15.745003
 20
51.415080
  0
VERTEX
  8
1
  6
CONTINUOUS
 10
7.010831
 20
50.356753
  0
SEQEND
  8
1
  6
CONTINUOUS
  0
POLYLINE
  8
1
  6
CONTINUOUS
 66
     1
  0
VERTEX
  8
1
  6
CONTINUOUS
 10
7.059266
 20
49.959696
  0
VERTEX
  8
1
  6
CONTINUOUS
 10
15.791713
 20
51.017814
  0
SEQEND
  8
1
  6
CONTINUOUS
  0
POLYLINE
  8
1
  6
CONTINUOUS
 66
     1
  0
VERTEX
  8
1
  6
CONTINUOUS
 10
23.820152
 20
52.393552
  0
VERTEX
  8
1
  6
CONTINUOUS
 10
16.340650
 20
51.487255
  0
SEQEND
  8
1
  6
CONTINUOUS
  0
POLYLINE
  8
1
  6
CONTINUOUS
 66
     1
  0
VERTEX
  8
1
  6
CONTINUOUS
 10
16.387360
 20
51.089989
  0
VERTEX
  8
1
  6
CONTINUOUS
 10
23.866862
 20
51.996286
  0
SEQEND
  8
1
  6
CONTINUOUS
  0
POLYLINE
  8
1
  6
CONTINUOUS
 66
     1
  0
VERTEX
  8
1
  6
CONTINUOUS
 10
34.413376
 20
53.677321
  0
VERTEX
  8
1
  6
CONTINUOUS
 10
24.812896
 20
52.513852
  0
SEQEND
  8
1
  6
CONTINUOUS
  0
POLYLINE
  8
1
  6
CONTINUOUS
 66
     1
  0
VERTEX
  8
1
  6
CONTINUOUS
 10
24.859606
 20
52.116587
  0
VERTEX
  8
1
  6
CONTINUOUS
 10
34.460086
 20
53.280055
  0
SEQEND
  8
1
  6
CONTINUOUS
  0
POLYLINE
  8
1
  6
CONTINUOUS
 66
     1
  0
VERTEX
  8
1
  6
CONTINUOUS
 10
42.853812
 20
54.700206
  0
VERTEX
  8
1
  6
CONTINUOUS
 10
34.810473
 20
53.725445
  0
SEQEND
  8
1
  6
CONTINUOUS
  0
POLYLINE
  8
1
  6
CONTINUOUS
 66
     1
  0
VERTEX
  8
1
  6
CONTINUOUS
 10
34.857183
 20
53.328179
  0
VERTEX
  8
1
  6
CONTINUOUS
 10
42.900522
 20
54.302940
  0
SEQEND
  8
1
  6
CONTINUOUS
  0
POLYLINE
  8
1
  6
CONTINUOUS
 66
     1
  0
VERTEX
  8
1
  6
CONTINUOUS
 10
58.599028
 20
56.610183
  0
VERTEX
  8
1
  6
CONTINUOUS
 10
43.250906
 20
54.748353
  0
SEQEND
  8
1
  6
CONTINUOUS
  0
POLYLINE
  8
1
  6
CONTINUOUS
 66
     1
  0
VERTEX
  8
1
  6
CONTINUOUS
 10
43.297616
 20
54.351087
  0
VERTEX
  8
1
  6
CONTINUOUS
 10
58.645632
 20
56.212904
  0
SEQEND
  8
1
  6
CONTINUOUS
  0
POLYLINE
  8
1
  6
CONTINUOUS
 66
     1
  0
VERTEX
  8
1
  6
CONTINUOUS
 10
10.781012
 20
16.151868
  0
VERTEX
  8
1
  6
CONTINUOUS
 10
11.982800
 20
6.297682
  0
SEQEND
  8
1
  6
CONTINUOUS
  0
POLYLINE
  8
1
  6
CONTINUOUS
 66
     1
  0
VERTEX
  8
1
  6
CONTINUOUS
 10
12.379857
 20
6.346118
  0
VERTEX
  8
1
  6
CONTINUOUS
 10
11.178069
 20
16.200304
  0
SEQEND
  8
1
  6
CONTINUOUS
  0
POLYLINE
  8
1
  6
CONTINUOUS
 66
     1
  0
VERTEX
  8
1
  6
CONTINUOUS
 10
9.357902
 20
27.817299
  0
VERTEX
  8
1
  6
CONTINUOUS
 10
10.732581
 20
16.548925
  0
SEQEND
  8
1
  6
CONTINUOUS
  0
POLYLINE
  8
1
  6
CONTINUOUS
 66
     1
  0
VERTEX
  8
1
  6
CONTINUOUS
 10
11.129638
 20
16.597361
  0
VERTEX
  8
1
  6
CONTINUOUS
 10
9.754958
 20
27.865735
  0
SEQEND
  8
1
  6
CONTINUOUS
  0
POLYLINE
  8
1
  6
CONTINUOUS
 66
     1
  0
VERTEX
  8
1
  6
CONTINUOUS
 10
7.947523
 20
39.378301
  0
VERTEX
  8
1
  6
CONTINUOUS
 10
9.309463
 20
28.214355
  0
SEQEND
  8
1
  6
CONTINUOUS
  0
POLYLINE
  8
1
  6
CONTINUOUS
 66
     1
  0
VERTEX
  8
1
  6
CONTINUOUS
 10
9.706519
 20
28.262791
  0
VERTEX
  8
1
  6
CONTINUOUS
 10
8.344580
 20
39.426737
  0
SEQEND
  8
1
  6
CONTINUOUS
  0
POLYLINE
  8
1
  6
CONTINUOUS
 66
     1
  0
VERTEX
  8
1
  6
CONTINUOUS
 10
6.710667
 20
49.514214
  0
VERTEX
  8
1
  6
CONTINUOUS
 10
7.899078
 20
39.775356
  0
SEQEND
  8
1
  6
CONTINUOUS
  0
POLYLINE
  8
1
  6
CONTINUOUS
 66
     1
  0
VERTEX
  8
1
  6
CONTINUOUS
 10
8.296134
 20
39.823792
  0
VERTEX
  8
1
  6
CONTINUOUS
 10
7.107724
 20
49.562650
  0
SEQEND
  8
1
  6
CONTINUOUS
  0
POLYLINE
  8
1
  6
CONTINUOUS
 66
     1
  0
VERTEX
  8
1
  6
CONTINUOUS
 10
73.916618
 20
58.521133
  0
VERTEX
  8
1
  6
CONTINUOUS
 10
60.727954
 20
56.974869
  0
SEQEND
  8
1
  6
CONTINUOUS
  0
POLYLINE
  8
1
  6
CONTINUOUS
 66
     1
  0
VERTEX
  8
1
  6
CONTINUOUS
 10
60.774664
 20
56.577606
  0
VERTEX
  8
1
  6
CONTINUOUS
 10
73.963328
 20
58.123870
  0
SEQEND
  8
1
  6
CONTINUOUS
  0
POLYLINE
  8
1
  6
CONTINUOUS
 66
     1
  0
VERTEX
  8
1
  6
CONTINUOUS
 10
84.500609
 20
59.762424
  0
VERTEX
  8
1
  6
CONTINUOUS
 10
74.909813
 20
58.637597
  0
SEQEND
  8
1
  6
CONTINUOUS
  0
POLYLINE
  8
1
  6
CONTINUOUS
 66
     1
  0
VERTEX
  8
1
  6
CONTINUOUS
 10
74.956523
 20
58.240334
  0
VERTEX
  8
1
  6
CONTINUOUS
 10
84.547319
 20
59.365160
  0
SEQEND
  8
1
  6
CONTINUOUS
  0
POLYLINE
  8
1
  6
CONTINUOUS
 66
     1
  0
VERTEX
  8
1
  6
CONTINUOUS
 10
91.010795
 20
60.525951
  0
VERTEX
  8
1
  6
CONTINUOUS
 10
84.897887
 20
59.809017
  0
SEQEND
  8
1
  6
CONTINUOUS
  0
POLYLINE
  8
1
  6
CONTINUOUS
 66
     1
  0
VERTEX
  8
1
  6
CONTINUOUS
 10
84.944596
 20
59.411754
  0
VERTEX
  8
1
  6
CONTINUOUS
 10
90.660782
 20
60.082159
  0
SEQEND
  8
1
  6
CONTINUOUS
  0
POLYLINE
  8
1
  6
CONTINUOUS
 66
     1
  0
VERTEX
  8
1
  6
CONTINUOUS
 10
61.817016
 20
22.532575
  0
VERTEX
  8
1
  6
CONTINUOUS
 10
62.827966
 20
11.705242
  0
SEQEND
  8
1
  6
CONTINUOUS
  0
POLYLINE
  8
1
  6
CONTINUOUS
 66
     1
  0
VERTEX
  8
1
  6
CONTINUOUS
 10
63.281362
 20
11.152008
  0
VERTEX
  8
1
  6
CONTINUOUS
 10
62.215262
 20
22.569996
  0
SEQEND
  8
1
  6
CONTINUOUS
  0
POLYLINE
  8
1
  6
CONTINUOUS
 66
     1
  0
VERTEX
  8
1
  6
CONTINUOUS
 10
60.754110
 20
33.846031
  0
VERTEX
  8
1
  6
CONTINUOUS
 10
61.779715
 20
22.930832
  0
SEQEND
  8
1
  6
CONTINUOUS
  0
POLYLINE
  8
1
  6
CONTINUOUS
 66
     1
  0
VERTEX
  8
1
  6
CONTINUOUS
 10
62.177961
 20
22.968253
  0
VERTEX
  8
1
  6
CONTINUOUS
 10
61.152356
 20
33.883452
  0
SEQEND
  8
1
  6
CONTINUOUS
  0
POLYLINE
  8
1
  6
CONTINUOUS
 66
     1
  0
VERTEX
  8
1
  6
CONTINUOUS
 10
59.664298
 20
45.444572
  0
VERTEX
  8
1
  6
CONTINUOUS
 10
60.716691
 20
34.244277
  0
SEQEND
  8
1
  6
CONTINUOUS
  0
POLYLINE
  8
1
  6
CONTINUOUS
 66
     1
  0
VERTEX
  8
1
  6
CONTINUOUS
 10
61.114936
 20
34.281698
  0
VERTEX
  8
1
  6
CONTINUOUS
 10
60.062544
 20
45.481992
  0
SEQEND
  8
1
  6
CONTINUOUS
  0
POLYLINE
  8
1
  6
CONTINUOUS
 66
     1
  0
VERTEX
  8
1
  6
CONTINUOUS
 10
59.609886
 20
46.023665
  0
VERTEX
  8
1
  6
CONTINUOUS
 10
59.626878
 20
45.842817
  0
SEQEND
  8
1
  6
CONTINUOUS
  0
POLYLINE
  8
1
  6
CONTINUOUS
 66
     1
  0
VERTEX
  8
1
  6
CONTINUOUS
 10
60.025124
 20
45.880238
  0
VERTEX
  8
1
  6
CONTINUOUS
 10
60.008132
 20
46.061084
  0
SEQEND
  8
1
  6
CONTINUOUS
  0
POLYLINE
  8
1
  6
CONTINUOUS
 66
     1
  0
VERTEX
  8
1
  6
CONTINUOUS
 10
58.645632
 20
56.212904
  0
VERTEX
  8
1
  6
CONTINUOUS
 10
59.609898
 20
46.023532
  0
SEQEND
  8
1
  6
CONTINUOUS
  0
POLYLINE
  8
1
  6
CONTINUOUS
 66
     1
  0
VERTEX
  8
1
  6
CONTINUOUS
 10
60.008119
 20
46.061217
  0
VERTEX
  8
1
  6
CONTINUOUS
 10
59.080675
 20
55.861487
  0
SEQEND
  8
1
  6
CONTINUOUS
  0
POLYLINE
  8
1
  6
CONTINUOUS
 66
     1
  0
VERTEX
  8
1
  6
CONTINUOUS
 10
60.008119
 20
46.061217
  0
VERTEX
  8
1
  6
CONTINUOUS
 10
60.008132
 20
46.061084
  0
SEQEND
  8
1
  6
CONTINUOUS
  0
POLYLINE
  8
1
  6
CONTINUOUS
 66
     1
  0
VERTEX
  8
1
  6
CONTINUOUS
 10
59.609898
 20
46.023532
  0
VERTEX
  8
1
  6
CONTINUOUS
 10
59.609886
 20
46.023665
  0
SEQEND
  8
1
  6
CONTINUOUS
  0
POLYLINE
  8
1
  6
CONTINUOUS
 66
     1
  0
VERTEX
  8
1
  6
CONTINUOUS
 10
63.581945
 20
22.354206
  0
VERTEX
  8
1
  6
CONTINUOUS
 10
64.565658
 20
11.906046
  0
SEQEND
  8
1
  6
CONTINUOUS
  0
POLYLINE
  8
1
  6
CONTINUOUS
 66
     1
  0
VERTEX
  8
1
  6
CONTINUOUS
 10
65.000750
 20
11.552116
  0
VERTEX
  8
1
  6
CONTINUOUS
 10
63.980191
 20
22.391626
  0
SEQEND
  8
1
  6
CONTINUOUS
  0
POLYLINE
  8
1
  6
CONTINUOUS
 66
     1
  0
VERTEX
  8
1
  6
CONTINUOUS
 10
63.531291
 20
22.892209
  0
VERTEX
  8
1
  6
CONTINUOUS
 10
63.544450
 20
22.752444
  0
SEQEND
  8
1
  6
CONTINUOUS
  0
POLYLINE
  8
1
  6
CONTINUOUS
 66
     1
  0
VERTEX
  8
1
  6
CONTINUOUS
 10
63.942696
 20
22.789865
  0
VERTEX
  8
1
  6
CONTINUOUS
 10
63.929530
 20
22.929704
  0
SEQEND
  8
1
  6
CONTINUOUS
  0
POLYLINE
  8
1
  6
CONTINUOUS
 66
     1
  0
VERTEX
  8
1
  6
CONTINUOUS
 10
62.482174
 20
34.057645
  0
VERTEX
  8
1
  6
CONTINUOUS
 10
63.531287
 20
22.892247
  0
SEQEND
  8
1
  6
CONTINUOUS
  0
POLYLINE
  8
1
  6
CONTINUOUS
 66
     1
  0
VERTEX
  8
1
  6
CONTINUOUS
 10
63.929533
 20
22.929667
  0
VERTEX
  8
1
  6
CONTINUOUS
 10
62.880420
 20
34.095066
  0
SEQEND
  8
1
  6
CONTINUOUS
  0
POLYLINE
  8
1
  6
CONTINUOUS
 66
     1
  0
VERTEX
  8
1
  6
CONTINUOUS
 10
61.392366
 20
45.656138
  0
VERTEX
  8
1
  6
CONTINUOUS
 10
62.444754
 20
34.455891
  0
SEQEND
  8
1
  6
CONTINUOUS
  0
POLYLINE
  8
1
  6
CONTINUOUS
 66
     1
  0
VERTEX
  8
1
  6
CONTINUOUS
 10
62.843000
 20
34.493312
  0
VERTEX
  8
1
  6
CONTINUOUS
 10
61.790612
 20
45.693558
  0
SEQEND
  8
1
  6
CONTINUOUS
  0
POLYLINE
  8
1
  6
CONTINUOUS
 66
     1
  0
VERTEX
  8
1
  6
CONTINUOUS
 10
61.342972
 20
46.181826
  0
VERTEX
  8
1
  6
CONTINUOUS
 10
61.354947
 20
46.054383
  0
SEQEND
  8
1
  6
CONTINUOUS
  0
POLYLINE
  8
1
  6
CONTINUOUS
 66
     1
  0
VERTEX
  8
1
  6
CONTINUOUS
 10
61.753192
 20
46.091804
  0
VERTEX
  8
1
  6
CONTINUOUS
 10
61.741218
 20
46.219245
  0
SEQEND
  8
1
  6
CONTINUOUS
  0
POLYLINE
  8
1
  6
CONTINUOUS
 66
     1
  0
VERTEX
  8
1
  6
CONTINUOUS
 10
60.377400
 20
56.530895
  0
VERTEX
  8
1
  6
CONTINUOUS
 10
61.342960
 20
46.181956
  0
SEQEND
  8
1
  6
CONTINUOUS
  0
POLYLINE
  8
1
  6
CONTINUOUS
 66
     1
  0
VERTEX
  8
1
  6
CONTINUOUS
 10
61.741230
 20
46.219115
  0
VERTEX
  8
1
  6
CONTINUOUS
 10
60.811948
 20
56.179233
  0
SEQEND
  8
1
  6
CONTINUOUS
  0
POLYLINE
  8
1
  6
CONTINUOUS
 66
     1
  0
VERTEX
  8
1
  6
CONTINUOUS
 10
63.929533
 20
22.929667
  0
VERTEX
  8
1
  6
CONTINUOUS
 10
63.929530
 20
22.929704
  0
SEQEND
  8
1
  6
CONTINUOUS
  0
POLYLINE
  8
1
  6
CONTINUOUS
 66
     1
  0
VERTEX
  8
1
  6
CONTINUOUS
 10
63.531287
 20
22.892247
  0
VERTEX
  8
1
  6
CONTINUOUS
 10
63.531291
 20
22.892209
  0
SEQEND
  8
1
  6
CONTINUOUS
  0
POLYLINE
  8
1
  6
CONTINUOUS
 66
     1
  0
VERTEX
  8
1
  6
CONTINUOUS
 10
61.741230
 20
46.219115
  0
VERTEX
  8
1
  6
CONTINUOUS
 10
61.741218
 20
46.219245
  0
SEQEND
  8
1
  6
CONTINUOUS
  0
POLYLINE
  8
1
  6
CONTINUOUS
 66
     1
  0
VERTEX
  8
1
  6
CONTINUOUS
 10
61.342960
 20
46.181956
  0
VERTEX
  8
1
  6
CONTINUOUS
 10
61.342972
 20
46.181826
  0
SEQEND
  8
1
  6
CONTINUOUS
  0
POLYLINE
  8
1
  6
CONTINUOUS
 66
     1
  0
VERTEX
  8
1
  6
CONTINUOUS
 10
72.003000
 20
12.410700
  0
VERTEX
  8
1
  6
CONTINUOUS
 10
65.000370
 20
11.555348
  0
SEQEND
  8
1
  6
CONTINUOUS
  0
POLYLINE
  8
1
  6
CONTINUOUS
 66
     1
  0
VERTEX
  8
1
  6
CONTINUOUS
 10
65.047080
 20
11.158081
  0
VERTEX
  8
1
  6
CONTINUOUS
 10
72.049710
 20
12.013433
  0
SEQEND
  8
1
  6
CONTINUOUS
  0
POLYLINE
  8
1
  6
CONTINUOUS
 66
     1
  0
VERTEX
  8
1
  6
CONTINUOUS
 10
79.417160
 20
13.316320
  0
VERTEX
  8
1
  6
CONTINUOUS
 10
72.797106
 20
12.507698
  0
SEQEND
  8
1
  6
CONTINUOUS
  0
POLYLINE
  8
1
  6
CONTINUOUS
 66
     1
  0
VERTEX
  8
1
  6
CONTINUOUS
 10
72.843816
 20
12.110431
  0
VERTEX
  8
1
  6
CONTINUOUS
 10
79.463870
 20
12.919052
  0
SEQEND
  8
1
  6
CONTINUOUS
  0
POLYLINE
  8
1
  6
CONTINUOUS
 66
     1
  0
VERTEX
  8
1
  6
CONTINUOUS
 10
88.293097
 20
14.404240
  0
VERTEX
  8
1
  6
CONTINUOUS
 10
80.211245
 20
13.413491
  0
SEQEND
  8
1
  6
CONTINUOUS
  0
POLYLINE
  8
1
  6
CONTINUOUS
 66
     1
  0
VERTEX
  8
1
  6
CONTINUOUS
 10
80.257956
 20
13.016223
  0
VERTEX
  8
1
  6
CONTINUOUS
 10
88.339807
 20
14.006972
  0
SEQEND
  8
1
  6
CONTINUOUS
  0
POLYLINE
  8
1
  6
CONTINUOUS
 66
     1
  0
VERTEX
  8
1
  6
CONTINUOUS
 10
95.984035
 20
15.346308
  0
VERTEX
  8
1
  6
CONTINUOUS
 10
89.087166
 20
14.501553
  0
SEQEND
  8
1
  6
CONTINUOUS
  0
POLYLINE
  8
1
  6
CONTINUOUS
 66
     1
  0
VERTEX
  8
1
  6
CONTINUOUS
 10
89.133876
 20
14.104285
  0
VERTEX
  8
1
  6
CONTINUOUS
 10
96.428335
 20
14.997739
  0
SEQEND
  8
1
  6
CONTINUOUS
  0
POLYLINE
  8
1
  6
CONTINUOUS
 66
     1
  0
VERTEX
  8
1
  6
CONTINUOUS
 10
95.827840
 20
16.658914
  0
VERTEX
  8
1
  6
CONTINUOUS
 10
95.984035
 20
15.346308
  0
SEQEND
  8
1
  6
CONTINUOUS
  0
POLYLINE
  8
1
  6
CONTINUOUS
 66
     1
  0
VERTEX
  8
1
  6
CONTINUOUS
 10
96.428335
 20
14.997739
  0
VERTEX
  8
1
  6
CONTINUOUS
 10
96.225119
 20
16.705499
  0
SEQEND
  8
1
  6
CONTINUOUS
  0
POLYLINE
  8
1
  6
CONTINUOUS
 66
     1
  0
VERTEX
  8
1
  6
CONTINUOUS
 10
94.728933
 20
25.893761
  0
VERTEX
  8
1
  6
CONTINUOUS
 10
95.733310
 20
17.453311
  0
SEQEND
  8
1
  6
CONTINUOUS
  0
POLYLINE
  8
1
  6
CONTINUOUS
 66
     1
  0
VERTEX
  8
1
  6
CONTINUOUS
 10
96.130589
 20
17.499896
  0
VERTEX
  8
1
  6
CONTINUOUS
 10
95.126211
 20
25.940346
  0
SEQEND
  8
1
  6
CONTINUOUS
  0
POLYLINE
  8
1
  6
CONTINUOUS
 66
     1
  0
VERTEX
  8
1
  6
CONTINUOUS
 10
93.333010
 20
37.625155
  0
VERTEX
  8
1
  6
CONTINUOUS
 10
94.658037
 20
26.489559
  0
SEQEND
  8
1
  6
CONTINUOUS
  0
POLYLINE
  8
1
  6
CONTINUOUS
 66
     1
  0
VERTEX
  8
1
  6
CONTINUOUS
 10
95.055316
 20
26.536144
  0
VERTEX
  8
1
  6
CONTINUOUS
 10
93.730289
 20
37.671740
  0
SEQEND
  8
1
  6
CONTINUOUS
  0
POLYLINE
  8
1
  6
CONTINUOUS
 66
     1
  0
VERTEX
  8
1
  6
CONTINUOUS
 10
91.952441
 20
49.227537
  0
VERTEX
  8
1
  6
CONTINUOUS
 10
93.214854
 20
38.618151
  0
SEQEND
  8
1
  6
CONTINUOUS
  0
POLYLINE
  8
1
  6
CONTINUOUS
 66
     1
  0
VERTEX
  8
1
  6
CONTINUOUS
 10
93.612132
 20
38.664736
  0
VERTEX
  8
1
  6
CONTINUOUS
 10
92.349720
 20
49.274122
  0
SEQEND
  8
1
  6
CONTINUOUS
  0
POLYLINE
  8
1
  6
CONTINUOUS
 66
     1
  0
VERTEX
  8
1
  6
CONTINUOUS
 10
90.857662
 20
58.427655
  0
VERTEX
  8
1
  6
CONTINUOUS
 10
91.905177
 20
49.624735
  0
SEQEND
  8
1
  6
CONTINUOUS
  0
POLYLINE
  8
1
  6
CONTINUOUS
 66
     1
  0
VERTEX
  8
1
  6
CONTINUOUS
 10
92.302456
 20
49.671320
  0
VERTEX
  8
1
  6
CONTINUOUS
 10
91.254941
 20
58.474240
  0
SEQEND
  8
1
  6
CONTINUOUS
  0
POLYLINE
  8
1
  6
CONTINUOUS
 66
     1
  0
VERTEX
  8
1
  6
CONTINUOUS
 10
90.660782
 20
60.082159
  0
VERTEX
  8
1
  6
CONTINUOUS
 10
90.763132
 20
59.222052
  0
SEQEND
  8
1
  6
CONTINUOUS
  0
POLYLINE
  8
1
  6
CONTINUOUS
 66
     1
  0
VERTEX
  8
1
  6
CONTINUOUS
 10
91.160410
 20
59.268637
  0
VERTEX
  8
1
  6
CONTINUOUS
 10
91.010795
 20
60.525951
  0
SEQEND
  8
1
  6
CONTINUOUS
  0
LINE
  8
1
  6
CONTINUOUS
 10
7.192515
 20
48.867796
 11
7.688833
 21
48.928364
  0
LINE
  8
1
  6
CONTINUOUS
 10
7.688833
 20
48.928364
 11
7.555622
 21
50.019955
  0
LINE
  8
1
  6
CONTINUOUS
 10
58.692758
 20
55.714945
 11
58.209882
 21
55.656018
  0
LINE
  8
1
  6
CONTINUOUS
 10
58.209882
 20
55.656018
 11
58.149271
 21
56.152686
  0
LINE
  8
1
  6
CONTINUOUS
 10
12.368041
 20
6.442643
 11
12.864359
 21
6.503211
  0
LINE
  8
1
  6
CONTINUOUS
 10
12.864359
 20
6.503211
 11
12.925939
 21
5.998595
  0
LINE
  8
1
  6
CONTINUOUS
 10
64.944179
 20
12.152943
 11
65.428780
 21
12.212080
  0
LINE
  8
1
  6
CONTINUOUS
 10
65.428780
 20
12.212080
 11
65.501454
 21
11.616554
  0
LINE
  8
1
  6
CONTINUOUS
 10
95.923467
 20
15.842626
 11
95.427149
 21
15.782059
  0
LINE
  8
1
  6
CONTINUOUS
 10
95.427149
 20
15.782059
 11
95.487740
 21
15.285546
  0
LINE
  8
1
  6
CONTINUOUS
 10
60.821246
 20
56.079580
 11
61.331549
 21
56.141854
  0
LINE
  8
1
  6
CONTINUOUS
 10
61.331549
 20
56.141854
 11
61.271269
 21
56.635818
  0
LINE
  8
1
  6
CONTINUOUS
 10
27.387523
 20
18.302399
 11
27.387523
 21
18.302399
  0
POLYLINE
  8
1
  6
CONTINUOUS
 66
     1
  0
VERTEX
  8
1
  6
CONTINUOUS
 10
27.124504
 20
17.969502
  0
VERTEX
  8
1
  6
CONTINUOUS
 10
27.720421
 20
18.039380
  0
VERTEX
  8
1
  6
CONTINUOUS
 10
27.650543
 20
18.635297
  0
VERTEX
  8
1
  6
CONTINUOUS
 10
27.054626
 20
18.565419
  0
VERTEX
  8
1
  6
CONTINUOUS
 10
27.124504
 20
17.969502
  0
SEQEND
  8
1
  6
CONTINUOUS
  0
LINE
  8
1
  6
CONTINUOUS
 10
24.662582
 20
41.541561
 11
24.662582
 21
41.541561
  0
POLYLINE
  8
1
  6
CONTINUOUS
 66
     1
  0
VERTEX
  8
1
  6
CONTINUOUS
 10
24.399562
 20
41.208663
  0
VERTEX
  8
1
  6
CONTINUOUS
 10
24.995480
 20
41.278541
  0
VERTEX
  8
1
  6
CONTINUOUS
 10
24.925602
 20
41.874458
  0
VERTEX
  8
1
  6
CONTINUOUS
 10
24.329685
 20
41.804581
  0
VERTEX
  8
1
  6
CONTINUOUS
 10
24.399562
 20
41.208663
  0
SEQEND
  8
1
  6
CONTINUOUS
  0
LINE
  8
1
  6
CONTINUOUS
 10
44.328072
 20
43.847454
 11
44.328072
 21
43.847454
  0
POLYLINE
  8
1
  6
CONTINUOUS
 66
     1
  0
VERTEX
  8
1
  6
CONTINUOUS
 10
44.065052
 20
43.514557
  0
VERTEX
  8
1
  6
CONTINUOUS
 10
44.660969
 20
43.584435
  0
VERTEX
  8
1
  6
CONTINUOUS
 10
44.591092
 20
44.180352
  0
VERTEX
  8
1
  6
CONTINUOUS
 10
43.995175
 20
44.110474
  0
VERTEX
  8
1
  6
CONTINUOUS
 10
44.065052
 20
43.514557
  0
SEQEND
  8
1
  6
CONTINUOUS
  0
LINE
  8
1
  6
CONTINUOUS
 10
47.053013
 20
20.608293
 11
47.053013
 21
20.608293
  0
POLYLINE
  8
1
  6
CONTINUOUS
 66
     1
  0
VERTEX
  8
1
  6
CONTINUOUS
 10
46.789994
 20
20.275396
  0
VERTEX
  8
1
  6
CONTINUOUS
 10
47.385911
 20
20.345273
  0
VERTEX
  8
1
  6
CONTINUOUS
 10
47.316033
 20
20.941190
  0
VERTEX
  8
1
  6
CONTINUOUS
 10
46.720116
 20
20.871313
  0
VERTEX
  8
1
  6
CONTINUOUS
 10
46.789994
 20
20.275396
  0
SEQEND
  8
1
  6
CONTINUOUS
  0
LINE
  8
1
  6
CONTINUOUS
 10
73.958332
 20
23.763062
 11
73.958332
 21
23.763062
  0
POLYLINE
  8
1
  6
CONTINUOUS
 66
     1
  0
VERTEX
  8
1
  6
CONTINUOUS
 10
73.695312
 20
23.430165
  0
VERTEX
  8
1
  6
CONTINUOUS
 10
74.291229
 20
23.500043
  0
VERTEX
  8
1
  6
CONTINUOUS
 10
74.221352
 20
24.095960
  0
VERTEX
  8
1
  6
CONTINUOUS
 10
73.625435
 20
24.026082
  0
VERTEX
  8
1
  6
CONTINUOUS
 10
73.695312
 20
23.430165
  0
SEQEND
  8
1
  6
CONTINUOUS
  0
LINE
  8
1
  6
CONTINUOUS
 10
76.007425
 20
47.562003
 11
76.007425
 21
47.562003
  0
POLYLINE
  8
1
  6
CONTINUOUS
 66
     1
  0
VERTEX
  8
1
  6
CONTINUOUS
 10
75.744405
 20
47.229105
  0
VERTEX
  8
1
  6
CONTINUOUS
 10
76.340322
 20
47.298983
  0
VERTEX
  8
1
  6
CONTINUOUS
 10
76.270444
 20
47.894900
  0
VERTEX
  8
1
  6
CONTINUOUS
 10
75.674527
 20
47.825022
  0
VERTEX
  8
1
  6
CONTINUOUS
 10
75.744405
 20
47.229105
  0
SEQEND
  8
1
  6
CONTINUOUS
  0
LINE
  8
1
  6
CONTINUOUS
 10
10.955329
 20
16.374615
 11
10.955329
 21
16.374615
  0
POLYLINE
  8
1
  6
CONTINUOUS
 66
     1
  0
VERTEX
  8
1
  6
CONTINUOUS
 10
11.178075
 20
16.200305
  0
VERTEX
  8
1
  6
CONTINUOUS
 10
11.129639
 20
16.597361
  0
VERTEX
  8
1
  6
CONTINUOUS
 10
10.732582
 20
16.548926
  0
VERTEX
  8
1
  6
CONTINUOUS
 10
10.781018
 20
16.151869
  0
VERTEX
  8
1
  6
CONTINUOUS
 10
11.178075
 20
16.200305
  0
SEQEND
  8
1
  6
CONTINUOUS
  0
LINE
  8
1
  6
CONTINUOUS
 10
8.121832
 20
39.601047
 11
8.121832
 21
39.601047
  0
POLYLINE
  8
1
  6
CONTINUOUS
 66
     1
  0
VERTEX
  8
1
  6
CONTINUOUS
 10
8.344578
 20
39.426736
  0
VERTEX
  8
1
  6
CONTINUOUS
 10
8.296142
 20
39.823793
  0
VERTEX
  8
1
  6
CONTINUOUS
 10
7.899086
 20
39.775357
  0
VERTEX
  8
1
  6
CONTINUOUS
 10
7.947522
 20
39.378300
  0
VERTEX
  8
1
  6
CONTINUOUS
 10
8.344578
 20
39.426736
  0
SEQEND
  8
1
  6
CONTINUOUS
  0
LINE
  8
1
  6
CONTINUOUS
 10
63.762580
 20
22.572060
 11
63.762580
 21
22.572060
  0
POLYLINE
  8
1
  6
CONTINUOUS
 66
     1
  0
VERTEX
  8
1
  6
CONTINUOUS
 10
63.980414
 20
22.391647
  0
VERTEX
  8
1
  6
CONTINUOUS
 10
63.942993
 20
22.789893
  0
VERTEX
  8
1
  6
CONTINUOUS
 10
63.544747
 20
22.752472
  0
VERTEX
  8
1
  6
CONTINUOUS
 10
63.582168
 20
22.354226
  0
VERTEX
  8
1
  6
CONTINUOUS
 10
63.980414
 20
22.391647
  0
SEQEND
  8
1
  6
CONTINUOUS
  0
LINE
  8
1
  6
CONTINUOUS
 10
61.577882
 20
45.874450
 11
61.577882
 21
45.874450
  0
POLYLINE
  8
1
  6
CONTINUOUS
 66
     1
  0
VERTEX
  8
1
  6
CONTINUOUS
 10
61.795716
 20
45.694038
  0
VERTEX
  8
1
  6
CONTINUOUS
 10
61.758295
 20
46.092284
  0
VERTEX
  8
1
  6
CONTINUOUS
 10
61.360049
 20
46.054863
  0
VERTEX
  8
1
  6
CONTINUOUS
 10
61.397470
 20
45.656617
  0
VERTEX
  8
1
  6
CONTINUOUS
 10
61.795716
 20
45.694038
  0
SEQEND
  8
1
  6
CONTINUOUS
  0
LINE
  8
1
  6
CONTINUOUS
 10
6.860737
 20
49.935486
 11
6.860737
 21
49.935486
  0
POLYLINE
  8
1
  6
CONTINUOUS
 66
     1
  0
VERTEX
  8
1
  6
CONTINUOUS
 10
7.107701
 20
49.562647
  0
VERTEX
  8
1
  6
CONTINUOUS
 10
7.010830
 20
50.356760
  0
VERTEX
  8
1
  6
CONTINUOUS
 10
6.613773
 20
50.308324
  0
VERTEX
  8
1
  6
CONTINUOUS
 10
6.710645
 20
49.514211
  0
VERTEX
  8
1
  6
CONTINUOUS
 10
7.107701
 20
49.562647
  0
SEQEND
  8
1
  6
CONTINUOUS
  0
LINE
  8
1
  6
CONTINUOUS
 10
12.229747
 20
5.924841
 11
12.229747
 21
5.924841
  0
POLYLINE
  8
1
  6
CONTINUOUS
 66
     1
  0
VERTEX
  8
1
  6
CONTINUOUS
 10
12.476711
 20
5.552003
  0
VERTEX
  8
1
  6
CONTINUOUS
 10
12.379839
 20
6.346116
  0
VERTEX
  8
1
  6
CONTINUOUS
 10
11.982782
 20
6.297680
  0
VERTEX
  8
1
  6
CONTINUOUS
 10
12.079654
 20
5.503567
  0
VERTEX
  8
1
  6
CONTINUOUS
 10
12.476711
 20
5.552003
  0
SEQEND
  8
1
  6
CONTINUOUS
  0
LINE
  8
1
  6
CONTINUOUS
 10
20.683932
 20
6.617172
 11
20.683932
 21
6.617172
  0
POLYLINE
  8
1
  6
CONTINUOUS
 66
     1
  0
VERTEX
  8
1
  6
CONTINUOUS
 10
20.310024
 20
6.371830
  0
VERTEX
  8
1
  6
CONTINUOUS
 10
21.104550
 20
6.465250
  0
VERTEX
  8
1
  6
CONTINUOUS
 10
21.057840
 20
6.862513
  0
VERTEX
  8
1
  6
CONTINUOUS
 10
20.263314
 20
6.769093
  0
VERTEX
  8
1
  6
CONTINUOUS
 10
20.310024
 20
6.371830
  0
SEQEND
  8
1
  6
CONTINUOUS
  0
LINE
  8
1
  6
CONTINUOUS
 10
45.154858
 20
9.227326
 11
45.154858
 21
9.227326
  0
POLYLINE
  8
1
  6
CONTINUOUS
 66
     1
  0
VERTEX
  8
1
  6
CONTINUOUS
 10
44.780949
 20
8.981985
  0
VERTEX
  8
1
  6
CONTINUOUS
 10
45.575476
 20
9.075404
  0
VERTEX
  8
1
  6
CONTINUOUS
 10
45.528766
 20
9.472668
  0
VERTEX
  8
1
  6
CONTINUOUS
 10
44.734239
 20
9.379248
  0
VERTEX
  8
1
  6
CONTINUOUS
 10
44.780949
 20
8.981985
  0
SEQEND
  8
1
  6
CONTINUOUS
  0
LINE
  8
1
  6
CONTINUOUS
 10
64.801848
 20
11.531062
 11
64.801848
 21
11.531062
  0
POLYLINE
  8
1
  6
CONTINUOUS
 66
     1
  0
VERTEX
  8
1
  6
CONTINUOUS
 10
64.649926
 20
11.110443
  0
VERTEX
  8
1
  6
CONTINUOUS
 10
65.047189
 20
11.157153
  0
VERTEX
  8
1
  6
CONTINUOUS
 10
64.953769
 20
11.951680
  0
VERTEX
  8
1
  6
CONTINUOUS
 10
64.556506
 20
11.904970
  0
VERTEX
  8
1
  6
CONTINUOUS
 10
64.649926
 20
11.110443
  0
SEQEND
  8
1
  6
CONTINUOUS
  0
LINE
  8
1
  6
CONTINUOUS
 10
88.713484
 20
14.254286
 11
88.713484
 21
14.254286
  0
POLYLINE
  8
1
  6
CONTINUOUS
 66
     1
  0
VERTEX
  8
1
  6
CONTINUOUS
 10
88.339575
 20
14.008945
  0
VERTEX
  8
1
  6
CONTINUOUS
 10
89.134102
 20
14.102364
  0
VERTEX
  8
1
  6
CONTINUOUS
 10
89.087392
 20
14.499628
  0
VERTEX
  8
1
  6
CONTINUOUS
 10
88.292865
 20
14.406208
  0
VERTEX
  8
1
  6
CONTINUOUS
 10
88.339575
 20
14.008945
  0
SEQEND
  8
1
  6
CONTINUOUS
  0
LINE
  8
1
  6
CONTINUOUS
 10
60.576032
 20
56.554250
 11
60.576032
 21
56.554250
  0
POLYLINE
  8
1
  6
CONTINUOUS
 66
     1
  0
VERTEX
  8
1
  6
CONTINUOUS
 10
60.424110
 20
56.133631
  0
VERTEX
  8
1
  6
CONTINUOUS
 10
60.821374
 20
56.180341
  0
VERTEX
  8
1
  6
CONTINUOUS
 10
60.727954
 20
56.974868
  0
VERTEX
  8
1
  6
CONTINUOUS
 10
60.330690
 20
56.928158
  0
VERTEX
  8
1
  6
CONTINUOUS
 10
60.424110
 20
56.133631
  0
SEQEND
  8
1
  6
CONTINUOUS
  0
LINE
  8
1
  6
CONTINUOUS
 10
84.722607
 20
59.587055
 11
84.722607
 21
59.587055
  0
POLYLINE
  8
1
  6
CONTINUOUS
 66
     1
  0
VERTEX
  8
1
  6
CONTINUOUS
 10
84.547330
 20
59.365068
  0
VERTEX
  8
1
  6
CONTINUOUS
 10
84.944594
 20
59.411778
  0
VERTEX
  8
1
  6
CONTINUOUS
 10
84.897884
 20
59.809042
  0
VERTEX
  8
1
  6
CONTINUOUS
 10
84.500620
 20
59.762332
  0
VERTEX
  8
1
  6
CONTINUOUS
 10
84.547330
 20
59.365068
  0
SEQEND
  8
1
  6
CONTINUOUS
  0
LINE
  8
1
  6
CONTINUOUS
 10
43.075713
 20
54.525651
 11
43.075713
 21
54.525651
  0
POLYLINE
  8
1
  6
CONTINUOUS
 66
     1
  0
VERTEX
  8
1
  6
CONTINUOUS
 10
42.900437
 20
54.303664
  0
VERTEX
  8
1
  6
CONTINUOUS
 10
43.297700
 20
54.350374
  0
VERTEX
  8
1
  6
CONTINUOUS
 10
43.250990
 20
54.747637
  0
VERTEX
  8
1
  6
CONTINUOUS
 10
42.853727
 20
54.700927
  0
VERTEX
  8
1
  6
CONTINUOUS
 10
42.900437
 20
54.303664
  0
SEQEND
  8
1
  6
CONTINUOUS
  0
LINE
  8
1
  6
CONTINUOUS
 10
61.995367
 20
22.750214
 11
61.995367
 21
22.750214
  0
POLYLINE
  8
1
  6
CONTINUOUS
 66
     1
  0
VERTEX
  8
1
  6
CONTINUOUS
 10
62.213201
 20
22.569802
  0
VERTEX
  8
1
  6
CONTINUOUS
 10
62.175780
 20
22.968048
  0
VERTEX
  8
1
  6
CONTINUOUS
 10
61.777534
 20
22.930627
  0
VERTEX
  8
1
  6
CONTINUOUS
 10
61.814955
 20
22.532381
  0
VERTEX
  8
1
  6
CONTINUOUS
 10
62.213201
 20
22.569802
  0
SEQEND
  8
1
  6
CONTINUOUS
  0
LINE
  8
1
  6
CONTINUOUS
 10
59.842532
 20
45.662200
 11
59.842532
 21
45.662200
  0
POLYLINE
  8
1
  6
CONTINUOUS
 66
     1
  0
VERTEX
  8
1
  6
CONTINUOUS
 10
60.060365
 20
45.481788
  0
VERTEX
  8
1
  6
CONTINUOUS
 10
60.022945
 20
45.880034
  0
VERTEX
  8
1
  6
CONTINUOUS
 10
59.624699
 20
45.842613
  0
VERTEX
  8
1
  6
CONTINUOUS
 10
59.662120
 20
45.444367
  0
VERTEX
  8
1
  6
CONTINUOUS
 10
60.060365
 20
45.481788
  0
SEQEND
  8
1
  6
CONTINUOUS
  0
LINE
  8
1
  6
CONTINUOUS
 10
63.059096
 20
11.329662
 11
63.059096
 21
11.329662
  0
POLYLINE
  8
1
  6
CONTINUOUS
 66
     1
  0
VERTEX
  8
1
  6
CONTINUOUS
 10
62.907174
 20
10.909044
  0
VERTEX
  8
1
  6
CONTINUOUS
 10
63.304437
 20
10.955754
  0
VERTEX
  8
1
  6
CONTINUOUS
 10
63.211017
 20
11.750280
  0
VERTEX
  8
1
  6
CONTINUOUS
 10
62.813754
 20
11.703571
  0
VERTEX
  8
1
  6
CONTINUOUS
 10
62.907174
 20
10.909044
  0
SEQEND
  8
1
  6
CONTINUOUS
  0
LINE
  8
1
  6
CONTINUOUS
 10
58.844349
 20
56.236456
 11
58.844349
 21
56.236456
  0
POLYLINE
  8
1
  6
CONTINUOUS
 66
     1
  0
VERTEX
  8
1
  6
CONTINUOUS
 10
58.692427
 20
55.815837
  0
VERTEX
  8
1
  6
CONTINUOUS
 10
59.089690
 20
55.862547
  0
VERTEX
  8
1
  6
CONTINUOUS
 10
58.996270
 20
56.657074
  0
VERTEX
  8
1
  6
CONTINUOUS
 10
58.599007
 20
56.610364
  0
VERTEX
  8
1
  6
CONTINUOUS
 10
58.692427
 20
55.815837
  0
SEQEND
  8
1
  6
CONTINUOUS
  0
LINE
  8
1
  6
CONTINUOUS
 10
92.127109
 20
49.449389
 11
92.127109
 21
49.449389
  0
POLYLINE
  8
1
  6
CONTINUOUS
 66
     1
  0
VERTEX
  8
1
  6
CONTINUOUS
 10
91.951763
 20
49.227457
  0
VERTEX
  8
1
  6
CONTINUOUS
 10
92.349041
 20
49.274042
  0
VERTEX
  8
1
  6
CONTINUOUS
 10
92.302456
 20
49.671320
  0
VERTEX
  8
1
  6
CONTINUOUS
 10
91.905178
 20
49.624735
  0
VERTEX
  8
1
  6
CONTINUOUS
 10
91.951763
 20
49.227457
  0
SEQEND
  8
1
  6
CONTINUOUS
  0
LINE
  8
1
  6
CONTINUOUS
 10
94.891784
 20
26.214913
 11
94.891784
 21
26.214913
  0
POLYLINE
  8
1
  6
CONTINUOUS
 66
     1
  0
VERTEX
  8
1
  6
CONTINUOUS
 10
94.728083
 20
25.893662
  0
VERTEX
  8
1
  6
CONTINUOUS
 10
95.125361
 20
25.940247
  0
VERTEX
  8
1
  6
CONTINUOUS
 10
95.055484
 20
26.536164
  0
VERTEX
  8
1
  6
CONTINUOUS
 10
94.658206
 20
26.489579
  0
VERTEX
  8
1
  6
CONTINUOUS
 10
94.728083
 20
25.893662
  0
SEQEND
  8
1
  6
CONTINUOUS
  0
LINE
  8
1
  6
CONTINUOUS
 10
74.436572
 20
58.380726
 11
74.436572
 21
58.380726
  0
POLYLINE
  8
1
  6
CONTINUOUS
 66
     1
  0
VERTEX
  8
1
  6
CONTINUOUS
 10
73.963347
 20
58.123707
  0
VERTEX
  8
1
  6
CONTINUOUS
 10
74.956506
 20
58.240482
  0
VERTEX
  8
1
  6
CONTINUOUS
 10
74.909796
 20
58.637745
  0
VERTEX
  8
1
  6
CONTINUOUS
 10
73.916638
 20
58.520971
  0
VERTEX
  8
1
  6
CONTINUOUS
 10
73.963347
 20
58.123707
  0
SEQEND
  8
1
  6
CONTINUOUS
  0
LINE
  8
1
  6
CONTINUOUS
 10
79.837568
 20
13.166185
 11
79.837568
 21
13.166185
  0
POLYLINE
  8
1
  6
CONTINUOUS
 66
     1
  0
VERTEX
  8
1
  6
CONTINUOUS
 10
79.463659
 20
12.920843
  0
VERTEX
  8
1
  6
CONTINUOUS
 10
80.258186
 20
13.014263
  0
VERTEX
  8
1
  6
CONTINUOUS
 10
80.211476
 20
13.411526
  0
VERTEX
  8
1
  6
CONTINUOUS
 10
79.416949
 20
13.318107
  0
VERTEX
  8
1
  6
CONTINUOUS
 10
79.463659
 20
12.920843
  0
SEQEND
  8
1
  6
CONTINUOUS
  0
LINE
  8
1
  6
CONTINUOUS
 10
9.532063
 20
28.040027
 11
9.532063
 21
28.040027
  0
POLYLINE
  8
1
  6
CONTINUOUS
 66
     1
  0
VERTEX
  8
1
  6
CONTINUOUS
 10
9.754809
 20
27.865717
  0
VERTEX
  8
1
  6
CONTINUOUS
 10
9.706373
 20
28.262773
  0
VERTEX
  8
1
  6
CONTINUOUS
 10
9.309317
 20
28.214337
  0
VERTEX
  8
1
  6
CONTINUOUS
 10
9.357753
 20
27.817281
  0
VERTEX
  8
1
  6
CONTINUOUS
 10
9.754809
 20
27.865717
  0
SEQEND
  8
1
  6
CONTINUOUS
  0
LINE
  8
1
  6
CONTINUOUS
 10
60.934524
 20
34.063865
 11
60.934524
 21
34.063865
  0
POLYLINE
  8
1
  6
CONTINUOUS
 66
     1
  0
VERTEX
  8
1
  6
CONTINUOUS
 10
61.152357
 20
33.883452
  0
VERTEX
  8
1
  6
CONTINUOUS
 10
61.114936
 20
34.281698
  0
VERTEX
  8
1
  6
CONTINUOUS
 10
60.716691
 20
34.244277
  0
VERTEX
  8
1
  6
CONTINUOUS
 10
60.754111
 20
33.846032
  0
VERTEX
  8
1
  6
CONTINUOUS
 10
61.152357
 20
33.883452
  0
SEQEND
  8
1
  6
CONTINUOUS
  0
LINE
  8
1
  6
CONTINUOUS
 10
62.662587
 20
34.275479
 11
62.662587
 21
34.275479
  0
POLYLINE
  8
1
  6
CONTINUOUS
 66
     1
  0
VERTEX
  8
1
  6
CONTINUOUS
 10
62.880421
 20
34.095066
  0
VERTEX
  8
1
  6
CONTINUOUS
 10
62.843000
 20
34.493312
  0
VERTEX
  8
1
  6
CONTINUOUS
 10
62.444754
 20
34.455891
  0
VERTEX
  8
1
  6
CONTINUOUS
 10
62.482175
 20
34.057645
  0
VERTEX
  8
1
  6
CONTINUOUS
 10
62.880421
 20
34.095066
  0
SEQEND
  8
1
  6
CONTINUOUS
  0
LINE
  8
1
  6
CONTINUOUS
 10
93.472806
 20
38.144973
 11
93.472806
 21
38.144973
  0
POLYLINE
  8
1
  6
CONTINUOUS
 66
     1
  0
VERTEX
  8
1
  6
CONTINUOUS
 10
93.332399
 20
37.625083
  0
VERTEX
  8
1
  6
CONTINUOUS
 10
93.729677
 20
37.671668
  0
VERTEX
  8
1
  6
CONTINUOUS
 10
93.613214
 20
38.664863
  0
VERTEX
  8
1
  6
CONTINUOUS
 10
93.215936
 20
38.618278
  0
VERTEX
  8
1
  6
CONTINUOUS
 10
93.332399
 20
37.625083
  0
SEQEND
  8
1
  6
CONTINUOUS
  0
LINE
  8
1
  6
CONTINUOUS
 10
95.979200
 20
17.079403
 11
95.979200
 21
17.079403
  0
POLYLINE
  8
1
  6
CONTINUOUS
 66
     1
  0
VERTEX
  8
1
  6
CONTINUOUS
 10
95.827146
 20
16.658833
  0
VERTEX
  8
1
  6
CONTINUOUS
 10
96.224424
 20
16.705418
  0
VERTEX
  8
1
  6
CONTINUOUS
 10
96.131254
 20
17.499974
  0
VERTEX
  8
1
  6
CONTINUOUS
 10
95.733976
 20
17.453389
  0
VERTEX
  8
1
  6
CONTINUOUS
 10
95.827146
 20
16.658833
  0
SEQEND
  8
1
  6
CONTINUOUS
  0
LINE
  8
1
  6
CONTINUOUS
 10
31.322744
 20
7.753956
 11
31.322744
 21
7.753956
  0
POLYLINE
  8
1
  6
CONTINUOUS
 66
     1
  0
VERTEX
  8
1
  6
CONTINUOUS
 10
30.948835
 20
7.508615
  0
VERTEX
  8
1
  6
CONTINUOUS
 10
31.743362
 20
7.602034
  0
VERTEX
  8
1
  6
CONTINUOUS
 10
31.696652
 20
7.999298
  0
VERTEX
  8
1
  6
CONTINUOUS
 10
30.902125
 20
7.905878
  0
VERTEX
  8
1
  6
CONTINUOUS
 10
30.948835
 20
7.508615
  0
SEQEND
  8
1
  6
CONTINUOUS
  0
LINE
  8
1
  6
CONTINUOUS
 10
55.385218
 20
10.313997
 11
55.385218
 21
10.313997
  0
POLYLINE
  8
1
  6
CONTINUOUS
 66
     1
  0
VERTEX
  8
1
  6
CONTINUOUS
 10
55.209941
 20
10.092010
  0
VERTEX
  8
1
  6
CONTINUOUS
 10
55.607205
 20
10.138720
  0
VERTEX
  8
1
  6
CONTINUOUS
 10
55.560495
 20
10.535983
  0
VERTEX
  8
1
  6
CONTINUOUS
 10
55.163231
 20
10.489273
  0
VERTEX
  8
1
  6
CONTINUOUS
 10
55.209941
 20
10.092010
  0
SEQEND
  8
1
  6
CONTINUOUS
  0
LINE
  8
1
  6
CONTINUOUS
 10
72.423234
 20
12.262046
 11
72.423234
 21
12.262046
  0
POLYLINE
  8
1
  6
CONTINUOUS
 66
     1
  0
VERTEX
  8
1
  6
CONTINUOUS
 10
72.049326
 20
12.016705
  0
VERTEX
  8
1
  6
CONTINUOUS
 10
72.843852
 20
12.110124
  0
VERTEX
  8
1
  6
CONTINUOUS
 10
72.797142
 20
12.507388
  0
VERTEX
  8
1
  6
CONTINUOUS
 10
72.002616
 20
12.413968
  0
VERTEX
  8
1
  6
CONTINUOUS
 10
72.049326
 20
12.016705
  0
SEQEND
  8
1
  6
CONTINUOUS
  0
LINE
  8
1
  6
CONTINUOUS
 10
24.339687
 20
52.256702
 11
24.339687
 21
52.256702
  0
POLYLINE
  8
1
  6
CONTINUOUS
 66
     1
  0
VERTEX
  8
1
  6
CONTINUOUS
 10
23.866463
 20
51.999683
  0
VERTEX
  8
1
  6
CONTINUOUS
 10
24.859621
 20
52.116458
  0
VERTEX
  8
1
  6
CONTINUOUS
 10
24.812912
 20
52.513721
  0
VERTEX
  8
1
  6
CONTINUOUS
 10
23.819753
 20
52.396946
  0
VERTEX
  8
1
  6
CONTINUOUS
 10
23.866463
 20
51.999683
  0
SEQEND
  8
1
  6
CONTINUOUS
  0
LINE
  8
1
  6
CONTINUOUS
 10
34.635213
 20
53.503313
 11
34.635213
 21
53.503313
  0
POLYLINE
  8
1
  6
CONTINUOUS
 66
     1
  0
VERTEX
  8
1
  6
CONTINUOUS
 10
34.459937
 20
53.281326
  0
VERTEX
  8
1
  6
CONTINUOUS
 10
34.857200
 20
53.328036
  0
VERTEX
  8
1
  6
CONTINUOUS
 10
34.810490
 20
53.725300
  0
VERTEX
  8
1
  6
CONTINUOUS
 10
34.413227
 20
53.678590
  0
VERTEX
  8
1
  6
CONTINUOUS
 10
34.459937
 20
53.281326
  0
SEQEND
  8
1
  6
CONTINUOUS
  0
LINE
  8
1
  6
CONTINUOUS
 10
77.363697
 20
35.994655
 11
77.363697
 21
35.994655
  0
POLYLINE
  8
1
  6
CONTINUOUS
 66
     1
  0
VERTEX
  8
1
  6
CONTINUOUS
 10
77.100677
 20
35.661757
  0
VERTEX
  8
1
  6
CONTINUOUS
 10
77.696594
 20
35.731635
  0
VERTEX
  8
1
  6
CONTINUOUS
 10
77.626716
 20
36.327552
  0
VERTEX
  8
1
  6
CONTINUOUS
 10
77.030799
 20
36.257674
  0
VERTEX
  8
1
  6
CONTINUOUS
 10
77.100677
 20
35.661757
  0
SEQEND
  8
1
  6
CONTINUOUS
  0
LINE
  8
1
  6
CONTINUOUS
 10
26.018947
 20
29.974233
 11
26.018947
 21
29.974233
  0
POLYLINE
  8
1
  6
CONTINUOUS
 66
     1
  0
VERTEX
  8
1
  6
CONTINUOUS
 10
25.755927
 20
29.641336
  0
VERTEX
  8
1
  6
CONTINUOUS
 10
26.351844
 20
29.711214
  0
VERTEX
  8
1
  6
CONTINUOUS
 10
26.281966
 20
30.307131
  0
VERTEX
  8
1
  6
CONTINUOUS
 10
25.686049
 20
30.237253
  0
VERTEX
  8
1
  6
CONTINUOUS
 10
25.755927
 20
29.641336
  0
SEQEND
  8
1
  6
CONTINUOUS
  0
LINE
  8
1
  6
CONTINUOUS
 10
45.684367
 20
32.280119
 11
45.684367
 21
32.280119
  0
POLYLINE
  8
1
  6
CONTINUOUS
 66
     1
  0
VERTEX
  8
1
  6
CONTINUOUS
 10
45.421348
 20
31.947222
  0
VERTEX
  8
1
  6
CONTINUOUS
 10
46.017265
 20
32.017100
  0
VERTEX
  8
1
  6
CONTINUOUS
 10
45.947387
 20
32.613017
  0
VERTEX
  8
1
  6
CONTINUOUS
 10
45.351470
 20
32.543139
  0
VERTEX
  8
1
  6
CONTINUOUS
 10
45.421348
 20
31.947222
  0
SEQEND
  8
1
  6
CONTINUOUS
  0
LINE
  8
1
  6
CONTINUOUS
 10
91.008356
 20
58.848066
 11
91.008356
 21
58.848066
  0
POLYLINE
  8
1
  6
CONTINUOUS
 66
     1
  0
VERTEX
  8
1
  6
CONTINUOUS
 10
90.856302
 20
58.427496
  0
VERTEX
  8
1
  6
CONTINUOUS
 10
91.253580
 20
58.474081
  0
VERTEX
  8
1
  6
CONTINUOUS
 10
91.160410
 20
59.268637
  0
VERTEX
  8
1
  6
CONTINUOUS
 10
90.763132
 20
59.222052
  0
VERTEX
  8
1
  6
CONTINUOUS
 10
90.856302
 20
58.427496
  0
SEQEND
  8
1
  6
CONTINUOUS
  0
LINE
  8
1
  6
CONTINUOUS
 10
16.066088
 20
51.253331
 11
16.066088
 21
51.253331
  0
POLYLINE
  8
1
  6
CONTINUOUS
 66
     1
  0
VERTEX
  8
1
  6
CONTINUOUS
 10
15.791495
 20
51.019667
  0
VERTEX
  8
1
  6
CONTINUOUS
 10
16.387390
 20
51.089732
  0
VERTEX
  8
1
  6
CONTINUOUS
 10
16.340680
 20
51.486995
  0
VERTEX
  8
1
  6
CONTINUOUS
 10
15.744785
 20
51.416930
  0
VERTEX
  8
1
  6
CONTINUOUS
 10
15.791495
 20
51.019667
  0
SEQEND
  8
1
  6
CONTINUOUS
  0
LINE
  8
1
  6
CONTINUOUS
 10
84.804270
 20
25.034803
 11
84.804270
 21
25.034803
  0
POLYLINE
  8
1
  6
CONTINUOUS
 66
     1
  0
VERTEX
  8
1
  6
CONTINUOUS
 10
84.541251
 20
24.701905
  0
VERTEX
  8
1
  6
CONTINUOUS
 10
85.137168
 20
24.771783
  0
VERTEX
  8
1
  6
CONTINUOUS
 10
85.067290
 20
25.367700
  0
VERTEX
  8
1
  6
CONTINUOUS
 10
84.471373
 20
25.297822
  0
VERTEX
  8
1
  6
CONTINUOUS
 10
84.541251
 20
24.701905
  0
SEQEND
  8
1
  6
CONTINUOUS
  0
LINE
  8
1
  6
CONTINUOUS
 10
58.203145
 20
55.711220
 11
58.650710
 21
56.169819
  0
LINE
  8
1
  6
CONTINUOUS
 10
58.201818
 20
56.159061
 11
58.641369
 21
55.708674
  0
LINE
  8
1
  6
CONTINUOUS
 10
95.481148
 20
15.339564
 11
95.930057
 21
15.788629
  0
LINE
  8
1
  6
CONTINUOUS
 10
95.481113
 20
15.788644
 11
95.929917
 21
15.339683
  0
LINE
  8
1
  6
CONTINUOUS
 10
12.422036
 20
6.000222
 11
12.871046
 21
6.448417
  0
LINE
  8
1
  6
CONTINUOUS
 10
12.422109
 20
6.449241
 11
12.878563
 21
5.993615
  0
LINE
  8
1
  6
CONTINUOUS
 10
60.817275
 20
56.122141
 11
61.277818
 21
56.582150
  0
LINE
  8
1
  6
CONTINUOUS
 10
60.826823
 20
56.583720
 11
61.275991
 21
56.135074
  0
LINE
  8
1
  6
CONTINUOUS
 10
64.993836
 20
11.610922
 11
65.437957
 21
12.136882
  0
LINE
  8
1
  6
CONTINUOUS
 10
64.989450
 20
12.158467
 11
65.452376
 21
11.610237
  0
LINE
  8
1
  6
CONTINUOUS
 10
7.168190
 20
49.067136
 11
7.579941
 21
49.820674
  0
LINE
  8
1
  6
CONTINUOUS
 10
7.090145
 20
49.963445
 11
7.657807
 21
48.924578
  0
LINE
  8
4
  6
CONTINUOUS
 10
9.201752
 20
40.695191
 11
8.307876
 21
40.590374
  0
LINE
  8
4
  6
CONTINUOUS
 10
8.739091
 20
40.776864
 11
8.770536
 21
40.508701
  0
LINE
  8
4
  6
CONTINUOUS
 10
8.649704
 20
40.766382
 11
8.681149
 21
40.498220
  0
LINE
  8
4
  6
CONTINUOUS
 10
8.560316
 20
40.755901
 11
8.591761
 21
40.487738
  0
LINE
  8
4
  6
CONTINUOUS
 10
8.470929
 20
40.745419
 11
8.502374
 21
40.477256
  0
LINE
  8
4
  6
CONTINUOUS
 10
8.300015
 20
40.657415
 11
8.315737
 21
40.523334
  0
LINE
  8
4
  6
CONTINUOUS
 10
8.300015
 20
40.657415
 11
7.414000
 21
40.485558
  0
LINE
  8
4
  6
CONTINUOUS
 10
8.315737
 20
40.523334
 11
7.414000
 21
40.485558
  0
LINE
  8
4
  6
CONTINUOUS
 10
58.439044
 20
46.468789
 11
59.630878
 21
46.608544
  0
LINE
  8
4
  6
CONTINUOUS
 10
59.644854
 20
46.489361
 11
59.616902
 21
46.727728
  0
LINE
  8
4
  6
CONTINUOUS
 10
59.621017
 20
46.486566
 11
59.593066
 21
46.724933
  0
LINE
  8
4
  6
CONTINUOUS
 10
59.597180
 20
46.483771
 11
59.569229
 21
46.722138
  0
POLYLINE
  8
4
  6
CONTINUOUS
 66
     1
  0
VERTEX
  8
4
  6
CONTINUOUS
 10
58.439044
 20
46.468789
  0
VERTEX
  8
4
  6
CONTINUOUS
 10
9.201752
 20
40.695191
  0
SEQEND
  8
4
  6
CONTINUOUS
  0
LINE
  8
4
  6
CONTINUOUS
 10
9.257654
 20
40.218457
 11
8.363778
 21
40.113641
  0
LINE
  8
4
  6
CONTINUOUS
 10
8.794993
 20
40.300130
 11
8.826438
 21
40.031968
  0
LINE
  8
4
  6
CONTINUOUS
 10
8.705606
 20
40.289649
 11
8.737051
 21
40.021486
  0
LINE
  8
4
  6
CONTINUOUS
 10
8.616218
 20
40.279167
 11
8.647663
 21
40.011004
  0
LINE
  8
4
  6
CONTINUOUS
 10
8.526831
 20
40.268685
 11
8.558276
 21
40.000523
  0
LINE
  8
4
  6
CONTINUOUS
 10
8.355917
 20
40.180681
 11
8.371639
 21
40.046600
  0
LINE
  8
4
  6
CONTINUOUS
 10
8.355917
 20
40.180681
 11
7.469903
 21
40.008824
  0
LINE
  8
4
  6
CONTINUOUS
 10
8.371639
 20
40.046600
 11
7.469903
 21
40.008824
  0
LINE
  8
4
  6
CONTINUOUS
 10
58.494946
 20
45.992055
 11
59.686780
 21
46.131811
  0
LINE
  8
4
  6
CONTINUOUS
 10
59.700756
 20
46.012627
 11
59.672805
 21
46.250994
  0
LINE
  8
4
  6
CONTINUOUS
 10
59.676919
 20
46.009832
 11
59.648968
 21
46.248199
  0
LINE
  8
4
  6
CONTINUOUS
 10
59.653082
 20
46.007037
 11
59.625131
 21
46.245404
  0
POLYLINE
  8
4
  6
CONTINUOUS
 66
     1
  0
VERTEX
  8
4
  6
CONTINUOUS
 10
58.494946
 20
45.992055
  0
VERTEX
  8
4
  6
CONTINUOUS
 10
9.257654
 20
40.218457
  0
SEQEND
  8
4
  6
CONTINUOUS
  0
LINE
  8
4
  6
CONTINUOUS
 10
9.313556
 20
39.741724
 11
8.419680
 21
39.636907
  0
LINE
  8
4
  6
CONTINUOUS
 10
8.850896
 20
39.823397
 11
8.882340
 21
39.555234
  0
LINE
  8
4
  6
CONTINUOUS
 10
8.761508
 20
39.812915
 11
8.792953
 21
39.544752
  0
LINE
  8
4
  6
CONTINUOUS
 10
8.672120
 20
39.802433
 11
8.703565
 21
39.534271
  0
LINE
  8
4
  6
CONTINUOUS
 10
8.582733
 20
39.791952
 11
8.614178
 21
39.523789
  0
LINE
  8
4
  6
CONTINUOUS
 10
8.411819
 20
39.703948
 11
8.427541
 21
39.569866
  0
LINE
  8
4
  6
CONTINUOUS
 10
8.411819
 20
39.703948
 11
7.525805
 21
39.532091
  0
LINE
  8
4
  6
CONTINUOUS
 10
8.427541
 20
39.569866
 11
7.525805
 21
39.532091
  0
LINE
  8
4
  6
CONTINUOUS
 10
58.550848
 20
45.515322
 11
59.742682
 21
45.655077
  0
LINE
  8
4
  6
CONTINUOUS
 10
59.756658
 20
45.535894
 11
59.728707
 21
45.774261
  0
LINE
  8
4
  6
CONTINUOUS
 10
59.732821
 20
45.533099
 11
59.704870
 21
45.771465
  0
LINE
  8
4
  6
CONTINUOUS
 10
59.708984
 20
45.530303
 11
59.681033
 21
45.768670
  0
POLYLINE
  8
4
  6
CONTINUOUS
 66
     1
  0
VERTEX
  8
4
  6
CONTINUOUS
 10
58.550848
 20
45.515322
  0
VERTEX
  8
4
  6
CONTINUOUS
 10
9.313556
 20
39.741724
  0
SEQEND
  8
4
  6
CONTINUOUS
  0
LINE
  8
4
  6
CONTINUOUS
 10
9.369458
 20
39.264990
 11
8.475582
 21
39.160174
  0
LINE
  8
4
  6
CONTINUOUS
 10
8.906798
 20
39.346663
 11
8.938243
 21
39.078500
  0
LINE
  8
4
  6
CONTINUOUS
 10
8.817410
 20
39.336181
 11
8.848855
 21
39.068019
  0
LINE
  8
4
  6
CONTINUOUS
 10
8.728022
 20
39.325700
 11
8.759467
 21
39.057537
  0
LINE
  8
4
  6
CONTINUOUS
 10
8.638635
 20
39.315218
 11
8.670080
 21
39.047055
  0
LINE
  8
4
  6
CONTINUOUS
 10
8.467721
 20
39.227214
 11
8.483444
 21
39.093133
  0
LINE
  8
4
  6
CONTINUOUS
 10
8.467721
 20
39.227214
 11
7.581707
 21
39.055357
  0
LINE
  8
4
  6
CONTINUOUS
 10
8.483444
 20
39.093133
 11
7.581707
 21
39.055357
  0
LINE
  8
4
  6
CONTINUOUS
 10
58.606750
 20
45.038588
 11
59.798584
 21
45.178343
  0
LINE
  8
4
  6
CONTINUOUS
 10
59.812560
 20
45.059160
 11
59.784609
 21
45.297527
  0
LINE
  8
4
  6
CONTINUOUS
 10
59.788723
 20
45.056365
 11
59.760772
 21
45.294732
  0
LINE
  8
4
  6
CONTINUOUS
 10
59.764886
 20
45.053570
 11
59.736935
 21
45.291937
  0
POLYLINE
  8
4
  6
CONTINUOUS
 66
     1
  0
VERTEX
  8
4
  6
CONTINUOUS
 10
58.606750
 20
45.038588
  0
VERTEX
  8
4
  6
CONTINUOUS
 10
9.369458
 20
39.264990
  0
SEQEND
  8
4
  6
CONTINUOUS
  0
LINE
  8
4
  6
CONTINUOUS
 10
9.425360
 20
38.788256
 11
8.531484
 21
38.683440
  0
LINE
  8
4
  6
CONTINUOUS
 10
8.962700
 20
38.869929
 11
8.994145
 21
38.601767
  0
LINE
  8
4
  6
CONTINUOUS
 10
8.873312
 20
38.859448
 11
8.904757
 21
38.591285
  0
LINE
  8
4
  6
CONTINUOUS
 10
8.783925
 20
38.848966
 11
8.815370
 21
38.580803
  0
LINE
  8
4
  6
CONTINUOUS
 10
8.694537
 20
38.838485
 11
8.725982
 21
38.570322
  0
LINE
  8
4
  6
CONTINUOUS
 10
8.523623
 20
38.750481
 11
8.539346
 21
38.616399
  0
LINE
  8
4
  6
CONTINUOUS
 10
8.523623
 20
38.750481
 11
7.637609
 21
38.578623
  0
LINE
  8
4
  6
CONTINUOUS
 10
8.539346
 20
38.616399
 11
7.637609
 21
38.578623
  0
LINE
  8
4
  6
CONTINUOUS
 10
58.662652
 20
44.561855
 11
59.854486
 21
44.701610
  0
LINE
  8
4
  6
CONTINUOUS
 10
59.868462
 20
44.582426
 11
59.840511
 21
44.820793
  0
LINE
  8
4
  6
CONTINUOUS
 10
59.844625
 20
44.579631
 11
59.816674
 21
44.817998
  0
LINE
  8
4
  6
CONTINUOUS
 10
59.820789
 20
44.576836
 11
59.792838
 21
44.815203
  0
POLYLINE
  8
4
  6
CONTINUOUS
 66
     1
  0
VERTEX
  8
4
  6
CONTINUOUS
 10
58.662652
 20
44.561855
  0
VERTEX
  8
4
  6
CONTINUOUS
 10
9.425360
 20
38.788256
  0
SEQEND
  8
4
  6
CONTINUOUS
  0
LINE
  8
4
  6
CONTINUOUS
 10
10.706645
 20
29.185554
 11
9.514811
 21
29.045799
  0
LINE
  8
4
  6
CONTINUOUS
 10
9.500835
 20
29.164982
 11
9.528786
 21
28.926615
  0
LINE
  8
4
  6
CONTINUOUS
 10
9.524672
 20
29.167777
 11
9.552623
 21
28.929410
  0
LINE
  8
4
  6
CONTINUOUS
 10
9.548508
 20
29.170572
 11
9.576460
 21
28.932205
  0
LINE
  8
4
  6
CONTINUOUS
 10
59.625749
 20
34.921841
 11
60.519624
 21
35.026658
  0
LINE
  8
4
  6
CONTINUOUS
 10
60.088409
 20
34.840168
 11
60.056964
 21
35.108331
  0
LINE
  8
4
  6
CONTINUOUS
 10
60.177796
 20
34.850650
 11
60.146351
 21
35.118812
  0
LINE
  8
4
  6
CONTINUOUS
 10
60.267184
 20
34.861131
 11
60.235739
 21
35.129294
  0
LINE
  8
4
  6
CONTINUOUS
 10
60.356572
 20
34.871613
 11
60.325127
 21
35.139776
  0
LINE
  8
4
  6
CONTINUOUS
 10
60.527485
 20
34.959617
 11
60.511763
 21
35.093698
  0
LINE
  8
4
  6
CONTINUOUS
 10
60.527485
 20
34.959617
 11
61.413500
 21
35.131474
  0
LINE
  8
4
  6
CONTINUOUS
 10
60.511763
 20
35.093698
 11
61.413500
 21
35.131474
  0
POLYLINE
  8
4
  6
CONTINUOUS
 66
     1
  0
VERTEX
  8
4
  6
CONTINUOUS
 10
10.706645
 20
29.185554
  0
VERTEX
  8
4
  6
CONTINUOUS
 10
59.625749
 20
34.921841
  0
SEQEND
  8
4
  6
CONTINUOUS
  0
LINE
  8
4
  6
CONTINUOUS
 10
10.753230
 20
28.788276
 11
9.561396
 21
28.648521
  0
LINE
  8
4
  6
CONTINUOUS
 10
9.547420
 20
28.767704
 11
9.575371
 21
28.529337
  0
LINE
  8
4
  6
CONTINUOUS
 10
9.571257
 20
28.770499
 11
9.599208
 21
28.532132
  0
LINE
  8
4
  6
CONTINUOUS
 10
9.595094
 20
28.773294
 11
9.623045
 21
28.534927
  0
LINE
  8
4
  6
CONTINUOUS
 10
59.672334
 20
34.524563
 11
60.566209
 21
34.629380
  0
LINE
  8
4
  6
CONTINUOUS
 10
60.134994
 20
34.442890
 11
60.103549
 21
34.711053
  0
LINE
  8
4
  6
CONTINUOUS
 10
60.224381
 20
34.453372
 11
60.192937
 21
34.721534
  0
LINE
  8
4
  6
CONTINUOUS
 10
60.313769
 20
34.463853
 11
60.282324
 21
34.732016
  0
LINE
  8
4
  6
CONTINUOUS
 10
60.403157
 20
34.474335
 11
60.371712
 21
34.742498
  0
LINE
  8
4
  6
CONTINUOUS
 10
60.574070
 20
34.562339
 11
60.558348
 21
34.696420
  0
LINE
  8
4
  6
CONTINUOUS
 10
60.574070
 20
34.562339
 11
61.460085
 21
34.734196
  0
LINE
  8
4
  6
CONTINUOUS
 10
60.558348
 20
34.696420
 11
61.460085
 21
34.734196
  0
POLYLINE
  8
4
  6
CONTINUOUS
 66
     1
  0
VERTEX
  8
4
  6
CONTINUOUS
 10
10.753230
 20
28.788276
  0
VERTEX
  8
4
  6
CONTINUOUS
 10
59.672334
 20
34.524563
  0
SEQEND
  8
4
  6
CONTINUOUS
  0
LINE
  8
4
  6
CONTINUOUS
 10
10.799815
 20
28.390998
 11
9.607981
 21
28.251243
  0
LINE
  8
4
  6
CONTINUOUS
 10
9.594005
 20
28.370426
 11
9.621956
 21
28.132059
  0
LINE
  8
4
  6
CONTINUOUS
 10
9.617842
 20
28.373221
 11
9.645793
 21
28.134854
  0
LINE
  8
4
  6
CONTINUOUS
 10
9.641679
 20
28.376016
 11
9.669630
 21
28.137649
  0
LINE
  8
4
  6
CONTINUOUS
 10
59.718919
 20
34.127285
 11
60.612794
 21
34.232102
  0
LINE
  8
4
  6
CONTINUOUS
 10
60.181579
 20
34.045612
 11
60.150134
 21
34.313775
  0
LINE
  8
4
  6
CONTINUOUS
 10
60.270967
 20
34.056094
 11
60.239522
 21
34.324256
  0
LINE
  8
4
  6
CONTINUOUS
 10
60.360354
 20
34.066575
 11
60.328909
 21
34.334738
  0
LINE
  8
4
  6
CONTINUOUS
 10
60.449742
 20
34.077057
 11
60.418297
 21
34.345220
  0
LINE
  8
4
  6
CONTINUOUS
 10
60.620656
 20
34.165061
 11
60.604933
 21
34.299142
  0
LINE
  8
4
  6
CONTINUOUS
 10
60.620656
 20
34.165061
 11
61.506670
 21
34.336918
  0
LINE
  8
4
  6
CONTINUOUS
 10
60.604933
 20
34.299142
 11
61.506670
 21
34.336918
  0
POLYLINE
  8
4
  6
CONTINUOUS
 66
     1
  0
VERTEX
  8
4
  6
CONTINUOUS
 10
10.799815
 20
28.390998
  0
VERTEX
  8
4
  6
CONTINUOUS
 10
59.718919
 20
34.127285
  0
SEQEND
  8
4
  6
CONTINUOUS
  0
LINE
  8
4
  6
CONTINUOUS
 10
10.846400
 20
27.993720
 11
9.654566
 21
27.853965
  0
LINE
  8
4
  6
CONTINUOUS
 10
9.640590
 20
27.973148
 11
9.668541
 21
27.734781
  0
LINE
  8
4
  6
CONTINUOUS
 10
9.664427
 20
27.975943
 11
9.692378
 21
27.737576
  0
LINE
  8
4
  6
CONTINUOUS
 10
9.688264
 20
27.978738
 11
9.716215
 21
27.740371
  0
LINE
  8
4
  6
CONTINUOUS
 10
59.765504
 20
33.730007
 11
60.659379
 21
33.834824
  0
LINE
  8
4
  6
CONTINUOUS
 10
60.228164
 20
33.648334
 11
60.196719
 21
33.916497
  0
LINE
  8
4
  6
CONTINUOUS
 10
60.317552
 20
33.658816
 11
60.286107
 21
33.926978
  0
LINE
  8
4
  6
CONTINUOUS
 10
60.406939
 20
33.669297
 11
60.375494
 21
33.937460
  0
LINE
  8
4
  6
CONTINUOUS
 10
60.496327
 20
33.679779
 11
60.464882
 21
33.947942
  0
LINE
  8
4
  6
CONTINUOUS
 10
60.667241
 20
33.767783
 11
60.651518
 21
33.901864
  0
LINE
  8
4
  6
CONTINUOUS
 10
60.667241
 20
33.767783
 11
61.553255
 21
33.939640
  0
LINE
  8
4
  6
CONTINUOUS
 10
60.651518
 20
33.901864
 11
61.553255
 21
33.939640
  0
POLYLINE
  8
4
  6
CONTINUOUS
 66
     1
  0
VERTEX
  8
4
  6
CONTINUOUS
 10
10.846400
 20
27.993720
  0
VERTEX
  8
4
  6
CONTINUOUS
 10
59.765504
 20
33.730007
  0
SEQEND
  8
4
  6
CONTINUOUS
  0
LINE
  8
4
  6
CONTINUOUS
 10
10.892985
 20
27.596442
 11
9.701151
 21
27.456687
  0
LINE
  8
4
  6
CONTINUOUS
 10
9.687175
 20
27.575870
 11
9.715127
 21
27.337503
  0
LINE
  8
4
  6
CONTINUOUS
 10
9.711012
 20
27.578665
 11
9.738963
 21
27.340298
  0
LINE
  8
4
  6
CONTINUOUS
 10
9.734849
 20
27.581460
 11
9.762800
 21
27.343093
  0
LINE
  8
4
  6
CONTINUOUS
 10
59.812089
 20
33.332729
 11
60.705965
 21
33.437546
  0
LINE
  8
4
  6
CONTINUOUS
 10
60.274749
 20
33.251056
 11
60.243304
 21
33.519219
  0
LINE
  8
4
  6
CONTINUOUS
 10
60.364137
 20
33.261538
 11
60.332692
 21
33.529700
  0
LINE
  8
4
  6
CONTINUOUS
 10
60.453524
 20
33.272019
 11
60.422079
 21
33.540182
  0
LINE
  8
4
  6
CONTINUOUS
 10
60.542912
 20
33.282501
 11
60.511467
 21
33.550664
  0
LINE
  8
4
  6
CONTINUOUS
 10
60.713826
 20
33.370505
 11
60.698103
 21
33.504586
  0
LINE
  8
4
  6
CONTINUOUS
 10
60.713826
 20
33.370505
 11
61.599840
 21
33.542362
  0
LINE
  8
4
  6
CONTINUOUS
 10
60.698103
 20
33.504586
 11
61.599840
 21
33.542362
  0
POLYLINE
  8
4
  6
CONTINUOUS
 66
     1
  0
VERTEX
  8
4
  6
CONTINUOUS
 10
10.892985
 20
27.596442
  0
VERTEX
  8
4
  6
CONTINUOUS
 10
59.812089
 20
33.332729
  0
SEQEND
  8
4
  6
CONTINUOUS
  0
LINE
  8
4
  6
CONTINUOUS
 10
10.939570
 20
27.199164
 11
9.747736
 21
27.059409
  0
LINE
  8
4
  6
CONTINUOUS
 10
9.733761
 20
27.178592
 11
9.761712
 21
26.940225
  0
LINE
  8
4
  6
CONTINUOUS
 10
9.757597
 20
27.181387
 11
9.785548
 21
26.943020
  0
LINE
  8
4
  6
CONTINUOUS
 10
9.781434
 20
27.184182
 11
9.809385
 21
26.945815
  0
LINE
  8
4
  6
CONTINUOUS
 10
59.858674
 20
32.935451
 11
60.752550
 21
33.040267
  0
LINE
  8
4
  6
CONTINUOUS
 10
60.321334
 20
32.853778
 11
60.289889
 21
33.121941
  0
LINE
  8
4
  6
CONTINUOUS
 10
60.410722
 20
32.864260
 11
60.379277
 21
33.132422
  0
LINE
  8
4
  6
CONTINUOUS
 10
60.500109
 20
32.874741
 11
60.468664
 21
33.142904
  0
LINE
  8
4
  6
CONTINUOUS
 10
60.589497
 20
32.885223
 11
60.558052
 21
33.153386
  0
LINE
  8
4
  6
CONTINUOUS
 10
60.760411
 20
32.973227
 11
60.744688
 21
33.107308
  0
LINE
  8
4
  6
CONTINUOUS
 10
60.760411
 20
32.973227
 11
61.646425
 21
33.145084
  0
LINE
  8
4
  6
CONTINUOUS
 10
60.744688
 20
33.107308
 11
61.646425
 21
33.145084
  0
POLYLINE
  8
4
  6
CONTINUOUS
 66
     1
  0
VERTEX
  8
4
  6
CONTINUOUS
 10
10.939570
 20
27.199164
  0
VERTEX
  8
4
  6
CONTINUOUS
 10
59.858674
 20
32.935451
  0
SEQEND
  8
4
  6
CONTINUOUS
  0
LINE
  8
4
  6
CONTINUOUS
 10
12.030590
 20
17.508487
 11
11.136714
 21
17.403670
  0
LINE
  8
4
  6
CONTINUOUS
 10
11.567930
 20
17.590160
 11
11.599375
 21
17.321997
  0
LINE
  8
4
  6
CONTINUOUS
 10
11.478542
 20
17.579678
 11
11.509987
 21
17.311515
  0
LINE
  8
4
  6
CONTINUOUS
 10
11.389155
 20
17.569196
 11
11.420599
 21
17.301034
  0
LINE
  8
4
  6
CONTINUOUS
 10
11.299767
 20
17.558715
 11
11.331212
 21
17.290552
  0
LINE
  8
4
  6
CONTINUOUS
 10
11.128853
 20
17.470711
 11
11.144576
 21
17.336629
  0
LINE
  8
4
  6
CONTINUOUS
 10
11.128853
 20
17.470711
 11
10.242839
 21
17.298854
  0
LINE
  8
4
  6
CONTINUOUS
 10
11.144576
 20
17.336629
 11
10.242839
 21
17.298854
  0
LINE
  8
4
  6
CONTINUOUS
 10
60.632825
 20
23.207618
 11
61.824659
 21
23.347373
  0
LINE
  8
4
  6
CONTINUOUS
 10
61.838635
 20
23.228189
 11
61.810683
 21
23.466556
  0
LINE
  8
4
  6
CONTINUOUS
 10
61.814798
 20
23.225394
 11
61.786847
 21
23.463761
  0
LINE
  8
4
  6
CONTINUOUS
 10
61.790961
 20
23.222599
 11
61.763010
 21
23.460966
  0
POLYLINE
  8
4
  6
CONTINUOUS
 66
     1
  0
VERTEX
  8
4
  6
CONTINUOUS
 10
60.632825
 20
23.207618
  0
VERTEX
  8
4
  6
CONTINUOUS
 10
12.030590
 20
17.508487
  0
SEQEND
  8
4
  6
CONTINUOUS
  0
LINE
  8
4
  6
CONTINUOUS
 10
12.077175
 20
17.111209
 11
11.183299
 21
17.006392
  0
LINE
  8
4
  6
CONTINUOUS
 10
11.614515
 20
17.192882
 11
11.645960
 21
16.924719
  0
LINE
  8
4
  6
CONTINUOUS
 10
11.525127
 20
17.182400
 11
11.556572
 21
16.914237
  0
LINE
  8
4
  6
CONTINUOUS
 10
11.435740
 20
17.171918
 11
11.467185
 21
16.903756
  0
LINE
  8
4
  6
CONTINUOUS
 10
11.346352
 20
17.161437
 11
11.377797
 21
16.893274
  0
LINE
  8
4
  6
CONTINUOUS
 10
11.175438
 20
17.073433
 11
11.191161
 21
16.939351
  0
LINE
  8
4
  6
CONTINUOUS
 10
11.175438
 20
17.073433
 11
10.289424
 21
16.901576
  0
LINE
  8
4
  6
CONTINUOUS
 10
11.191161
 20
16.939351
 11
10.289424
 21
16.901576
  0
LINE
  8
4
  6
CONTINUOUS
 10
60.679410
 20
22.810340
 11
61.871244
 21
22.950095
  0
LINE
  8
4
  6
CONTINUOUS
 10
61.885220
 20
22.830911
 11
61.857269
 21
23.069278
  0
LINE
  8
4
  6
CONTINUOUS
 10
61.861383
 20
22.828116
 11
61.833432
 21
23.066483
  0
LINE
  8
4
  6
CONTINUOUS
 10
61.837546
 20
22.825321
 11
61.809595
 21
23.063688
  0
POLYLINE
  8
4
  6
CONTINUOUS
 66
     1
  0
VERTEX
  8
4
  6
CONTINUOUS
 10
60.679410
 20
22.810340
  0
VERTEX
  8
4
  6
CONTINUOUS
 10
12.077175
 20
17.111209
  0
SEQEND
  8
4
  6
CONTINUOUS
  0
LINE
  8
4
  6
CONTINUOUS
 10
12.123760
 20
16.713931
 11
11.229885
 21
16.609114
  0
LINE
  8
4
  6
CONTINUOUS
 10
11.661100
 20
16.795604
 11
11.692545
 21
16.527441
  0
LINE
  8
4
  6
CONTINUOUS
 10
11.571712
 20
16.785122
 11
11.603157
 21
16.516959
  0
LINE
  8
4
  6
CONTINUOUS
 10
11.482325
 20
16.774640
 11
11.513770
 21
16.506478
  0
LINE
  8
4
  6
CONTINUOUS
 10
11.392937
 20
16.764159
 11
11.424382
 21
16.495996
  0
LINE
  8
4
  6
CONTINUOUS
 10
11.222023
 20
16.676155
 11
11.237746
 21
16.542073
  0
LINE
  8
4
  6
CONTINUOUS
 10
11.222023
 20
16.676155
 11
10.336009
 21
16.504298
  0
LINE
  8
4
  6
CONTINUOUS
 10
11.237746
 20
16.542073
 11
10.336009
 21
16.504298
  0
LINE
  8
4
  6
CONTINUOUS
 10
60.725995
 20
22.413062
 11
61.917829
 21
22.552817
  0
LINE
  8
4
  6
CONTINUOUS
 10
61.931805
 20
22.433633
 11
61.903854
 21
22.672000
  0
LINE
  8
4
  6
CONTINUOUS
 10
61.907968
 20
22.430838
 11
61.880017
 21
22.669205
  0
LINE
  8
4
  6
CONTINUOUS
 10
61.884131
 20
22.428043
 11
61.856180
 21
22.666410
  0
POLYLINE
  8
4
  6
CONTINUOUS
 66
     1
  0
VERTEX
  8
4
  6
CONTINUOUS
 10
60.725995
 20
22.413062
  0
VERTEX
  8
4
  6
CONTINUOUS
 10
12.123760
 20
16.713931
  0
SEQEND
  8
4
  6
CONTINUOUS
  0
LINE
  8
4
  6
CONTINUOUS
 10
12.170345
 20
16.316653
 11
11.276470
 21
16.211836
  0
LINE
  8
4
  6
CONTINUOUS
 10
11.707685
 20
16.398326
 11
11.739130
 21
16.130163
  0
LINE
  8
4
  6
CONTINUOUS
 10
11.618297
 20
16.387844
 11
11.649742
 21
16.119681
  0
LINE
  8
4
  6
CONTINUOUS
 10
11.528910
 20
16.377362
 11
11.560355
 21
16.109200
  0
LINE
  8
4
  6
CONTINUOUS
 10
11.439522
 20
16.366881
 11
11.470967
 21
16.098718
  0
LINE
  8
4
  6
CONTINUOUS
 10
11.268608
 20
16.278877
 11
11.284331
 21
16.144795
  0
LINE
  8
4
  6
CONTINUOUS
 10
11.268608
 20
16.278877
 11
10.382594
 21
16.107020
  0
LINE
  8
4
  6
CONTINUOUS
 10
11.284331
 20
16.144795
 11
10.382594
 21
16.107020
  0
LINE
  8
4
  6
CONTINUOUS
 10
60.772580
 20
22.015783
 11
61.964414
 21
22.155539
  0
LINE
  8
4
  6
CONTINUOUS
 10
61.978390
 20
22.036355
 11
61.950439
 21
22.274722
  0
LINE
  8
4
  6
CONTINUOUS
 10
61.954553
 20
22.033560
 11
61.926602
 21
22.271927
  0
LINE
  8
4
  6
CONTINUOUS
 10
61.930716
 20
22.030765
 11
61.902765
 21
22.269132
  0
POLYLINE
  8
4
  6
CONTINUOUS
 66
     1
  0
VERTEX
  8
4
  6
CONTINUOUS
 10
60.772580
 20
22.015783
  0
VERTEX
  8
4
  6
CONTINUOUS
 10
12.170345
 20
16.316653
  0
SEQEND
  8
4
  6
CONTINUOUS
  0
LINE
  8
4
  6
CONTINUOUS
 10
12.216930
 20
15.919374
 11
11.323055
 21
15.814558
  0
LINE
  8
4
  6
CONTINUOUS
 10
11.754270
 20
16.001048
 11
11.785715
 21
15.732885
  0
LINE
  8
4
  6
CONTINUOUS
 10
11.664882
 20
15.990566
 11
11.696327
 21
15.722403
  0
LINE
  8
4
  6
CONTINUOUS
 10
11.575495
 20
15.980084
 11
11.606940
 21
15.711922
  0
LINE
  8
4
  6
CONTINUOUS
 10
11.486107
 20
15.969603
 11
11.517552
 21
15.701440
  0
LINE
  8
4
  6
CONTINUOUS
 10
11.315193
 20
15.881599
 11
11.330916
 21
15.747517
  0
LINE
  8
4
  6
CONTINUOUS
 10
11.315193
 20
15.881599
 11
10.429179
 21
15.709742
  0
LINE
  8
4
  6
CONTINUOUS
 10
11.330916
 20
15.747517
 11
10.429179
 21
15.709742
  0
LINE
  8
4
  6
CONTINUOUS
 10
60.819165
 20
21.618505
 11
62.010999
 21
21.758261
  0
LINE
  8
4
  6
CONTINUOUS
 10
62.024975
 20
21.639077
 11
61.997024
 21
21.877444
  0
LINE
  8
4
  6
CONTINUOUS
 10
62.001138
 20
21.636282
 11
61.973187
 21
21.874649
  0
LINE
  8
4
  6
CONTINUOUS
 10
61.977302
 20
21.633487
 11
61.949350
 21
21.871854
  0
POLYLINE
  8
4
  6
CONTINUOUS
 66
     1
  0
VERTEX
  8
4
  6
CONTINUOUS
 10
60.819165
 20
21.618505
  0
VERTEX
  8
4
  6
CONTINUOUS
 10
12.216930
 20
15.919374
  0
SEQEND
  8
4
  6
CONTINUOUS
  0
LINE
  8
4
  6
CONTINUOUS
 10
12.263515
 20
15.522096
 11
11.369640
 21
15.417280
  0
LINE
  8
4
  6
CONTINUOUS
 10
11.800855
 20
15.603770
 11
11.832300
 21
15.335607
  0
LINE
  8
4
  6
CONTINUOUS
 10
11.711468
 20
15.593288
 11
11.742912
 21
15.325125
  0
LINE
  8
4
  6
CONTINUOUS
 10
11.622080
 20
15.582806
 11
11.653525
 21
15.314644
  0
LINE
  8
4
  6
CONTINUOUS
 10
11.532692
 20
15.572325
 11
11.564137
 21
15.304162
  0
LINE
  8
4
  6
CONTINUOUS
 10
11.361779
 20
15.484321
 11
11.377501
 21
15.350239
  0
LINE
  8
4
  6
CONTINUOUS
 10
11.361779
 20
15.484321
 11
10.475764
 21
15.312464
  0
LINE
  8
4
  6
CONTINUOUS
 10
11.377501
 20
15.350239
 11
10.475764
 21
15.312464
  0
LINE
  8
4
  6
CONTINUOUS
 10
60.865750
 20
21.221227
 11
62.057584
 21
21.360983
  0
LINE
  8
4
  6
CONTINUOUS
 10
62.071560
 20
21.241799
 11
62.043609
 21
21.480166
  0
LINE
  8
4
  6
CONTINUOUS
 10
62.047723
 20
21.239004
 11
62.019772
 21
21.477371
  0
LINE
  8
4
  6
CONTINUOUS
 10
62.023887
 20
21.236209
 11
61.995936
 21
21.474576
  0
POLYLINE
  8
4
  6
CONTINUOUS
 66
     1
  0
VERTEX
  8
4
  6
CONTINUOUS
 10
60.865750
 20
21.221227
  0
VERTEX
  8
4
  6
CONTINUOUS
 10
12.263515
 20
15.522096
  0
SEQEND
  8
4
  6
CONTINUOUS
  0
LINE
  8
4
  6
CONTINUOUS
 10
62.653718
 20
47.002989
 11
61.759842
 21
46.898173
  0
LINE
  8
4
  6
CONTINUOUS
 10
62.191057
 20
47.084662
 11
62.222502
 21
46.816500
  0
LINE
  8
4
  6
CONTINUOUS
 10
62.101670
 20
47.074181
 11
62.133115
 21
46.806018
  0
LINE
  8
4
  6
CONTINUOUS
 10
62.012282
 20
47.063699
 11
62.043727
 21
46.795537
  0
LINE
  8
4
  6
CONTINUOUS
 10
61.922895
 20
47.053218
 11
61.954340
 21
46.785055
  0
LINE
  8
4
  6
CONTINUOUS
 10
61.751981
 20
46.965214
 11
61.767703
 21
46.831132
  0
LINE
  8
4
  6
CONTINUOUS
 10
61.751981
 20
46.965214
 11
60.865967
 21
46.793356
  0
LINE
  8
4
  6
CONTINUOUS
 10
61.767703
 20
46.831132
 11
60.865967
 21
46.793356
  0
LINE
  8
4
  6
CONTINUOUS
 10
90.719167
 20
50.293963
 11
91.911001
 21
50.433718
  0
LINE
  8
4
  6
CONTINUOUS
 10
91.924976
 20
50.314535
 11
91.897025
 21
50.552902
  0
LINE
  8
4
  6
CONTINUOUS
 10
91.901140
 20
50.311740
 11
91.873189
 21
50.550107
  0
LINE
  8
4
  6
CONTINUOUS
 10
91.877303
 20
50.308945
 11
91.849352
 21
50.547311
  0
POLYLINE
  8
4
  6
CONTINUOUS
 66
     1
  0
VERTEX
  8
4
  6
CONTINUOUS
 10
90.719167
 20
50.293963
  0
VERTEX
  8
4
  6
CONTINUOUS
 10
62.653718
 20
47.002989
  0
SEQEND
  8
4
  6
CONTINUOUS
  0
LINE
  8
4
  6
CONTINUOUS
 10
62.700303
 20
46.605711
 11
61.806427
 21
46.500895
  0
LINE
  8
4
  6
CONTINUOUS
 10
62.237643
 20
46.687384
 11
62.269087
 21
46.419222
  0
LINE
  8
4
  6
CONTINUOUS
 10
62.148255
 20
46.676903
 11
62.179700
 21
46.408740
  0
LINE
  8
4
  6
CONTINUOUS
 10
62.058867
 20
46.666421
 11
62.090312
 21
46.398259
  0
LINE
  8
4
  6
CONTINUOUS
 10
61.969480
 20
46.655940
 11
62.000925
 21
46.387777
  0
LINE
  8
4
  6
CONTINUOUS
 10
61.798566
 20
46.567936
 11
61.814288
 21
46.433854
  0
LINE
  8
4
  6
CONTINUOUS
 10
61.798566
 20
46.567936
 11
60.912552
 21
46.396078
  0
LINE
  8
4
  6
CONTINUOUS
 10
61.814288
 20
46.433854
 11
60.912552
 21
46.396078
  0
LINE
  8
4
  6
CONTINUOUS
 10
90.765752
 20
49.896685
 11
91.957586
 21
50.036440
  0
LINE
  8
4
  6
CONTINUOUS
 10
91.971561
 20
49.917257
 11
91.943610
 21
50.155624
  0
LINE
  8
4
  6
CONTINUOUS
 10
91.947725
 20
49.914462
 11
91.919774
 21
50.152828
  0
LINE
  8
4
  6
CONTINUOUS
 10
91.923888
 20
49.911667
 11
91.895937
 21
50.150033
  0
POLYLINE
  8
4
  6
CONTINUOUS
 66
     1
  0
VERTEX
  8
4
  6
CONTINUOUS
 10
90.765752
 20
49.896685
  0
VERTEX
  8
4
  6
CONTINUOUS
 10
62.700303
 20
46.605711
  0
SEQEND
  8
4
  6
CONTINUOUS
  0
LINE
  8
4
  6
CONTINUOUS
 10
62.746888
 20
46.208433
 11
61.853012
 21
46.103617
  0
LINE
  8
4
  6
CONTINUOUS
 10
62.284228
 20
46.290106
 11
62.315673
 21
46.021944
  0
LINE
  8
4
  6
CONTINUOUS
 10
62.194840
 20
46.279625
 11
62.226285
 21
46.011462
  0
LINE
  8
4
  6
CONTINUOUS
 10
62.105452
 20
46.269143
 11
62.136897
 21
46.000980
  0
LINE
  8
4
  6
CONTINUOUS
 10
62.016065
 20
46.258661
 11
62.047510
 21
45.990499
  0
LINE
  8
4
  6
CONTINUOUS
 10
61.845151
 20
46.170658
 11
61.860874
 21
46.036576
  0
LINE
  8
4
  6
CONTINUOUS
 10
61.845151
 20
46.170658
 11
60.959137
 21
45.998800
  0
LINE
  8
4
  6
CONTINUOUS
 10
61.860874
 20
46.036576
 11
60.959137
 21
45.998800
  0
LINE
  8
4
  6
CONTINUOUS
 10
90.812337
 20
49.499407
 11
92.004171
 21
49.639162
  0
LINE
  8
4
  6
CONTINUOUS
 10
92.018147
 20
49.519979
 11
91.990195
 21
49.758346
  0
LINE
  8
4
  6
CONTINUOUS
 10
91.994310
 20
49.517184
 11
91.966359
 21
49.755550
  0
LINE
  8
4
  6
CONTINUOUS
 10
91.970473
 20
49.514389
 11
91.942522
 21
49.752755
  0
POLYLINE
  8
4
  6
CONTINUOUS
 66
     1
  0
VERTEX
  8
4
  6
CONTINUOUS
 10
90.812337
 20
49.499407
  0
VERTEX
  8
4
  6
CONTINUOUS
 10
62.746888
 20
46.208433
  0
SEQEND
  8
4
  6
CONTINUOUS
  0
LINE
  8
4
  6
CONTINUOUS
 10
62.793473
 20
45.811155
 11
61.899597
 21
45.706339
  0
LINE
  8
4
  6
CONTINUOUS
 10
62.330813
 20
45.892828
 11
62.362258
 21
45.624666
  0
LINE
  8
4
  6
CONTINUOUS
 10
62.241425
 20
45.882347
 11
62.272870
 21
45.614184
  0
LINE
  8
4
  6
CONTINUOUS
 10
62.152038
 20
45.871865
 11
62.183483
 21
45.603702
  0
LINE
  8
4
  6
CONTINUOUS
 10
62.062650
 20
45.861383
 11
62.094095
 21
45.593221
  0
LINE
  8
4
  6
CONTINUOUS
 10
61.891736
 20
45.773380
 11
61.907459
 21
45.639298
  0
LINE
  8
4
  6
CONTINUOUS
 10
61.891736
 20
45.773380
 11
61.005722
 21
45.601522
  0
LINE
  8
4
  6
CONTINUOUS
 10
61.907459
 20
45.639298
 11
61.005722
 21
45.601522
  0
LINE
  8
4
  6
CONTINUOUS
 10
90.858922
 20
49.102129
 11
92.050756
 21
49.241884
  0
LINE
  8
4
  6
CONTINUOUS
 10
92.064732
 20
49.122701
 11
92.036781
 21
49.361068
  0
LINE
  8
4
  6
CONTINUOUS
 10
92.040895
 20
49.119906
 11
92.012944
 21
49.358272
  0
LINE
  8
4
  6
CONTINUOUS
 10
92.017058
 20
49.117111
 11
91.989107
 21
49.355477
  0
POLYLINE
  8
4
  6
CONTINUOUS
 66
     1
  0
VERTEX
  8
4
  6
CONTINUOUS
 10
90.858922
 20
49.102129
  0
VERTEX
  8
4
  6
CONTINUOUS
 10
62.793473
 20
45.811155
  0
SEQEND
  8
4
  6
CONTINUOUS
  0
LINE
  8
4
  6
CONTINUOUS
 10
62.840058
 20
45.413877
 11
61.946182
 21
45.309061
  0
LINE
  8
4
  6
CONTINUOUS
 10
62.377398
 20
45.495550
 11
62.408843
 21
45.227388
  0
LINE
  8
4
  6
CONTINUOUS
 10
62.288010
 20
45.485069
 11
62.319455
 21
45.216906
  0
LINE
  8
4
  6
CONTINUOUS
 10
62.198623
 20
45.474587
 11
62.230068
 21
45.206424
  0
LINE
  8
4
  6
CONTINUOUS
 10
62.109235
 20
45.464105
 11
62.140680
 21
45.195943
  0
LINE
  8
4
  6
CONTINUOUS
 10
61.938321
 20
45.376101
 11
61.954044
 21
45.242020
  0
LINE
  8
4
  6
CONTINUOUS
 10
61.938321
 20
45.376101
 11
61.052307
 21
45.204244
  0
LINE
  8
4
  6
CONTINUOUS
 10
61.954044
 20
45.242020
 11
61.052307
 21
45.204244
  0
LINE
  8
4
  6
CONTINUOUS
 10
90.905507
 20
48.704851
 11
92.097341
 21
48.844606
  0
LINE
  8
4
  6
CONTINUOUS
 10
92.111317
 20
48.725423
 11
92.083366
 21
48.963790
  0
LINE
  8
4
  6
CONTINUOUS
 10
92.087480
 20
48.722628
 11
92.059529
 21
48.960994
  0
LINE
  8
4
  6
CONTINUOUS
 10
92.063643
 20
48.719832
 11
92.035692
 21
48.958199
  0
POLYLINE
  8
4
  6
CONTINUOUS
 66
     1
  0
VERTEX
  8
4
  6
CONTINUOUS
 10
90.905507
 20
48.704851
  0
VERTEX
  8
4
  6
CONTINUOUS
 10
62.840058
 20
45.413877
  0
SEQEND
  8
4
  6
CONTINUOUS
  0
LINE
  8
4
  6
CONTINUOUS
 10
62.886643
 20
45.016599
 11
61.992768
 21
44.911783
  0
LINE
  8
4
  6
CONTINUOUS
 10
62.423983
 20
45.098272
 11
62.455428
 21
44.830110
  0
LINE
  8
4
  6
CONTINUOUS
 10
62.334595
 20
45.087791
 11
62.366040
 21
44.819628
  0
LINE
  8
4
  6
CONTINUOUS
 10
62.245208
 20
45.077309
 11
62.276653
 21
44.809146
  0
LINE
  8
4
  6
CONTINUOUS
 10
62.155820
 20
45.066827
 11
62.187265
 21
44.798665
  0
LINE
  8
4
  6
CONTINUOUS
 10
61.984906
 20
44.978823
 11
62.000629
 21
44.844742
  0
LINE
  8
4
  6
CONTINUOUS
 10
61.984906
 20
44.978823
 11
61.098892
 21
44.806966
  0
LINE
  8
4
  6
CONTINUOUS
 10
62.000629
 20
44.844742
 11
61.098892
 21
44.806966
  0
LINE
  8
4
  6
CONTINUOUS
 10
90.952092
 20
48.307573
 11
92.143926
 21
48.447328
  0
LINE
  8
4
  6
CONTINUOUS
 10
92.157902
 20
48.328145
 11
92.129951
 21
48.566511
  0
LINE
  8
4
  6
CONTINUOUS
 10
92.134065
 20
48.325350
 11
92.106114
 21
48.563716
  0
LINE
  8
4
  6
CONTINUOUS
 10
92.110228
 20
48.322554
 11
92.082277
 21
48.560921
  0
POLYLINE
  8
4
  6
CONTINUOUS
 66
     1
  0
VERTEX
  8
4
  6
CONTINUOUS
 10
90.952092
 20
48.307573
  0
VERTEX
  8
4
  6
CONTINUOUS
 10
62.886643
 20
45.016599
  0
SEQEND
  8
4
  6
CONTINUOUS
  0
LINE
  8
4
  6
CONTINUOUS
 10
63.837820
 20
35.415453
 11
62.645986
 21
35.275697
  0
LINE
  8
4
  6
CONTINUOUS
 10
62.632011
 20
35.394881
 11
62.659962
 21
35.156514
  0
LINE
  8
4
  6
CONTINUOUS
 10
62.655847
 20
35.397676
 11
62.683799
 21
35.159309
  0
LINE
  8
4
  6
CONTINUOUS
 10
62.679684
 20
35.400471
 11
62.707635
 21
35.162104
  0
LINE
  8
4
  6
CONTINUOUS
 10
92.194740
 20
38.740604
 11
93.088616
 21
38.845421
  0
LINE
  8
4
  6
CONTINUOUS
 10
92.657401
 20
38.658931
 11
92.625956
 21
38.927094
  0
LINE
  8
4
  6
CONTINUOUS
 10
92.746788
 20
38.669413
 11
92.715343
 21
38.937576
  0
LINE
  8
4
  6
CONTINUOUS
 10
92.836176
 20
38.679895
 11
92.804731
 21
38.948057
  0
LINE
  8
4
  6
CONTINUOUS
 10
92.925563
 20
38.690376
 11
92.894118
 21
38.958539
  0
LINE
  8
4
  6
CONTINUOUS
 10
93.096477
 20
38.778380
 11
93.080755
 21
38.912461
  0
LINE
  8
4
  6
CONTINUOUS
 10
93.096477
 20
38.778380
 11
93.982491
 21
38.950237
  0
LINE
  8
4
  6
CONTINUOUS
 10
93.080755
 20
38.912461
 11
93.982491
 21
38.950237
  0
POLYLINE
  8
4
  6
CONTINUOUS
 66
     1
  0
VERTEX
  8
4
  6
CONTINUOUS
 10
63.837820
 20
35.415453
  0
VERTEX
  8
4
  6
CONTINUOUS
 10
92.194740
 20
38.740604
  0
SEQEND
  8
4
  6
CONTINUOUS
  0
LINE
  8
4
  6
CONTINUOUS
 10
63.884406
 20
35.018175
 11
62.692571
 21
34.878419
  0
LINE
  8
4
  6
CONTINUOUS
 10
62.678596
 20
34.997603
 11
62.706547
 21
34.759236
  0
LINE
  8
4
  6
CONTINUOUS
 10
62.702433
 20
35.000398
 11
62.730384
 21
34.762031
  0
LINE
  8
4
  6
CONTINUOUS
 10
62.726269
 20
35.003193
 11
62.754220
 21
34.764826
  0
LINE
  8
4
  6
CONTINUOUS
 10
92.241325
 20
38.343326
 11
93.135201
 21
38.448143
  0
LINE
  8
4
  6
CONTINUOUS
 10
92.703986
 20
38.261653
 11
92.672541
 21
38.529816
  0
LINE
  8
4
  6
CONTINUOUS
 10
92.793373
 20
38.272135
 11
92.761928
 21
38.540298
  0
LINE
  8
4
  6
CONTINUOUS
 10
92.882761
 20
38.282617
 11
92.851316
 21
38.550779
  0
LINE
  8
4
  6
CONTINUOUS
 10
92.972148
 20
38.293098
 11
92.940703
 21
38.561261
  0
LINE
  8
4
  6
CONTINUOUS
 10
93.143062
 20
38.381102
 11
93.127340
 21
38.515183
  0
LINE
  8
4
  6
CONTINUOUS
 10
93.143062
 20
38.381102
 11
94.029076
 21
38.552959
  0
LINE
  8
4
  6
CONTINUOUS
 10
93.127340
 20
38.515183
 11
94.029076
 21
38.552959
  0
POLYLINE
  8
4
  6
CONTINUOUS
 66
     1
  0
VERTEX
  8
4
  6
CONTINUOUS
 10
63.884406
 20
35.018175
  0
VERTEX
  8
4
  6
CONTINUOUS
 10
92.241325
 20
38.343326
  0
SEQEND
  8
4
  6
CONTINUOUS
  0
LINE
  8
4
  6
CONTINUOUS
 10
63.930991
 20
34.620897
 11
62.739157
 21
34.481141
  0
LINE
  8
4
  6
CONTINUOUS
 10
62.725181
 20
34.600325
 11
62.753132
 21
34.361958
  0
LINE
  8
4
  6
CONTINUOUS
 10
62.749018
 20
34.603120
 11
62.776969
 21
34.364753
  0
LINE
  8
4
  6
CONTINUOUS
 10
62.772854
 20
34.605915
 11
62.800805
 21
34.367548
  0
LINE
  8
4
  6
CONTINUOUS
 10
92.287910
 20
37.946048
 11
93.181786
 21
38.050865
  0
LINE
  8
4
  6
CONTINUOUS
 10
92.750571
 20
37.864375
 11
92.719126
 21
38.132538
  0
LINE
  8
4
  6
CONTINUOUS
 10
92.839958
 20
37.874857
 11
92.808513
 21
38.143020
  0
LINE
  8
4
  6
CONTINUOUS
 10
92.929346
 20
37.885338
 11
92.897901
 21
38.153501
  0
LINE
  8
4
  6
CONTINUOUS
 10
93.018733
 20
37.895820
 11
92.987288
 21
38.163983
  0
LINE
  8
4
  6
CONTINUOUS
 10
93.189647
 20
37.983824
 11
93.173925
 21
38.117905
  0
LINE
  8
4
  6
CONTINUOUS
 10
93.189647
 20
37.983824
 11
94.075662
 21
38.155681
  0
LINE
  8
4
  6
CONTINUOUS
 10
93.173925
 20
38.117905
 11
94.075662
 21
38.155681
  0
POLYLINE
  8
4
  6
CONTINUOUS
 66
     1
  0
VERTEX
  8
4
  6
CONTINUOUS
 10
63.930991
 20
34.620897
  0
VERTEX
  8
4
  6
CONTINUOUS
 10
92.287910
 20
37.946048
  0
SEQEND
  8
4
  6
CONTINUOUS
  0
LINE
  8
4
  6
CONTINUOUS
 10
63.977576
 20
34.223619
 11
62.785742
 21
34.083863
  0
LINE
  8
4
  6
CONTINUOUS
 10
62.771766
 20
34.203047
 11
62.799717
 21
33.964680
  0
LINE
  8
4
  6
CONTINUOUS
 10
62.795603
 20
34.205842
 11
62.823554
 21
33.967475
  0
LINE
  8
4
  6
CONTINUOUS
 10
62.819439
 20
34.208637
 11
62.847390
 21
33.970270
  0
LINE
  8
4
  6
CONTINUOUS
 10
92.334496
 20
37.548770
 11
93.228371
 21
37.653587
  0
LINE
  8
4
  6
CONTINUOUS
 10
92.797156
 20
37.467097
 11
92.765711
 21
37.735260
  0
LINE
  8
4
  6
CONTINUOUS
 10
92.886543
 20
37.477579
 11
92.855098
 21
37.745741
  0
LINE
  8
4
  6
CONTINUOUS
 10
92.975931
 20
37.488060
 11
92.944486
 21
37.756223
  0
LINE
  8
4
  6
CONTINUOUS
 10
93.065318
 20
37.498542
 11
93.033874
 21
37.766705
  0
LINE
  8
4
  6
CONTINUOUS
 10
93.236232
 20
37.586546
 11
93.220510
 21
37.720627
  0
LINE
  8
4
  6
CONTINUOUS
 10
93.236232
 20
37.586546
 11
94.122247
 21
37.758403
  0
LINE
  8
4
  6
CONTINUOUS
 10
93.220510
 20
37.720627
 11
94.122247
 21
37.758403
  0
POLYLINE
  8
4
  6
CONTINUOUS
 66
     1
  0
VERTEX
  8
4
  6
CONTINUOUS
 10
63.977576
 20
34.223619
  0
VERTEX
  8
4
  6
CONTINUOUS
 10
92.334496
 20
37.548770
  0
SEQEND
  8
4
  6
CONTINUOUS
  0
LINE
  8
4
  6
CONTINUOUS
 10
64.024161
 20
33.826341
 11
62.832327
 21
33.686585
  0
LINE
  8
4
  6
CONTINUOUS
 10
62.818351
 20
33.805769
 11
62.846302
 21
33.567402
  0
LINE
  8
4
  6
CONTINUOUS
 10
62.842188
 20
33.808564
 11
62.870139
 21
33.570197
  0
LINE
  8
4
  6
CONTINUOUS
 10
62.866025
 20
33.811359
 11
62.893976
 21
33.572992
  0
LINE
  8
4
  6
CONTINUOUS
 10
92.381081
 20
37.151492
 11
93.274956
 21
37.256309
  0
LINE
  8
4
  6
CONTINUOUS
 10
92.843741
 20
37.069819
 11
92.812296
 21
37.337982
  0
LINE
  8
4
  6
CONTINUOUS
 10
92.933128
 20
37.080301
 11
92.901684
 21
37.348463
  0
LINE
  8
4
  6
CONTINUOUS
 10
93.022516
 20
37.090782
 11
92.991071
 21
37.358945
  0
LINE
  8
4
  6
CONTINUOUS
 10
93.111904
 20
37.101264
 11
93.080459
 21
37.369427
  0
LINE
  8
4
  6
CONTINUOUS
 10
93.282817
 20
37.189268
 11
93.267095
 21
37.323349
  0
LINE
  8
4
  6
CONTINUOUS
 10
93.282817
 20
37.189268
 11
94.168832
 21
37.361125
  0
LINE
  8
4
  6
CONTINUOUS
 10
93.267095
 20
37.323349
 11
94.168832
 21
37.361125
  0
POLYLINE
  8
4
  6
CONTINUOUS
 66
     1
  0
VERTEX
  8
4
  6
CONTINUOUS
 10
64.024161
 20
33.826341
  0
VERTEX
  8
4
  6
CONTINUOUS
 10
92.381081
 20
37.151492
  0
SEQEND
  8
4
  6
CONTINUOUS
  0
LINE
  8
4
  6
CONTINUOUS
 10
64.070746
 20
33.429063
 11
62.878912
 21
33.289307
  0
LINE
  8
4
  6
CONTINUOUS
 10
62.864936
 20
33.408491
 11
62.892887
 21
33.170124
  0
LINE
  8
4
  6
CONTINUOUS
 10
62.888773
 20
33.411286
 11
62.916724
 21
33.172919
  0
LINE
  8
4
  6
CONTINUOUS
 10
62.912610
 20
33.414081
 11
62.940561
 21
33.175714
  0
LINE
  8
4
  6
CONTINUOUS
 10
92.427666
 20
36.754214
 11
93.321541
 21
36.859031
  0
LINE
  8
4
  6
CONTINUOUS
 10
92.890326
 20
36.672541
 11
92.858881
 21
36.940704
  0
LINE
  8
4
  6
CONTINUOUS
 10
92.979714
 20
36.683023
 11
92.948269
 21
36.951185
  0
LINE
  8
4
  6
CONTINUOUS
 10
93.069101
 20
36.693504
 11
93.037656
 21
36.961667
  0
LINE
  8
4
  6
CONTINUOUS
 10
93.158489
 20
36.703986
 11
93.127044
 21
36.972149
  0
LINE
  8
4
  6
CONTINUOUS
 10
93.329403
 20
36.791990
 11
93.313680
 21
36.926071
  0
LINE
  8
4
  6
CONTINUOUS
 10
93.329403
 20
36.791990
 11
94.215417
 21
36.963847
  0
LINE
  8
4
  6
CONTINUOUS
 10
93.313680
 20
36.926071
 11
94.215417
 21
36.963847
  0
POLYLINE
  8
4
  6
CONTINUOUS
 66
     1
  0
VERTEX
  8
4
  6
CONTINUOUS
 10
64.070746
 20
33.429063
  0
VERTEX
  8
4
  6
CONTINUOUS
 10
92.427666
 20
36.754214
  0
SEQEND
  8
4
  6
CONTINUOUS
  0
LINE
  8
4
  6
CONTINUOUS
 10
64.850072
 20
23.601188
 11
63.956197
 21
23.496372
  0
LINE
  8
4
  6
CONTINUOUS
 10
64.387412
 20
23.682861
 11
64.418857
 21
23.414698
  0
LINE
  8
4
  6
CONTINUOUS
 10
64.298025
 20
23.672380
 11
64.329470
 21
23.404217
  0
LINE
  8
4
  6
CONTINUOUS
 10
64.208637
 20
23.661898
 11
64.240082
 21
23.393735
  0
LINE
  8
4
  6
CONTINUOUS
 10
64.119250
 20
23.651416
 11
64.150694
 21
23.383254
  0
LINE
  8
4
  6
CONTINUOUS
 10
63.948336
 20
23.563412
 11
63.964058
 21
23.429331
  0
LINE
  8
4
  6
CONTINUOUS
 10
63.948336
 20
23.563412
 11
63.062321
 21
23.391555
  0
LINE
  8
4
  6
CONTINUOUS
 10
63.964058
 20
23.429331
 11
63.062321
 21
23.391555
  0
LINE
  8
4
  6
CONTINUOUS
 10
93.495487
 20
26.960169
 11
94.687321
 21
27.099924
  0
LINE
  8
4
  6
CONTINUOUS
 10
94.701297
 20
26.980741
 11
94.673346
 21
27.219107
  0
LINE
  8
4
  6
CONTINUOUS
 10
94.677460
 20
26.977946
 11
94.649509
 21
27.216312
  0
LINE
  8
4
  6
CONTINUOUS
 10
94.653624
 20
26.975150
 11
94.625673
 21
27.213517
  0
POLYLINE
  8
4
  6
CONTINUOUS
 66
     1
  0
VERTEX
  8
4
  6
CONTINUOUS
 10
93.495487
 20
26.960169
  0
VERTEX
  8
4
  6
CONTINUOUS
 10
64.850072
 20
23.601188
  0
SEQEND
  8
4
  6
CONTINUOUS
  0
LINE
  8
4
  6
CONTINUOUS
 10
64.919950
 20
23.005271
 11
64.026075
 21
22.900455
  0
LINE
  8
4
  6
CONTINUOUS
 10
64.457290
 20
23.086944
 11
64.488735
 21
22.818781
  0
LINE
  8
4
  6
CONTINUOUS
 10
64.367902
 20
23.076462
 11
64.399347
 21
22.808300
  0
LINE
  8
4
  6
CONTINUOUS
 10
64.278515
 20
23.065981
 11
64.309960
 21
22.797818
  0
LINE
  8
4
  6
CONTINUOUS
 10
64.189127
 20
23.055499
 11
64.220572
 21
22.787337
  0
LINE
  8
4
  6
CONTINUOUS
 10
64.018213
 20
22.967495
 11
64.033936
 21
22.833414
  0
LINE
  8
4
  6
CONTINUOUS
 10
64.018213
 20
22.967495
 11
63.132199
 21
22.795638
  0
LINE
  8
4
  6
CONTINUOUS
 10
64.033936
 20
22.833414
 11
63.132199
 21
22.795638
  0
LINE
  8
4
  6
CONTINUOUS
 10
93.565365
 20
26.364252
 11
94.757199
 21
26.504007
  0
LINE
  8
4
  6
CONTINUOUS
 10
94.771175
 20
26.384824
 11
94.743224
 21
26.623190
  0
LINE
  8
4
  6
CONTINUOUS
 10
94.747338
 20
26.382028
 11
94.719387
 21
26.620395
  0
LINE
  8
4
  6
CONTINUOUS
 10
94.723501
 20
26.379233
 11
94.695550
 21
26.617600
  0
POLYLINE
  8
4
  6
CONTINUOUS
 66
     1
  0
VERTEX
  8
4
  6
CONTINUOUS
 10
93.565365
 20
26.364252
  0
VERTEX
  8
4
  6
CONTINUOUS
 10
64.919950
 20
23.005271
  0
SEQEND
  8
4
  6
CONTINUOUS
  0
LINE
  8
4
  6
CONTINUOUS
 10
64.989828
 20
22.409354
 11
64.095952
 21
22.304538
  0
LINE
  8
4
  6
CONTINUOUS
 10
64.527167
 20
22.491027
 11
64.558612
 21
22.222864
  0
LINE
  8
4
  6
CONTINUOUS
 10
64.437780
 20
22.480545
 11
64.469225
 21
22.212383
  0
LINE
  8
4
  6
CONTINUOUS
 10
64.348392
 20
22.470064
 11
64.379837
 21
22.201901
  0
LINE
  8
4
  6
CONTINUOUS
 10
64.259005
 20
22.459582
 11
64.290450
 21
22.191419
  0
LINE
  8
4
  6
CONTINUOUS
 10
64.088091
 20
22.371578
 11
64.103813
 21
22.237497
  0
LINE
  8
4
  6
CONTINUOUS
 10
64.088091
 20
22.371578
 11
63.202077
 21
22.199721
  0
LINE
  8
4
  6
CONTINUOUS
 10
64.103813
 20
22.237497
 11
63.202077
 21
22.199721
  0
LINE
  8
4
  6
CONTINUOUS
 10
93.635243
 20
25.768335
 11
94.827077
 21
25.908090
  0
LINE
  8
4
  6
CONTINUOUS
 10
94.841052
 20
25.788907
 11
94.813101
 21
26.027273
  0
LINE
  8
4
  6
CONTINUOUS
 10
94.817216
 20
25.786111
 11
94.789264
 21
26.024478
  0
LINE
  8
4
  6
CONTINUOUS
 10
94.793379
 20
25.783316
 11
94.765428
 21
26.021683
  0
POLYLINE
  8
4
  6
CONTINUOUS
 66
     1
  0
VERTEX
  8
4
  6
CONTINUOUS
 10
93.635243
 20
25.768335
  0
VERTEX
  8
4
  6
CONTINUOUS
 10
64.989828
 20
22.409354
  0
SEQEND
  8
4
  6
CONTINUOUS
  0
LINE
  8
4
  6
CONTINUOUS
 10
65.059705
 20
21.813437
 11
64.165830
 21
21.708620
  0
LINE
  8
4
  6
CONTINUOUS
 10
64.597045
 20
21.895110
 11
64.628490
 21
21.626947
  0
LINE
  8
4
  6
CONTINUOUS
 10
64.507658
 20
21.884628
 11
64.539102
 21
21.616466
  0
LINE
  8
4
  6
CONTINUOUS
 10
64.418270
 20
21.874147
 11
64.449715
 21
21.605984
  0
LINE
  8
4
  6
CONTINUOUS
 10
64.328882
 20
21.863665
 11
64.360327
 21
21.595502
  0
LINE
  8
4
  6
CONTINUOUS
 10
64.157969
 20
21.775661
 11
64.173691
 21
21.641580
  0
LINE
  8
4
  6
CONTINUOUS
 10
64.157969
 20
21.775661
 11
63.271954
 21
21.603804
  0
LINE
  8
4
  6
CONTINUOUS
 10
64.173691
 20
21.641580
 11
63.271954
 21
21.603804
  0
LINE
  8
4
  6
CONTINUOUS
 10
93.705120
 20
25.172418
 11
94.896954
 21
25.312173
  0
LINE
  8
4
  6
CONTINUOUS
 10
94.910930
 20
25.192990
 11
94.882979
 21
25.431356
  0
LINE
  8
4
  6
CONTINUOUS
 10
94.887093
 20
25.190194
 11
94.859142
 21
25.428561
  0
LINE
  8
4
  6
CONTINUOUS
 10
94.863256
 20
25.187399
 11
94.835305
 21
25.425766
  0
POLYLINE
  8
4
  6
CONTINUOUS
 66
     1
  0
VERTEX
  8
4
  6
CONTINUOUS
 10
93.705120
 20
25.172418
  0
VERTEX
  8
4
  6
CONTINUOUS
 10
65.059705
 20
21.813437
  0
SEQEND
  8
4
  6
CONTINUOUS
  0
LINE
  8
1
  6
CONTINUOUS
 10
9.934750
 20
68.067950
 11
29.358478
 21
68.067950
  0
LINE
  8
1
  6
CONTINUOUS
 10
9.934750
 20
68.067950
 11
9.934750
 21
67.067950
  0
LINE
  8
1
  6
CONTINUOUS
 10
9.934750
 20
67.067950
 11
26.224030
 21
67.067950
  0
LINE
  8
1
  6
CONTINUOUS
 10
9.934750
 20
67.067950
 11
9.934750
 21
66.067950
  0
LINE
  8
1
  6
CONTINUOUS
 10
12.423866
 20
67.067950
 11
12.423866
 21
66.067950
  0
LINE
  8
1
  6
CONTINUOUS
 10
14.561579
 20
67.067950
 11
14.561579
 21
66.067950
  0
LINE
  8
1
  6
CONTINUOUS
 10
15.936946
 20
67.067950
 11
15.936946
 21
66.067950
  0
LINE
  8
1
  6
CONTINUOUS
 10
20.101459
 20
66.567950
 11
20.101459
 21
66.067950
  0
LINE
  8
1
  6
CONTINUOUS
 10
23.089582
 20
67.067950
 11
23.089582
 21
66.067950
  0
LINE
  8
1
  6
CONTINUOUS
 10
24.134397
 20
66.567950
 11
24.134398
 21
66.067950
  0
LINE
  8
1
  6
CONTINUOUS
 10
25.179214
 20
66.567950
 11
25.179214
 21
66.067950
  0
LINE
  8
1
  6
CONTINUOUS
 10
26.224030
 20
67.067950
 11
26.224030
 21
66.067950
  0
LINE
  8
1
  6
CONTINUOUS
 10
9.934750
 20
66.067950
 11
29.358478
 21
66.067950
  0
LINE
  8
1
  6
CONTINUOUS
 10
15.936946
 20
66.567950
 11
20.101459
 21
66.567950
  0
LINE
  8
1
  6
CONTINUOUS
 10
20.101459
 20
66.567950
 11
23.089582
 21
66.567950
  0
LINE
  8
1
  6
CONTINUOUS
 10
23.089582
 20
66.567950
 11
24.134398
 21
66.567950
  0
LINE
  8
1
  6
CONTINUOUS
 10
24.134398
 20
66.567950
 11
25.179214
 21
66.567950
  0
LINE
  8
1
  6
CONTINUOUS
 10
25.179214
 20
66.567950
 11
29.358478
 21
66.567950
  0
LINE
  8
1
  6
CONTINUOUS
 10
29.358478
 20
66.067950
 11
29.358478
 21
68.067950
  0
LINE
  8
1
  6
CONTINUOUS
 10
27.791254
 20
66.567950
 11
27.791254
 21
66.067950
  0
LINE
  8
1
  6
CONTINUOUS
 10
26.224030
 20
67.067950
 11
29.358478
 21
67.067950
  0
LINE
  8
1
  6
CONTINUOUS
 10
9.934750
 20
66.067950
 11
9.934750
 21
65.567949
  0
LINE
  8
1
  6
CONTINUOUS
 10
9.934750
 20
65.567949
 11
29.358478
 21
65.567949
  0
LINE
  8
1
  6
CONTINUOUS
 10
12.423866
 20
66.067950
 11
12.423866
 21
65.567949
  0
LINE
  8
1
  6
CONTINUOUS
 10
14.561579
 20
66.067950
 11
14.561579
 21
65.567949
  0
LINE
  8
1
  6
CONTINUOUS
 10
15.936946
 20
66.067950
 11
15.936946
 21
65.567949
  0
LINE
  8
1
  6
CONTINUOUS
 10
20.101459
 20
66.067950
 11
20.101459
 21
65.567949
  0
LINE
  8
1
  6
CONTINUOUS
 10
23.089582
 20
66.067950
 11
23.089582
 21
65.567949
  0
LINE
  8
1
  6
CONTINUOUS
 10
24.134398
 20
66.067950
 11
24.134398
 21
65.567949
  0
LINE
  8
1
  6
CONTINUOUS
 10
25.179214
 20
66.067950
 11
25.179214
 21
65.567949
  0
LINE
  8
1
  6
CONTINUOUS
 10
26.224030
 20
66.067950
 11
26.224030
 21
65.567949
  0
LINE
  8
1
  6
CONTINUOUS
 10
26.224030
 20
65.567949
 11
26.224030
 21
66.067950
  0
LINE
  8
1
  6
CONTINUOUS
 10
26.224030
 20
66.067950
 11
26.224030
 21
65.567949
  0
LINE
  8
1
  6
CONTINUOUS
 10
27.791254
 20
66.067950
 11
27.791254
 21
65.567949
  0
LINE
  8
1
  6
CONTINUOUS
 10
29.358478
 20
66.067950
 11
29.358478
 21
65.567949
  0
LINE
  8
1
  6
CONTINUOUS
 10
9.934750
 20
65.567949
 11
9.934750
 21
65.067949
  0
LINE
  8
1
  6
CONTINUOUS
 10
9.934750
 20
65.067949
 11
29.358478
 21
65.067949
  0
LINE
  8
1
  6
CONTINUOUS
 10
12.423866
 20
65.567949
 11
12.423866
 21
65.067949
  0
LINE
  8
1
  6
CONTINUOUS
 10
14.561579
 20
65.567949
 11
14.561579
 21
65.067949
  0
LINE
  8
1
  6
CONTINUOUS
 10
15.936946
 20
65.567949
 11
15.936946
 21
65.067949
  0
LINE
  8
1
  6
CONTINUOUS
 10
20.101459
 20
65.567949
 11
20.101459
 21
65.067949
  0
LINE
  8
1
  6
CONTINUOUS
 10
23.089582
 20
65.567949
 11
23.089582
 21
65.067949
  0
LINE
  8
1
  6
CONTINUOUS
 10
24.134398
 20
65.567949
 11
24.134398
 21
65.067949
  0
LINE
  8
1
  6
CONTINUOUS
 10
25.179214
 20
65.567949
 11
25.179214
 21
65.067949
  0
LINE
  8
1
  6
CONTINUOUS
 10
26.224030
 20
65.567949
 11
26.224030
 21
65.067949
  0
LINE
  8
1
  6
CONTINUOUS
 10
26.224030
 20
65.067949
 11
26.224030
 21
65.567949
  0
LINE
  8
1
  6
CONTINUOUS
 10
26.224030
 20
65.567949
 11
26.224030
 21
65.067949
  0
LINE
  8
1
  6
CONTINUOUS
 10
27.791254
 20
65.567949
 11
27.791254
 21
65.067949
  0
LINE
  8
1
  6
CONTINUOUS
 10
29.358478
 20
65.567949
 11
29.358478
 21
65.067949
  0
LINE
  8
1
  6
CONTINUOUS
 10
9.934750
 20
65.067948
 11
9.934750
 21
64.567948
  0
LINE
  8
1
  6
CONTINUOUS
 10
9.934750
 20
64.567948
 11
29.358478
 21
64.567948
  0
LINE
  8
1
  6
CONTINUOUS
 10
12.423866
 20
65.067948
 11
12.423866
 21
64.567948
  0
LINE
  8
1
  6
CONTINUOUS
 10
14.561579
 20
65.067948
 11
14.561579
 21
64.567948
  0
LINE
  8
1
  6
CONTINUOUS
 10
15.936946
 20
65.067948
 11
15.936946
 21
64.567948
  0
LINE
  8
1
  6
CONTINUOUS
 10
20.101459
 20
65.067948
 11
20.101459
 21
64.567948
  0
LINE
  8
1
  6
CONTINUOUS
 10
23.089582
 20
65.067948
 11
23.089582
 21
64.567948
  0
LINE
  8
1
  6
CONTINUOUS
 10
24.134398
 20
65.067948
 11
24.134398
 21
64.567948
  0
LINE
  8
1
  6
CONTINUOUS
 10
25.179214
 20
65.067948
 11
25.179214
 21
64.567948
  0
LINE
  8
1
  6
CONTINUOUS
 10
26.224030
 20
65.067948
 11
26.224030
 21
64.567948
  0
LINE
  8
1
  6
CONTINUOUS
 10
26.224030
 20
64.567948
 11
26.224030
 21
65.067948
  0
LINE
  8
1
  6
CONTINUOUS
 10
26.224030
 20
65.067949
 11
26.224030
 21
64.567948
  0
LINE
  8
1
  6
CONTINUOUS
 10
27.791254
 20
65.067948
 11
27.791254
 21
64.567948
  0
LINE
  8
1
  6
CONTINUOUS
 10
29.358478
 20
65.067948
 11
29.358478
 21
64.567948
  0
LINE
  8
1
  6
CONTINUOUS
 10
9.934750
 20
64.567947
 11
9.934750
 21
64.067947
  0
LINE
  8
1
  6
CONTINUOUS
 10
9.934750
 20
64.067947
 11
29.358478
 21
64.067947
  0
LINE
  8
1
  6
CONTINUOUS
 10
12.423866
 20
64.567947
 11
12.423866
 21
64.067947
  0
LINE
  8
1
  6
CONTINUOUS
 10
14.561579
 20
64.567947
 11
14.561579
 21
64.067947
  0
LINE
  8
1
  6
CONTINUOUS
 10
15.936946
 20
64.567947
 11
15.936946
 21
64.067947
  0
LINE
  8
1
  6
CONTINUOUS
 10
20.101459
 20
64.567947
 11
20.101459
 21
64.067947
  0
LINE
  8
1
  6
CONTINUOUS
 10
23.089582
 20
64.567947
 11
23.089582
 21
64.067947
  0
LINE
  8
1
  6
CONTINUOUS
 10
24.134398
 20
64.567947
 11
24.134398
 21
64.067947
  0
LINE
  8
1
  6
CONTINUOUS
 10
25.179214
 20
64.567947
 11
25.179214
 21
64.067947
  0
LINE
  8
1
  6
CONTINUOUS
 10
26.224030
 20
64.567947
 11
26.224030
 21
64.067947
  0
LINE
  8
1
  6
CONTINUOUS
 10
26.224030
 20
64.067947
 11
26.224030
 21
64.567947
  0
LINE
  8
1
  6
CONTINUOUS
 10
26.224030
 20
64.567948
 11
26.224030
 21
64.067947
  0
LINE
  8
1
  6
CONTINUOUS
 10
27.791254
 20
64.567947
 11
27.791254
 21
64.067947
  0
LINE
  8
1
  6
CONTINUOUS
 10
29.358478
 20
64.567947
 11
29.358478
 21
64.067947
  0
LINE
  8
1
  6
CONTINUOUS
 10
9.934750
 20
64.067947
 11
9.934750
 21
63.567947
  0
LINE
  8
1
  6
CONTINUOUS
 10
9.934750
 20
63.567947
 11
29.358478
 21
63.567947
  0
LINE
  8
1
  6
CONTINUOUS
 10
12.423866
 20
64.067947
 11
12.423866
 21
63.567947
  0
LINE
  8
1
  6
CONTINUOUS
 10
14.561579
 20
64.067947
 11
14.561579
 21
63.567947
  0
LINE
  8
1
  6
CONTINUOUS
 10
15.936946
 20
64.067947
 11
15.936946
 21
63.567947
  0
LINE
  8
1
  6
CONTINUOUS
 10
20.101459
 20
64.067947
 11
20.101459
 21
63.567947
  0
LINE
  8
1
  6
CONTINUOUS
 10
23.089582
 20
64.067947
 11
23.089582
 21
63.567947
  0
LINE
  8
1
  6
CONTINUOUS
 10
24.134398
 20
64.067947
 11
24.134398
 21
63.567947
  0
LINE
  8
1
  6
CONTINUOUS
 10
25.179214
 20
64.067947
 11
25.179214
 21
63.567947
  0
LINE
  8
1
  6
CONTINUOUS
 10
26.224030
 20
64.067947
 11
26.224030
 21
63.567947
  0
LINE
  8
1
  6
CONTINUOUS
 10
26.224030
 20
63.567947
 11
26.224030
 21
64.067947
  0
LINE
  8
1
  6
CONTINUOUS
 10
26.224030
 20
64.067947
 11
26.224030
 21
63.567946
  0
LINE
  8
1
  6
CONTINUOUS
 10
27.791254
 20
64.067947
 11
27.791254
 21
63.567947
  0
LINE
  8
1
  6
CONTINUOUS
 10
29.358478
 20
64.067947
 11
29.358478
 21
63.567947
  0
LINE
  8
1
  6
CONTINUOUS
 10
9.934750
 20
63.567946
 11
9.934750
 21
63.067946
  0
LINE
  8
1
  6
CONTINUOUS
 10
9.934750
 20
63.067946
 11
29.358478
 21
63.067946
  0
LINE
  8
1
  6
CONTINUOUS
 10
12.423866
 20
63.567946
 11
12.423866
 21
63.067946
  0
LINE
  8
1
  6
CONTINUOUS
 10
14.561579
 20
63.567946
 11
14.561579
 21
63.067946
  0
LINE
  8
1
  6
CONTINUOUS
 10
15.936946
 20
63.567946
 11
15.936946
 21
63.067946
  0
LINE
  8
1
  6
CONTINUOUS
 10
20.101459
 20
63.567946
 11
20.101459
 21
63.067946
  0
LINE
  8
1
  6
CONTINUOUS
 10
23.089582
 20
63.567946
 11
23.089582
 21
63.067946
  0
LINE
  8
1
  6
CONTINUOUS
 10
24.134398
 20
63.567946
 11
24.134398
 21
63.067946
  0
LINE
  8
1
  6
CONTINUOUS
 10
25.179214
 20
63.567946
 11
25.179214
 21
63.067946
  0
LINE
  8
1
  6
CONTINUOUS
 10
26.224030
 20
63.567946
 11
26.224030
 21
63.067946
  0
LINE
  8
1
  6
CONTINUOUS
 10
26.224030
 20
63.067946
 11
26.224030
 21
63.567946
  0
LINE
  8
1
  6
CONTINUOUS
 10
26.224030
 20
63.567946
 11
26.224030
 21
63.067946
  0
LINE
  8
1
  6
CONTINUOUS
 10
27.791254
 20
63.567946
 11
27.791254
 21
63.067946
  0
LINE
  8
1
  6
CONTINUOUS
 10
29.358478
 20
63.567946
 11
29.358478
 21
63.067946
  0
LINE
  8
1
  6
CONTINUOUS
 10
9.934750
 20
62.430594
 11
23.217842
 21
62.430594
  0
LINE
  8
1
  6
CONTINUOUS
 10
9.934750
 20
61.067946
 11
23.217842
 21
61.067946
  0
LINE
  8
1
  6
CONTINUOUS
 10
9.934750
 20
60.567946
 11
18.856459
 21
60.567946
  0
LINE
  8
1
  6
CONTINUOUS
 10
18.856459
 20
60.567946
 11
21.044582
 21
60.567946
  0
LINE
  8
1
  6
CONTINUOUS
 10
20.424562
 20
60.567946
 11
21.469378
 21
60.567946
  0
LINE
  8
1
  6
CONTINUOUS
 10
21.469378
 20
60.567946
 11
23.134214
 21
60.567946
  0
LINE
  8
1
  6
CONTINUOUS
 10
23.134214
 20
60.567946
 11
23.217842
 21
60.567946
  0
LINE
  8
1
  6
CONTINUOUS
 10
9.934750
 20
62.430594
 11
9.934750
 21
59.567945
  0
LINE
  8
1
  6
CONTINUOUS
 10
9.934750
 20
59.567946
 11
23.217842
 21
59.567946
  0
LINE
  8
1
  6
CONTINUOUS
 10
12.072462
 20
60.567946
 11
12.072462
 21
59.567945
  0
LINE
  8
1
  6
CONTINUOUS
 10
14.260586
 20
59.567945
 11
14.260586
 21
60.567946
  0
LINE
  8
1
  6
CONTINUOUS
 10
21.128210
 20
60.567946
 11
21.128210
 21
59.567946
  0
LINE
  8
1
  6
CONTINUOUS
 10
22.173027
 20
60.567946
 11
22.173027
 21
59.567946
  0
LINE
  8
1
  6
CONTINUOUS
 10
15.963398
 20
59.567946
 11
15.963398
 21
60.067946
  0
LINE
  8
1
  6
CONTINUOUS
 10
23.217842
 20
59.567946
 11
23.217842
 21
62.430594
  0
LINE
  8
1
  6
CONTINUOUS
 10
14.260586
 20
60.067946
 11
20.083395
 21
60.067946
  0
LINE
  8
1
  6
CONTINUOUS
 10
20.083395
 20
59.567946
 11
20.083395
 21
61.067946
  0
LINE
  8
1
  6
CONTINUOUS
 10
18.023397
 20
59.567946
 11
18.023397
 21
60.067946
  0
LINE
  8
1
  6
CONTINUOUS
 10
9.934750
 20
59.567945
 11
9.934750
 21
59.067945
  0
LINE
  8
1
  6
CONTINUOUS
 10
12.072462
 20
59.567945
 11
12.072462
 21
59.067945
  0
LINE
  8
1
  6
CONTINUOUS
 10
14.260586
 20
59.567945
 11
14.260586
 21
59.067945
  0
LINE
  8
1
  6
CONTINUOUS
 10
9.934750
 20
59.067945
 11
23.217842
 21
59.067945
  0
LINE
  8
1
  6
CONTINUOUS
 10
20.083395
 20
59.567945
 11
20.083395
 21
59.067945
  0
LINE
  8
1
  6
CONTINUOUS
 10
21.128210
 20
59.567945
 11
21.128210
 21
59.067945
  0
LINE
  8
1
  6
CONTINUOUS
 10
22.173027
 20
59.567945
 11
22.173027
 21
59.067945
  0
LINE
  8
1
  6
CONTINUOUS
 10
15.963398
 20
59.567945
 11
15.963398
 21
59.067945
  0
LINE
  8
1
  6
CONTINUOUS
 10
18.023397
 20
59.067945
 11
18.023397
 21
59.567945
  0
LINE
  8
1
  6
CONTINUOUS
 10
20.083395
 20
59.067945
 11
20.083395
 21
59.567945
  0
LINE
  8
1
  6
CONTINUOUS
 10
23.217842
 20
59.567945
 11
23.217842
 21
59.067945
  0
LINE
  8
2
  6
CONTINUOUS
 10
101.700000
 20
23.900000
 11
101.700000
 21
23.900000
  0
LINE
  8
2
  6
CONTINUOUS
 10
118.000000
 20
23.900000
 11
118.000000
 21
23.900000
  0
LINE
  8
2
  6
CONTINUOUS
 10
118.000000
 20
23.900000
 11
101.700000
 21
23.900000
  0
LINE
  8
2
  6
CONTINUOUS
 10
118.000000
 20
22.200000
 11
101.700000
 21
22.200000
  0
LINE
  8
2
  6
CONTINUOUS
 10
101.700000
 20
23.900000
 11
101.700000
 21
22.200000
  0
LINE
  8
2
  6
CONTINUOUS
 10
118.000000
 20
22.200000
 11
118.000000
 21
23.900000
  0
LINE
  8
1
  6
CONTINUOUS
 10
118.000002
 20
29.700001
 11
119.000002
 21
29.700001
  0
LINE
  8
1
  6
CONTINUOUS
 10
118.000002
 20
59.400002
 11
119.000002
 21
59.400002
  0
LINE
  8
1
  6
CONTINUOUS
 10
0.000000
 20
29.700001
 11
2.500000
 21
29.700001
  0
LINE
  8
1
  6
CONTINUOUS
 10
0.000000
 20
59.400002
 11
2.500000
 21
59.400002
  0
LINE
  8
1
  6
CONTINUOUS
 10
100.500002
 20
82.999998
 11
100.500002
 21
83.999998
  0
LINE
  8
1
  6
CONTINUOUS
 10
82.000002
 20
82.999998
 11
82.000002
 21
83.999998
  0
LINE
  8
1
  6
CONTINUOUS
 10
63.500002
 20
82.999998
 11
63.500002
 21
83.999998
  0
LINE
  8
1
  6
CONTINUOUS
 10
45.000002
 20
82.999998
 11
45.000002
 21
83.999998
  0
LINE
  8
1
  6
CONTINUOUS
 10
33.050001
 20
82.999998
 11
33.050001
 21
83.999998
  0
LINE
  8
1
  6
CONTINUOUS
 10
21.100000
 20
82.999998
 11
21.100000
 21
83.999998
  0
LINE
  8
1
  6
CONTINUOUS
 10
100.500002
 20
0.000000
 11
100.500002
 21
1.000000
  0
LINE
  8
1
  6
CONTINUOUS
 10
82.000002
 20
0.000000
 11
82.000002
 21
1.000000
  0
LINE
  8
1
  6
CONTINUOUS
 10
63.500002
 20
0.000000
 11
63.500002
 21
1.000000
  0
LINE
  8
1
  6
CONTINUOUS
 10
45.000002
 20
0.000000
 11
45.000002
 21
1.000000
  0
LINE
  8
1
  6
CONTINUOUS
 10
33.050001
 20
0.000000
 11
33.050001
 21
1.000000
  0
LINE
  8
1
  6
CONTINUOUS
 10
21.100000
 20
0.000000
 11
21.100000
 21
1.000000
  0
LINE
  8
1
  6
CONTINUOUS
 10
0.000000
 20
0.000000
 11
119.000002
 21
0.000000
  0
LINE
  8
1
  6
CONTINUOUS
 10
119.000002
 20
0.000000
 11
119.000002
 21
83.999998
  0
LINE
  8
1
  6
CONTINUOUS
 10
0.000000
 20
0.000000
 11
0.000000
 21
83.999998
  0
LINE
  8
8
  6
CONTINUOUS
 10
2.500000
 20
1.000000
 11
118.000002
 21
1.000000
  0
LINE
  8
8
  6
CONTINUOUS
 10
118.000002
 20
1.000000
 11
118.000002
 21
82.999998
  0
LINE
  8
1
  6
CONTINUOUS
 10
0.000000
 20
83.999998
 11
119.000002
 21
83.999998
  0
LINE
  8
8
  6
CONTINUOUS
 10
2.500000
 20
82.999998
 11
118.000002
 21
82.999998
  0
LINE
  8
8
  6
CONTINUOUS
 10
2.500000
 20
82.999998
 11
2.500000
 21
1.000000
  0
LINE
  8
2
  6
CONTINUOUS
 10
102.650002
 20
17.625000
 11
102.650002
 21
18.125000
  0
LINE
  8
1
  6
CONTINUOUS
 10
101.700002
 20
18.200000
 11
118.000002
 21
18.200000
  0
LINE
  8
1
  6
CONTINUOUS
 10
101.700002
 20
17.700000
 11
118.000002
 21
17.700000
  0
LINE
  8
1
  6
CONTINUOUS
 10
102.200002
 20
17.700000
 11
118.000002
 21
17.700000
  0
LINE
  8
2
  6
CONTINUOUS
 10
102.650002
 20
17.125000
 11
102.650002
 21
17.625000
  0
LINE
  8
1
  6
CONTINUOUS
 10
102.200002
 20
17.700000
 11
118.000002
 21
17.700000
  0
LINE
  8
1
  6
CONTINUOUS
 10
101.700002
 20
17.200000
 11
118.000002
 21
17.200000
  0
LINE
  8
2
  6
CONTINUOUS
 10
102.650002
 20
16.700000
 11
102.650002
 21
17.200000
  0
LINE
  8
1
  6
CONTINUOUS
 10
116.008223
 20
16.000000
 11
116.008223
 21
22.200000
  0
LINE
  8
1
  6
CONTINUOUS
 10
104.850002
 20
16.000000
 11
104.850002
 21
22.200000
  0
LINE
  8
6
  6
CONTINUOUS
 10
101.700002
 20
16.000000
 11
118.000002
 21
16.000000
  0
LINE
  8
1
  6
CONTINUOUS
 10
102.650002
 20
16.000000
 11
102.650002
 21
16.700000
  0
LINE
  8
1
  6
CONTINUOUS
 10
102.200002
 20
17.200000
 11
118.000002
 21
17.200000
  0
LINE
  8
1
  6
CONTINUOUS
 10
101.700002
 20
16.700000
 11
118.000002
 21
16.700000
  0
LINE
  8
2
  6
CONTINUOUS
 10
102.650002
 20
18.625000
 11
102.650002
 21
22.200000
  0
LINE
  8
6
  6
CONTINUOUS
 10
101.700002
 20
22.200000
 11
118.000002
 21
22.200000
  0
LINE
  8
1
  6
CONTINUOUS
 10
101.700002
 20
18.700000
 11
118.000002
 21
18.700000
  0
LINE
  8
1
  6
CONTINUOUS
 10
102.200002
 20
18.700000
 11
118.000002
 21
18.700000
  0
LINE
  8
2
  6
CONTINUOUS
 10
102.650002
 20
18.125000
 11
102.650002
 21
18.625000
  0
LINE
  8
1
  6
CONTINUOUS
 10
102.200002
 20
18.700000
 11
118.000002
 21
18.700000
  0
LINE
  8
1
  6
CONTINUOUS
 10
102.200002
 20
18.200000
 11
118.000002
 21
18.200000
  0
LINE
  8
1
  6
CONTINUOUS
 10
102.200002
 20
18.200000
 11
118.000002
 21
18.200000
  0
LINE
  8
6
  6
CONTINUOUS
 10
101.700002
 20
6.600000
 11
118.000002
 21
6.600000
  0
LINE
  8
6
  6
CONTINUOUS
 10
101.700002
 20
8.500000
 11
118.000002
 21
8.500000
  0
LINE
  8
6
  6
CONTINUOUS
 10
101.700002
 20
1.000000
 11
101.700002
 21
8.500000
  0
LINE
  8
6
  6
CONTINUOUS
 10
101.700002
 20
16.000000
 11
101.700002
 21
22.200000
  0
LINE
  8
6
  6
CONTINUOUS
 10
101.700002
 20
15.900000
 11
118.000002
 21
15.900000
  0
LINE
  8
6
  6
CONTINUOUS
 10
101.700002
 20
11.400000
 11
101.700002
 21
15.900000
  0
LINE
  8
1
  6
CONTINUOUS
 10
101.700002
 20
14.400000
 11
118.000002
 21
14.400000
  0
LINE
  8
6
  6
CONTINUOUS
 10
101.700002
 20
3.000000
 11
118.000002
 21
3.000000
  0
LINE
  8
6
  6
CONTINUOUS
 10
105.024321
 20
3.000000
 11
105.024321
 21
1.000000
  0
LINE
  8
1
  6
CONTINUOUS
 10
101.700002
 20
12.900000
 11
118.000002
 21
12.900000
  0
POLYLINE
  8
1
  6
CONTINUOUS
 66
     1
  0
VERTEX
  8
1
  6
CONTINUOUS
 10
103.635546
 20
9.498246
  0
VERTEX
  8
1
  6
CONTINUOUS
 10
101.971546
 20
9.498246
  0
VERTEX
  8
1
  6
CONTINUOUS
 10
101.971546
 20
11.162246
  0
VERTEX
  8
1
  6
CONTINUOUS
 10
103.635546
 20
11.162246
  0
VERTEX
  8
1
  6
CONTINUOUS
 10
103.635546
 20
9.498246
  0
SEQEND
  8
1
  6
CONTINUOUS
  0
POLYLINE
  8
13
  6
CONTINUOUS
 66
     1
  0
VERTEX
  8
13
  6
CONTINUOUS
 10
102.095046
 20
10.244446
  0
VERTEX
  8
13
  6
CONTINUOUS
 10
102.095046
 20
9.498246
  0
VERTEX
  8
13
  6
CONTINUOUS
 10
101.971546
 20
9.498246
  0
VERTEX
  8
13
  6
CONTINUOUS
 10
101.971546
 20
11.162246
  0
VERTEX
  8
13
  6
CONTINUOUS
 10
102.095046
 20
11.162246
  0
VERTEX
  8
13
  6
CONTINUOUS
 10
102.095046
 20
10.244446
  0
SEQEND
  8
13
  6
CONTINUOUS
  0
POLYLINE
  8
13
  6
CONTINUOUS
 66
     1
  0
VERTEX
  8
13
  6
CONTINUOUS
 10
102.522746
 20
10.230979
  0
VERTEX
  8
13
  6
CONTINUOUS
 10
102.522746
 20
9.498246
  0
VERTEX
  8
13
  6
CONTINUOUS
 10
102.095046
 20
9.498246
  0
VERTEX
  8
13
  6
CONTINUOUS
 10
102.095046
 20
10.244446
  0
VERTEX
  8
13
  6
CONTINUOUS
 10
102.143544
 20
10.248642
  0
VERTEX
  8
13
  6
CONTINUOUS
 10
102.211078
 20
10.252071
  0
VERTEX
  8
13
  6
CONTINUOUS
 10
102.259959
 20
10.252484
  0
VERTEX
  8
13
  6
CONTINUOUS
 10
102.290321
 20
10.252141
  0
VERTEX
  8
13
  6
CONTINUOUS
 10
102.334203
 20
10.250668
  0
VERTEX
  8
13
  6
CONTINUOUS
 10
102.394518
 20
10.246747
  0
VERTEX
  8
13
  6
CONTINUOUS
 10
102.446340
 20
10.241621
  0
VERTEX
  8
13
  6
CONTINUOUS
 10
102.490083
 20
10.235974
  0
VERTEX
  8
13
  6
CONTINUOUS
 10
102.522746
 20
10.230979
  0
SEQEND
  8
13
  6
CONTINUOUS
  0
POLYLINE
  8
13
  6
CONTINUOUS
 66
     1
  0
VERTEX
  8
13
  6
CONTINUOUS
 10
102.594246
 20
10.217654
  0
VERTEX
  8
13
  6
CONTINUOUS
 10
102.594246
 20
9.498246
  0
VERTEX
  8
13
  6
CONTINUOUS
 10
103.021946
 20
9.498246
  0
VERTEX
  8
13
  6
CONTINUOUS
 10
103.021946
 20
10.064184
  0
VERTEX
  8
13
  6
CONTINUOUS
 10
103.003898
 20
10.073542
  0
VERTEX
  8
13
  6
CONTINUOUS
 10
102.981716
 20
10.084501
  0
VERTEX
  8
13
  6
CONTINUOUS
 10
102.953307
 20
10.098271
  0
VERTEX
  8
13
  6
CONTINUOUS
 10
102.912865
 20
10.116383
  0
VERTEX
  8
13
  6
CONTINUOUS
 10
102.885024
 20
10.128001
  0
VERTEX
  8
13
  6
CONTINUOUS
 10
102.844071
 20
10.144755
  0
VERTEX
  8
13
  6
CONTINUOUS
 10
102.813490
 20
10.155923
  0
VERTEX
  8
13
  6
CONTINUOUS
 10
102.778388
 20
10.168156
  0
VERTEX
  8
13
  6
CONTINUOUS
 10
102.744083
 20
10.178793
  0
VERTEX
  8
13
  6
CONTINUOUS
 10
102.703465
 20
10.191172
  0
VERTEX
  8
13
  6
CONTINUOUS
 10
102.665141
 20
10.201162
  0
VERTEX
  8
13
  6
CONTINUOUS
 10
102.624819
 20
10.210970
  0
VERTEX
  8
13
  6
CONTINUOUS
 10
102.594246
 20
10.217654
  0
SEQEND
  8
13
  6
CONTINUOUS
  0
POLYLINE
  8
13
  6
CONTINUOUS
 66
     1
  0
VERTEX
  8
13
  6
CONTINUOUS
 10
103.093446
 20
10.024343
  0
VERTEX
  8
13
  6
CONTINUOUS
 10
103.093446
 20
9.498246
  0
VERTEX
  8
13
  6
CONTINUOUS
 10
103.521146
 20
9.498246
  0
VERTEX
  8
13
  6
CONTINUOUS
 10
103.521146
 20
9.661030
  0
VERTEX
  8
13
  6
CONTINUOUS
 10
103.507797
 20
9.676793
  0
VERTEX
  8
13
  6
CONTINUOUS
 10
103.495964
 20
9.690528
  0
VERTEX
  8
13
  6
CONTINUOUS
 10
103.473877
 20
9.715277
  0
VERTEX
  8
13
  6
CONTINUOUS
 10
103.454164
 20
9.736530
  0
VERTEX
  8
13
  6
CONTINUOUS
 10
103.434048
 20
9.757502
  0
VERTEX
  8
13
  6
CONTINUOUS
 10
103.410015
 20
9.781535
  0
VERTEX
  8
13
  6
CONTINUOUS
 10
103.399294
 20
9.791943
  0
VERTEX
  8
13
  6
CONTINUOUS
 10
103.388429
 20
9.802406
  0
VERTEX
  8
13
  6
CONTINUOUS
 10
103.359952
 20
9.828752
  0
VERTEX
  8
13
  6
CONTINUOUS
 10
103.325139
 20
9.859181
  0
VERTEX
  8
13
  6
CONTINUOUS
 10
103.286846
 20
9.890826
  0
VERTEX
  8
13
  6
CONTINUOUS
 10
103.251036
 20
9.918745
  0
VERTEX
  8
13
  6
CONTINUOUS
 10
103.200839
 20
9.955427
  0
VERTEX
  8
13
  6
CONTINUOUS
 10
103.134352
 20
9.999676
  0
VERTEX
  8
13
  6
CONTINUOUS
 10
103.093446
 20
10.024343
  0
SEQEND
  8
13
  6
CONTINUOUS
  0
POLYLINE
  8
13
  6
CONTINUOUS
 66
     1
  0
VERTEX
  8
13
  6
CONTINUOUS
 10
102.522746
 20
10.635283
  0
VERTEX
  8
13
  6
CONTINUOUS
 10
102.522746
 20
11.162246
  0
VERTEX
  8
13
  6
CONTINUOUS
 10
102.095046
 20
11.162246
  0
VERTEX
  8
13
  6
CONTINUOUS
 10
102.095046
 20
10.995122
  0
VERTEX
  8
13
  6
CONTINUOUS
 10
102.153689
 20
10.929235
  0
VERTEX
  8
13
  6
CONTINUOUS
 10
102.237359
 20
10.846559
  0
VERTEX
  8
13
  6
CONTINUOUS
 10
102.308389
 20
10.784730
  0
VERTEX
  8
13
  6
CONTINUOUS
 10
102.366624
 20
10.739274
  0
VERTEX
  8
13
  6
CONTINUOUS
 10
102.406322
 20
10.710064
  0
VERTEX
  8
13
  6
CONTINUOUS
 10
102.455827
 20
10.676682
  0
VERTEX
  8
13
  6
CONTINUOUS
 10
102.493954
 20
10.652515
  0
VERTEX
  8
13
  6
CONTINUOUS
 10
102.522746
 20
10.635283
  0
SEQEND
  8
13
  6
CONTINUOUS
  0
POLYLINE
  8
13
  6
CONTINUOUS
 66
     1
  0
VERTEX
  8
13
  6
CONTINUOUS
 10
103.021946
 20
10.443678
  0
VERTEX
  8
13
  6
CONTINUOUS
 10
103.021946
 20
11.162246
  0
VERTEX
  8
13
  6
CONTINUOUS
 10
102.594246
 20
11.162246
  0
VERTEX
  8
13
  6
CONTINUOUS
 10
102.594246
 20
10.595859
  0
VERTEX
  8
13
  6
CONTINUOUS
 10
102.663800
 20
10.561766
  0
VERTEX
  8
13
  6
CONTINUOUS
 10
102.744359
 20
10.527375
  0
VERTEX
  8
13
  6
CONTINUOUS
 10
102.812197
 20
10.501464
  0
VERTEX
  8
13
  6
CONTINUOUS
 10
102.889458
 20
10.476967
  0
VERTEX
  8
13
  6
CONTINUOUS
 10
102.950702
 20
10.460007
  0
VERTEX
  8
13
  6
CONTINUOUS
 10
103.021946
 20
10.443678
  0
SEQEND
  8
13
  6
CONTINUOUS
  0
POLYLINE
  8
13
  6
CONTINUOUS
 66
     1
  0
VERTEX
  8
13
  6
CONTINUOUS
 10
103.093446
 20
10.430307
  0
VERTEX
  8
13
  6
CONTINUOUS
 10
103.093446
 20
11.162246
  0
VERTEX
  8
13
  6
CONTINUOUS
 10
103.521146
 20
11.162246
  0
VERTEX
  8
13
  6
CONTINUOUS
 10
103.521146
 20
10.417580
  0
VERTEX
  8
13
  6
CONTINUOUS
 10
103.476372
 20
10.413637
  0
VERTEX
  8
13
  6
CONTINUOUS
 10
103.416577
 20
10.410480
  0
VERTEX
  8
13
  6
CONTINUOUS
 10
103.366788
 20
10.409453
  0
VERTEX
  8
13
  6
CONTINUOUS
 10
103.336830
 20
10.409453
  0
VERTEX
  8
13
  6
CONTINUOUS
 10
103.286182
 20
10.410821
  0
VERTEX
  8
13
  6
CONTINUOUS
 10
103.241261
 20
10.413321
  0
VERTEX
  8
13
  6
CONTINUOUS
 10
103.205545
 20
10.416539
  0
VERTEX
  8
13
  6
CONTINUOUS
 10
103.155349
 20
10.421044
  0
VERTEX
  8
13
  6
CONTINUOUS
 10
103.093446
 20
10.430307
  0
SEQEND
  8
13
  6
CONTINUOUS
  0
POLYLINE
  8
13
  6
CONTINUOUS
 66
     1
  0
VERTEX
  8
13
  6
CONTINUOUS
 10
102.522746
 20
9.498246
  0
VERTEX
  8
13
  6
CONTINUOUS
 10
102.594246
 20
9.498246
  0
VERTEX
  8
13
  6
CONTINUOUS
 10
102.594246
 20
11.162246
  0
VERTEX
  8
13
  6
CONTINUOUS
 10
102.522746
 20
11.162246
  0
VERTEX
  8
13
  6
CONTINUOUS
 10
102.522746
 20
9.498246
  0
VERTEX
  8
13
  6
CONTINUOUS
 10
102.594246
 20
9.498246
  0
SEQEND
  8
13
  6
CONTINUOUS
  0
POLYLINE
  8
13
  6
CONTINUOUS
 66
     1
  0
VERTEX
  8
13
  6
CONTINUOUS
 10
103.021946
 20
11.162246
  0
VERTEX
  8
13
  6
CONTINUOUS
 10
103.093446
 20
11.162246
  0
VERTEX
  8
13
  6
CONTINUOUS
 10
103.093446
 20
9.498246
  0
VERTEX
  8
13
  6
CONTINUOUS
 10
103.021946
 20
9.498246
  0
VERTEX
  8
13
  6
CONTINUOUS
 10
103.021946
 20
11.162246
  0
SEQEND
  8
13
  6
CONTINUOUS
  0
POLYLINE
  8
13
  6
CONTINUOUS
 66
     1
  0
VERTEX
  8
13
  6
CONTINUOUS
 10
103.521146
 20
9.498246
  0
VERTEX
  8
13
  6
CONTINUOUS
 10
103.635546
 20
9.498246
  0
VERTEX
  8
13
  6
CONTINUOUS
 10
103.635546
 20
11.162246
  0
VERTEX
  8
13
  6
CONTINUOUS
 10
103.521146
 20
11.162246
  0
VERTEX
  8
13
  6
CONTINUOUS
 10
103.521146
 20
9.498246
  0
SEQEND
  8
13
  6
CONTINUOUS
  0
LINE
  8
6
  6
CONTINUOUS
 10
107.924321
 20
3.000000
 11
107.924321
 21
2.000000
  0
LINE
  8
6
  6
CONTINUOUS
 10
101.700002
 20
2.000000
 11
114.124321
 21
2.000000
  0
LINE
  8
6
  6
CONTINUOUS
 10
114.124321
 20
3.000000
 11
114.124321
 21
1.000000
  0
LINE
  8
6
  6
CONTINUOUS
 10
101.700002
 20
8.600000
 11
118.000002
 21
8.600000
  0
LINE
  8
6
  6
CONTINUOUS
 10
101.700002
 20
8.600000
 11
101.700002
 21
11.300000
  0
LINE
  8
6
  6
CONTINUOUS
 10
101.700002
 20
11.300000
 11
118.000002
 21
11.300000
  0
LINE
  8
6
  6
CONTINUOUS
 10
101.700002
 20
11.400000
 11
118.000002
 21
11.400000
  0
LINE
  8
1
  6
CONTINUOUS
 10
101.700002
 20
19.200000
 11
118.000002
 21
19.200000
  0
LINE
  8
1
  6
CONTINUOUS
 10
102.200002
 20
19.200000
 11
118.000002
 21
19.200000
  0
LINE
  8
1
  6
CONTINUOUS
 10
102.200002
 20
19.200000
 11
118.000002
 21
19.200000
  0
LINE
  8
1
  6
CONTINUOUS
 10
101.700002
 20
19.700000
 11
118.000002
 21
19.700000
  0
LINE
  8
1
  6
CONTINUOUS
 10
102.200002
 20
19.700000
 11
118.000002
 21
19.700000
  0
LINE
  8
1
  6
CONTINUOUS
 10
102.200002
 20
19.700000
 11
118.000002
 21
19.700000
  0
LINE
  8
1
  6
CONTINUOUS
 10
101.700002
 20
20.200000
 11
118.000002
 21
20.200000
  0
LINE
  8
1
  6
CONTINUOUS
 10
102.200002
 20
20.200000
 11
118.000002
 21
20.200000
  0
LINE
  8
1
  6
CONTINUOUS
 10
102.200002
 20
20.200000
 11
118.000002
 21
20.200000
  0
LINE
  8
1
  6
CONTINUOUS
 10
101.700002
 20
20.700000
 11
118.000002
 21
20.700000
  0
LINE
  8
1
  6
CONTINUOUS
 10
102.200002
 20
20.700000
 11
118.000002
 21
20.700000
  0
LINE
  8
1
  6
CONTINUOUS
 10
102.200002
 20
20.700000
 11
118.000002
 21
20.700000
  0
LINE
  8
1
  6
CONTINUOUS
 10
101.700002
 20
21.200000
 11
118.000002
 21
21.200000
  0
LINE
  8
1
  6
CONTINUOUS
 10
102.200002
 20
21.200000
 11
118.000002
 21
21.200000
  0
LINE
  8
1
  6
CONTINUOUS
 10
102.200002
 20
21.200000
 11
118.000002
 21
21.200000
  0
LINE
  8
1
  6
CONTINUOUS
 10
101.700002
 20
21.700000
 11
118.000002
 21
21.700000
  0
LINE
  8
6
  6
CONTINUOUS
 10
110.708935
 20
11.300000
 11
110.708935
 21
8.600000
  0
TEXT
  8
1
  6
CONTINUOUS
 10
82.547366
 20
36.453849
 40
0.300000
  1
L8
  7
TQS_CALIBRI
  0
TEXT
  8
1
  6
CONTINUOUS
 10
34.077035
 20
28.894885
 40
0.300000
  1
L9
  7
TQS_CALIBRI
  0
TEXT
  8
1
  6
CONTINUOUS
 10
27.870421
 20
17.594502
 40
0.300000
  1
P76
  7
TQS_CALIBRI
  0
TEXT
  8
1
  6
CONTINUOUS
 10
25.145480
 20
40.833663
 40
0.300000
  1
P40
  7
TQS_CALIBRI
  0
TEXT
  8
1
  6
CONTINUOUS
 10
44.810969
 20
43.139557
 40
0.300000
  1
P38
  7
TQS_CALIBRI
  0
TEXT
  8
1
  6
CONTINUOUS
 10
47.535911
 20
19.900396
 40
0.300000
  1
P72
  7
TQS_CALIBRI
  0
TEXT
  8
1
  6
CONTINUOUS
 10
74.441229
 20
23.055165
 40
0.300000
  1
P66
  7
TQS_CALIBRI
  0
TEXT
  8
1
  6
CONTINUOUS
 10
76.490322
 20
46.854105
 40
0.300000
  1
P34
  7
TQS_CALIBRI
  0
TEXT
  8
1
  6
CONTINUOUS
 10
11.328075
 20
15.776869
 40
0.300000
  1
P79
  7
TQS_CALIBRI
  0
TEXT
  8
1
  6
CONTINUOUS
 10
8.494578
 20
39.003300
 40
0.300000
  1
P43
  7
TQS_CALIBRI
  0
TEXT
  8
1
  6
CONTINUOUS
 10
64.130414
 20
21.979226
 40
0.300000
  1
P70
  7
TQS_CALIBRI
  0
TEXT
  8
1
  6
CONTINUOUS
 10
61.945716
 20
45.281617
 40
0.300000
  1
P36
  7
TQS_CALIBRI
  0
TEXT
  8
1
  6
CONTINUOUS
 10
7.349014
 20
49.772851
 40
0.300000
  1
P31
  7
TQS_CALIBRI
  0
TEXT
  8
1
  6
CONTINUOUS
 10
12.626711
 20
5.128567
 40
0.300000
  1
P91
  7
TQS_CALIBRI
  0
TEXT
  8
1
  6
CONTINUOUS
 10
21.254550
 20
5.996830
 40
0.300000
  1
P90
  7
TQS_CALIBRI
  0
TEXT
  8
1
  6
CONTINUOUS
 10
45.725476
 20
8.606985
 40
0.300000
  1
P88
  7
TQS_CALIBRI
  0
TEXT
  8
1
  6
CONTINUOUS
 10
65.197189
 20
10.735443
 40
0.300000
  1
P86
  7
TQS_CALIBRI
  0
TEXT
  8
1
  6
CONTINUOUS
 10
89.284102
 20
13.633945
 40
0.300000
  1
P82
  7
TQS_CALIBRI
  0
TEXT
  8
1
  6
CONTINUOUS
 10
60.971374
 20
55.758631
 40
0.300000
  1
P18
  7
TQS_CALIBRI
  0
TEXT
  8
1
  6
CONTINUOUS
 10
85.094594
 20
58.990068
 40
0.300000
  1
P12
  7
TQS_CALIBRI
  0
TEXT
  8
1
  6
CONTINUOUS
 10
43.447700
 20
53.928664
 40
0.300000
  1
P22
  7
TQS_CALIBRI
  0
TEXT
  8
1
  6
CONTINUOUS
 10
62.363201
 20
22.157381
 40
0.300000
  1
P69
  7
TQS_CALIBRI
  0
TEXT
  8
1
  6
CONTINUOUS
 10
60.210365
 20
45.069367
 40
0.300000
  1
P35
  7
TQS_CALIBRI
  0
TEXT
  8
1
  6
CONTINUOUS
 10
63.454437
 20
10.534044
 40
0.300000
  1
P85
  7
TQS_CALIBRI
  0
TEXT
  8
1
  6
CONTINUOUS
 10
59.239690
 20
55.440837
 40
0.300000
  1
P19
  7
TQS_CALIBRI
  0
TEXT
  8
1
  6
CONTINUOUS
 10
92.499041
 20
48.852457
 40
0.300000
  1
P32
  7
TQS_CALIBRI
  0
TEXT
  8
1
  6
CONTINUOUS
 10
95.275361
 20
25.518662
 40
0.300000
  1
P61
  7
TQS_CALIBRI
  0
TEXT
  8
1
  6
CONTINUOUS
 10
75.106506
 20
57.748707
 40
0.300000
  1
P15
  7
TQS_CALIBRI
  0
TEXT
  8
1
  6
CONTINUOUS
 10
80.408186
 20
12.545843
 40
0.300000
  1
P83
  7
TQS_CALIBRI
  0
TEXT
  8
1
  6
CONTINUOUS
 10
9.904809
 20
27.442281
 40
0.300000
  1
P59
  7
TQS_CALIBRI
  0
TEXT
  8
1
  6
CONTINUOUS
 10
61.302357
 20
33.471032
 40
0.300000
  1
P52
  7
TQS_CALIBRI
  0
TEXT
  8
1
  6
CONTINUOUS
 10
63.030421
 20
33.682645
 40
0.300000
  1
P49
  7
TQS_CALIBRI
  0
TEXT
  8
1
  6
CONTINUOUS
 10
93.879677
 20
37.250083
 40
0.300000
  1
P45
  7
TQS_CALIBRI
  0
TEXT
  8
1
  6
CONTINUOUS
 10
94.222462
 20
16.635819
 40
0.300000
  1
P78
  7
TQS_CALIBRI
  0
TEXT
  8
1
  6
CONTINUOUS
 10
31.893362
 20
7.133615
 40
0.300000
  1
P89
  7
TQS_CALIBRI
  0
TEXT
  8
1
  6
CONTINUOUS
 10
55.757205
 20
9.717010
 40
0.300000
  1
P87
  7
TQS_CALIBRI
  0
TEXT
  8
1
  6
CONTINUOUS
 10
72.993852
 20
11.641705
 40
0.300000
  1
P84
  7
TQS_CALIBRI
  0
TEXT
  8
1
  6
CONTINUOUS
 10
25.009621
 20
51.624683
 40
0.300000
  1
P27
  7
TQS_CALIBRI
  0
TEXT
  8
1
  6
CONTINUOUS
 10
35.007200
 20
52.906326
 40
0.300000
  1
P24
  7
TQS_CALIBRI
  0
TEXT
  8
1
  6
CONTINUOUS
 10
77.846594
 20
35.286757
 40
0.300000
  1
P48
  7
TQS_CALIBRI
  0
TEXT
  8
1
  6
CONTINUOUS
 10
26.501844
 20
29.266336
 40
0.300000
  1
P56
  7
TQS_CALIBRI
  0
TEXT
  8
1
  6
CONTINUOUS
 10
46.167265
 20
31.572222
 40
0.300000
  1
P54
  7
TQS_CALIBRI
  0
TEXT
  8
1
  6
CONTINUOUS
 10
91.403580
 20
58.052496
 40
0.300000
  1
P14
  7
TQS_CALIBRI
  0
TEXT
  8
1
  6
CONTINUOUS
 10
16.537390
 20
50.644667
 40
0.300000
  1
P28
  7
TQS_CALIBRI
  0
TEXT
  8
1
  6
CONTINUOUS
 10
85.287168
 20
24.326905
 40
0.300000
  1
P64
  7
TQS_CALIBRI
  0
TEXT
  8
4
  6
CONTINUOUS
 10
34.457240
 20
43.732180
 40
0.300000
 50
6.688000
  1
C19
  7
TQS_CALIBRI
  0
TEXT
  8
4
  6
CONTINUOUS
 10
34.513142
 20
43.255447
 40
0.300000
 50
6.688000
  1
C21
  7
TQS_CALIBRI
  0
TEXT
  8
4
  6
CONTINUOUS
 10
34.569044
 20
42.778713
 40
0.300000
 50
6.688000
  1
C23
  7
TQS_CALIBRI
  0
TEXT
  8
4
  6
CONTINUOUS
 10
34.624946
 20
42.301979
 40
0.300000
 50
6.688000
  1
C25
  7
TQS_CALIBRI
  0
TEXT
  8
4
  6
CONTINUOUS
 10
34.680848
 20
41.825246
 40
0.300000
 50
6.688000
  1
C26
  7
TQS_CALIBRI
  0
TEXT
  8
4
  6
CONTINUOUS
 10
34.511885
 20
32.052486
 40
0.300000
 50
6.688000
  1
C40
  7
TQS_CALIBRI
  0
TEXT
  8
4
  6
CONTINUOUS
 10
34.558470
 20
31.655208
 40
0.300000
 50
6.688000
  1
C42
  7
TQS_CALIBRI
  0
TEXT
  8
4
  6
CONTINUOUS
 10
34.605055
 20
31.257930
 40
0.300000
 50
6.688000
  1
C44
  7
TQS_CALIBRI
  0
TEXT
  8
4
  6
CONTINUOUS
 10
34.651640
 20
30.860652
 40
0.300000
 50
6.688000
  1
C46
  7
TQS_CALIBRI
  0
TEXT
  8
4
  6
CONTINUOUS
 10
34.698226
 20
30.463374
 40
0.300000
 50
6.688000
  1
C47
  7
TQS_CALIBRI
  0
TEXT
  8
4
  6
CONTINUOUS
 10
34.744811
 20
30.066096
 40
0.300000
 50
6.688000
  1
C48
  7
TQS_CALIBRI
  0
TEXT
  8
4
  6
CONTINUOUS
 10
36.968549
 20
20.508242
 40
0.300000
 50
6.688000
  1
C58
  7
TQS_CALIBRI
  0
TEXT
  8
4
  6
CONTINUOUS
 10
37.015135
 20
20.110964
 40
0.300000
 50
6.688000
  1
C59
  7
TQS_CALIBRI
  0
TEXT
  8
4
  6
CONTINUOUS
 10
37.061720
 20
19.713686
 40
0.300000
 50
6.688000
  1
C60
  7
TQS_CALIBRI
  0
TEXT
  8
4
  6
CONTINUOUS
 10
37.108305
 20
19.316408
 40
0.300000
 50
6.688000
  1
C61
  7
TQS_CALIBRI
  0
TEXT
  8
4
  6
CONTINUOUS
 10
37.154890
 20
18.919130
 40
0.300000
 50
6.688000
  1
C62
  7
TQS_CALIBRI
  0
TEXT
  8
4
  6
CONTINUOUS
 10
37.201475
 20
18.521852
 40
0.300000
 50
6.688000
  1
C63
  7
TQS_CALIBRI
  0
TEXT
  8
4
  6
CONTINUOUS
 10
77.323284
 20
48.798667
 40
0.300000
 50
6.688000
  1
C11
  7
TQS_CALIBRI
  0
TEXT
  8
4
  6
CONTINUOUS
 10
77.369869
 20
48.401389
 40
0.300000
 50
6.688000
  1
C12
  7
TQS_CALIBRI
  0
TEXT
  8
4
  6
CONTINUOUS
 10
77.416454
 20
48.004111
 40
0.300000
 50
6.688000
  1
C13
  7
TQS_CALIBRI
  0
TEXT
  8
4
  6
CONTINUOUS
 10
77.463040
 20
47.606832
 40
0.300000
 50
6.688000
  1
C14
  7
TQS_CALIBRI
  0
TEXT
  8
4
  6
CONTINUOUS
 10
77.509625
 20
47.209554
 40
0.300000
 50
6.688000
  1
C15
  7
TQS_CALIBRI
  0
TEXT
  8
4
  6
CONTINUOUS
 10
77.556210
 20
46.812276
 40
0.300000
 50
6.688000
  1
C16
  7
TQS_CALIBRI
  0
TEXT
  8
4
  6
CONTINUOUS
 10
77.361969
 20
37.076817
 40
0.300000
 50
6.688000
  1
C32
  7
TQS_CALIBRI
  0
TEXT
  8
4
  6
CONTINUOUS
 10
77.408554
 20
36.679539
 40
0.300000
 50
6.688000
  1
C33
  7
TQS_CALIBRI
  0
TEXT
  8
4
  6
CONTINUOUS
 10
77.455139
 20
36.282261
 40
0.300000
 50
6.688000
  1
C34
  7
TQS_CALIBRI
  0
TEXT
  8
4
  6
CONTINUOUS
 10
77.501724
 20
35.884983
 40
0.300000
 50
6.688000
  1
C35
  7
TQS_CALIBRI
  0
TEXT
  8
4
  6
CONTINUOUS
 10
77.548309
 20
35.487705
 40
0.300000
 50
6.688000
  1
C36
  7
TQS_CALIBRI
  0
TEXT
  8
4
  6
CONTINUOUS
 10
77.594894
 20
35.090427
 40
0.300000
 50
6.688000
  1
C37
  7
TQS_CALIBRI
  0
TEXT
  8
4
  6
CONTINUOUS
 10
79.809622
 20
25.430869
 40
0.300000
 50
6.688000
  1
C54
  7
TQS_CALIBRI
  0
TEXT
  8
4
  6
CONTINUOUS
 10
79.879500
 20
24.834952
 40
0.300000
 50
6.688000
  1
C55
  7
TQS_CALIBRI
  0
TEXT
  8
4
  6
CONTINUOUS
 10
79.949377
 20
24.239035
 40
0.300000
 50
6.688000
  1
C56
  7
TQS_CALIBRI
  0
TEXT
  8
4
  6
CONTINUOUS
 10
80.019255
 20
23.643118
 40
0.300000
 50
6.688000
  1
C57
  7
TQS_CALIBRI
  0
TEXT
  8
1
  6
CONTINUOUS
 10
10.663652
 20
66.417950
 40
0.220000
  1
CABO
  7
TQS_CALIBRI
  0
TEXT
  8
1
  6
CONTINUOUS
 10
17.728133
 20
66.707950
 40
0.220000
  1
COMPRIMENTO
  7
TQS_CALIBRI
  0
TEXT
  8
1
  6
CONTINUOUS
 10
20.722439
 20
66.207950
 40
0.220000
  1
TOTAL
  7
TQS_CALIBRI
  0
TEXT
  8
1
  6
CONTINUOUS
 10
23.552793
 20
66.207950
 40
0.220000
  1
A
  7
TQS_CALIBRI
  0
TEXT
  8
1
  6
CONTINUOUS
 10
24.597609
 20
66.207950
 40
0.220000
  1
P
  7
TQS_CALIBRI
  0
TEXT
  8
1
  6
CONTINUOUS
 10
25.642425
 20
66.207950
 40
0.220000
  1
I
  7
TQS_CALIBRI
  0
TEXT
  8
1
  6
CONTINUOUS
 10
23.570106
 20
66.707950
 40
0.220000
  1
ANCORAGENS
  7
TQS_CALIBRI
  0
TEXT
  8
1
  6
CONTINUOUS
 10
15.122613
 20
66.417950
 40
0.220000
  1
Q
  7
TQS_CALIBRI
  0
TEXT
  8
1
  6
CONTINUOUS
 10
11.822274
 20
67.367950
 40
0.400000
  1
PROTENSÃO: AÇO
  7
TQS_CALIBRI
  0
TEXT
  8
1
  6
CONTINUOUS
 10
17.141003
 20
66.207950
 40
0.220000
  1
UNITÁRIO
  7
TQS_CALIBRI
  0
TEXT
  8
1
  6
CONTINUOUS
 10
26.597488
 20
66.207950
 40
0.220000
  1
INI
  7
TQS_CALIBRI
  0
TEXT
  8
1
  6
CONTINUOUS
 10
28.164712
 20
66.207950
 40
0.220000
  1
FIN
  7
TQS_CALIBRI
  0
TEXT
  8
1
  6
CONTINUOUS
 10
13.051864
 20
66.420169
 40
0.220000
  1
%%c
  7
TQS_CALIBRI
  0
TEXT
  8
1
  6
CONTINUOUS
 10
26.691254
 20
66.707950
 40
0.220000
  1
ALONG
  7
TQS_CALIBRI
  0
TEXT
  8
1
  6
CONTINUOUS
 10
18.150504
 20
67.367950
 40
0.400000
  1
CP190 RB 12.7 - 12.7
  7
TQS_CALIBRI
  0
TEXT
  8
1
  6
CONTINUOUS
 10
13.337012
 20
66.420169
 40
0.220000
  1
(mm)
  7
TQS_CALIBRI
  0
TEXT
  8
1
  6
CONTINUOUS
 10
20.388209
 20
66.707950
 40
0.220000
  1
(m)
  7
TQS_CALIBRI
  0
TEXT
  8
1
  6
CONTINUOUS
 10
27.878750
 20
66.707950
 40
0.220000
  1
(mm)
  7
TQS_CALIBRI
  0
TEXT
  8
1
  6
CONTINUOUS
 10
10.309074
 20
65.707950
 40
0.220000
  1
C11 A C16
  7
TQS_CALIBRI
  0
TEXT
  8
1
  6
CONTINUOUS
 10
12.662555
 20
65.707950
 40
0.220000
  1
4 %%c 12.7
  7
TQS_CALIBRI
  0
TEXT
  8
1
  6
CONTINUOUS
 10
14.876952
 20
65.707950
 40
0.220000
  1
6
  7
TQS_CALIBRI
  0
TEXT
  8
1
  6
CONTINUOUS
 10
17.113535
 20
65.707950
 40
0.220000
  1
15.3
  7
TQS_CALIBRI
  0
TEXT
  8
1
  6
CONTINUOUS
 10
20.390368
 20
65.707950
 40
0.220000
  1
367.9
  7
TQS_CALIBRI
  0
TEXT
  8
1
  6
CONTINUOUS
 10
23.368340
 20
65.707950
 40
0.220000
  1
24
  7
TQS_CALIBRI
  0
TEXT
  8
1
  6
CONTINUOUS
 10
24.413156
 20
65.707950
 40
0.220000
  1
24
  7
TQS_CALIBRI
  0
TEXT
  8
1
  6
CONTINUOUS
 10
26.449979
 20
65.707950
 40
0.220000
  1
0
  7
TQS_CALIBRI
  0
TEXT
  8
1
  6
CONTINUOUS
 10
28.017203
 20
65.707950
 40
0.220000
  1
102
  7
TQS_CALIBRI
  0
TEXT
  8
1
  6
CONTINUOUS
 10
10.309074
 20
65.207949
 40
0.220000
  1
C19 A C26
  7
TQS_CALIBRI
  0
TEXT
  8
1
  6
CONTINUOUS
 10
12.662555
 20
65.207949
 40
0.220000
  1
   "
  7
TQS_CALIBRI
  0
TEXT
  8
1
  6
CONTINUOUS
 10
14.876952
 20
65.207949
 40
0.220000
  1
5
  7
TQS_CALIBRI
  0
TEXT
  8
1
  6
CONTINUOUS
 10
17.113535
 20
65.207949
 40
0.220000
  1
26
  7
TQS_CALIBRI
  0
TEXT
  8
1
  6
CONTINUOUS
 10
20.390368
 20
65.207949
 40
0.220000
  1
519.7
  7
TQS_CALIBRI
  0
TEXT
  8
1
  6
CONTINUOUS
 10
23.368340
 20
65.207949
 40
0.220000
  1
20
  7
TQS_CALIBRI
  0
TEXT
  8
1
  6
CONTINUOUS
 10
24.413156
 20
65.207949
 40
0.220000
  1
20
  7
TQS_CALIBRI
  0
TEXT
  8
1
  6
CONTINUOUS
 10
26.449979
 20
65.207949
 40
0.220000
  1
0
  7
TQS_CALIBRI
  0
TEXT
  8
1
  6
CONTINUOUS
 10
28.017203
 20
65.207949
 40
0.220000
  1
176
  7
TQS_CALIBRI
  0
TEXT
  8
1
  6
CONTINUOUS
 10
10.309074
 20
64.707948
 40
0.220000
  1
C32 A C37
  7
TQS_CALIBRI
  0
TEXT
  8
1
  6
CONTINUOUS
 10
12.662555
 20
64.707948
 40
0.220000
  1
   "
  7
TQS_CALIBRI
  0
TEXT
  8
1
  6
CONTINUOUS
 10
14.876952
 20
64.707948
 40
0.220000
  1
6
  7
TQS_CALIBRI
  0
TEXT
  8
1
  6
CONTINUOUS
 10
17.113535
 20
64.707948
 40
0.220000
  1
15.5
  7
TQS_CALIBRI
  0
TEXT
  8
1
  6
CONTINUOUS
 10
20.390368
 20
64.707948
 40
0.220000
  1
371.4
  7
TQS_CALIBRI
  0
TEXT
  8
1
  6
CONTINUOUS
 10
23.368340
 20
64.707948
 40
0.220000
  1
24
  7
TQS_CALIBRI
  0
TEXT
  8
1
  6
CONTINUOUS
 10
24.413156
 20
64.707948
 40
0.220000
  1
24
  7
TQS_CALIBRI
  0
TEXT
  8
1
  6
CONTINUOUS
 10
26.449979
 20
64.707948
 40
0.220000
  1
0
  7
TQS_CALIBRI
  0
TEXT
  8
1
  6
CONTINUOUS
 10
28.017203
 20
64.707948
 40
0.220000
  1
103
  7
TQS_CALIBRI
  0
TEXT
  8
1
  6
CONTINUOUS
 10
10.309074
 20
64.207947
 40
0.220000
  1
C40 A C48
  7
TQS_CALIBRI
  0
TEXT
  8
1
  6
CONTINUOUS
 10
12.662555
 20
64.207947
 40
0.220000
  1
   "
  7
TQS_CALIBRI
  0
TEXT
  8
1
  6
CONTINUOUS
 10
14.876952
 20
64.207947
 40
0.220000
  1
6
  7
TQS_CALIBRI
  0
TEXT
  8
1
  6
CONTINUOUS
 10
17.113535
 20
64.207947
 40
0.220000
  1
25.8
  7
TQS_CALIBRI
  0
TEXT
  8
1
  6
CONTINUOUS
 10
20.390368
 20
64.207947
 40
0.220000
  1
619.9
  7
TQS_CALIBRI
  0
TEXT
  8
1
  6
CONTINUOUS
 10
23.368340
 20
64.207947
 40
0.220000
  1
24
  7
TQS_CALIBRI
  0
TEXT
  8
1
  6
CONTINUOUS
 10
24.413156
 20
64.207947
 40
0.220000
  1
24
  7
TQS_CALIBRI
  0
TEXT
  8
1
  6
CONTINUOUS
 10
26.449979
 20
64.207947
 40
0.220000
  1
0
  7
TQS_CALIBRI
  0
TEXT
  8
1
  6
CONTINUOUS
 10
28.017203
 20
64.207947
 40
0.220000
  1
175
  7
TQS_CALIBRI
  0
TEXT
  8
1
  6
CONTINUOUS
 10
10.309074
 20
63.707947
 40
0.220000
  1
C54 A C57
  7
TQS_CALIBRI
  0
TEXT
  8
1
  6
CONTINUOUS
 10
12.662555
 20
63.707947
 40
0.220000
  1
   "
  7
TQS_CALIBRI
  0
TEXT
  8
1
  6
CONTINUOUS
 10
14.876952
 20
63.707947
 40
0.220000
  1
4
  7
TQS_CALIBRI
  0
TEXT
  8
1
  6
CONTINUOUS
 10
17.113535
 20
63.707947
 40
0.220000
  1
15.6
  7
TQS_CALIBRI
  0
TEXT
  8
1
  6
CONTINUOUS
 10
20.390368
 20
63.707947
 40
0.220000
  1
249.9
  7
TQS_CALIBRI
  0
TEXT
  8
1
  6
CONTINUOUS
 10
23.368340
 20
63.707947
 40
0.220000
  1
16
  7
TQS_CALIBRI
  0
TEXT
  8
1
  6
CONTINUOUS
 10
24.413156
 20
63.707947
 40
0.220000
  1
16
  7
TQS_CALIBRI
  0
TEXT
  8
1
  6
CONTINUOUS
 10
26.449979
 20
63.707947
 40
0.220000
  1
0
  7
TQS_CALIBRI
  0
TEXT
  8
1
  6
CONTINUOUS
 10
28.017203
 20
63.707947
 40
0.220000
  1
103
  7
TQS_CALIBRI
  0
TEXT
  8
1
  6
CONTINUOUS
 10
10.309074
 20
63.207946
 40
0.220000
  1
C58 A C63
  7
TQS_CALIBRI
  0
TEXT
  8
1
  6
CONTINUOUS
 10
12.662555
 20
63.207946
 40
0.220000
  1
   "
  7
TQS_CALIBRI
  0
TEXT
  8
1
  6
CONTINUOUS
 10
14.876952
 20
63.207946
 40
0.220000
  1
6
  7
TQS_CALIBRI
  0
TEXT
  8
1
  6
CONTINUOUS
 10
17.113535
 20
63.207946
 40
0.220000
  1
25.7
  7
TQS_CALIBRI
  0
TEXT
  8
1
  6
CONTINUOUS
 10
20.390368
 20
63.207946
 40
0.220000
  1
616
  7
TQS_CALIBRI
  0
TEXT
  8
1
  6
CONTINUOUS
 10
23.368340
 20
63.207946
 40
0.220000
  1
24
  7
TQS_CALIBRI
  0
TEXT
  8
1
  6
CONTINUOUS
 10
24.413156
 20
63.207946
 40
0.220000
  1
24
  7
TQS_CALIBRI
  0
TEXT
  8
1
  6
CONTINUOUS
 10
26.449979
 20
63.207946
 40
0.220000
  1
0
  7
TQS_CALIBRI
  0
TEXT
  8
1
  6
CONTINUOUS
 10
28.017203
 20
63.207946
 40
0.220000
  1
174
  7
TQS_CALIBRI
  0
TEXT
  8
1
  6
CONTINUOUS
 10
10.795215
 20
60.207945
 40
0.220000
  1
%%c
  7
TQS_CALIBRI
  0
TEXT
  8
1
  6
CONTINUOUS
 10
14.368753
 20
60.707946
 40
0.220000
  1
CABO
  7
TQS_CALIBRI
  0
TEXT
  8
1
  6
CONTINUOUS
 10
20.553313
 20
59.957946
 40
0.220000
  1
A
  7
TQS_CALIBRI
  0
TEXT
  8
1
  6
CONTINUOUS
 10
21.598128
 20
59.957946
 40
0.220000
  1
P
  7
TQS_CALIBRI
  0
TEXT
  8
1
  6
CONTINUOUS
 10
22.642945
 20
59.957946
 40
0.220000
  1
I
  7
TQS_CALIBRI
  0
TEXT
  8
1
  6
CONTINUOUS
 10
16.864512
 20
60.207945
 40
0.220000
  1
PESO
  7
TQS_CALIBRI
  0
TEXT
  8
1
  6
CONTINUOUS
 10
20.623492
 20
60.707946
 40
0.220000
  1
ANCORAGENS
  7
TQS_CALIBRI
  0
TEXT
  8
1
  6
CONTINUOUS
 10
12.702272
 20
61.791278
 40
0.400000
  1
RESUMO DE PROTENSÃO
  7
TQS_CALIBRI
  0
TEXT
  8
1
  6
CONTINUOUS
 10
12.240409
 20
61.228579
 40
0.300000
  1
Monocordoalhas não aderentes
  7
TQS_CALIBRI
  0
TEXT
  8
1
  6
CONTINUOUS
 10
12.631510
 20
60.207945
 40
0.220000
  1
COMPR
  7
TQS_CALIBRI
  0
TEXT
  8
1
  6
CONTINUOUS
 10
14.481298
 20
59.707946
 40
0.220000
  1
kgf/m
  7
TQS_CALIBRI
  0
TEXT
  8
1
  6
CONTINUOUS
 10
16.633075
 20
59.707946
 40
0.220000
  1
kgf
  7
TQS_CALIBRI
  0
TEXT
  8
1
  6
CONTINUOUS
 10
18.447467
 20
59.707946
 40
0.220000
  1
kgf+4%
  7
TQS_CALIBRI
  0
TEXT
  8
1
  6
CONTINUOUS
 10
12.636056
 20
59.707946
 40
0.220000
  1
m
  7
TQS_CALIBRI
  0
TEXT
  8
1
  6
CONTINUOUS
 10
10.773595
 20
59.707946
 40
0.220000
  1
mm
  7
TQS_CALIBRI
  0
TEXT
  8
1
  6
CONTINUOUS
 10
12.361372
 20
59.207945
 40
0.220000
  1
2745
  7
TQS_CALIBRI
  0
TEXT
  8
1
  6
CONTINUOUS
 10
21.406969
 20
59.207945
 40
0.220000
  1
132
  7
TQS_CALIBRI
  0
TEXT
  8
1
  6
CONTINUOUS
 10
20.362152
 20
59.207945
 40
0.220000
  1
132
  7
TQS_CALIBRI
  0
TEXT
  8
1
  6
CONTINUOUS
 10
14.481298
 20
59.207945
 40
0.220000
  1
0.886
  7
TQS_CALIBRI
  0
TEXT
  8
1
  6
CONTINUOUS
 10
16.070627
 20
59.207945
 40
0.220000
  1
2432
  7
TQS_CALIBRI
  0
TEXT
  8
1
  6
CONTINUOUS
 10
18.130625
 20
59.207945
 40
0.220000
  1
2529
  7
TQS_CALIBRI
  0
TEXT
  8
1
  6
CONTINUOUS
 10
10.173439
 20
59.207945
 40
0.220000
  1
4 %%c 12.7
  7
TQS_CALIBRI
  0
TEXT
  8
1
  6
CONTINUOUS
 10
101.932386
 20
23.396411
 40
0.350000
  1
NOTAS:
  7
TQS_CALIBRI
  0
TEXT
  8
2
  6
CONTINUOUS
 10
101.965840
 20
22.812661
 40
0.240000
  1
1) CONFERIR INFORMAÇÕES DA TABELA ACIMA (TABELA DE FERRERAGEM) NA OBRA
  7
TQS_CALIBRI
  0
TEXT
  8
2
  6
CONTINUOUS
 10
101.965840
 20
22.343353
 40
0.240000
  1
ANTES DA COMPRA DAS ARMADURAS.
  7
TQS_CALIBRI
  0
TEXT
  8
1
  6
CONTINUOUS
 10
102.073109
 20
8.835799
 40
0.455000
  1
ENGENHARIA
  7
TQS_CALIBRI
  0
TEXT
  8
1
  6
CONTINUOUS
 10
101.876737
 20
16.222571
 40
0.250000
  1
REV
  7
TQS_CALIBRI
  0
TEXT
  8
1
  6
CONTINUOUS
 10
103.356169
 20
16.222571
 40
0.250000
  1
DATA
  7
TQS_CALIBRI
  0
TEXT
  8
1
  6
CONTINUOUS
 10
105.030516
 20
16.222571
 40
0.250000
  1
ASSUNTO
  7
TQS_CALIBRI
  0
TEXT
  8
1
  6
CONTINUOUS
 10
101.832253
 20
14.047181
 40
0.250000
  1
PROPRIETÁRIO - 
  7
TQS_CALIBRI
  0
TEXT
  8
1
  6
CONTINUOUS
 10
108.042444
 20
2.579059
 40
0.250000
  1
ENGENHEIRO:
  7
TQS_CALIBRI
  0
TEXT
  8
1
  6
CONTINUOUS
 10
108.046365
 20
2.149652
 40
0.250000
  1
CREA REG.:
  7
TQS_CALIBRI
  0
TEXT
  8
1
  6
CONTINUOUS
 10
110.430567
 20
2.160333
 40
0.250000
  1
020930945-8
  7
TQS_CALIBRI
  0
TEXT
  8
1
  6
CONTINUOUS
 10
103.739739
 20
9.759850
 40
1.000000
  1
VGF
  7
TQS_CALIBRI
  0
TEXT
  8
1
  6
CONTINUOUS
 10
101.832253
 20
12.147181
 40
0.250000
  1
PROJETO              Eng. Civil - CREA:020930945-8
  7
TQS_CALIBRI
  0
TEXT
  8
1
  6
CONTINUOUS
 10
101.800510
 20
2.752624
 40
0.150000
  1
DATA:
  7
TQS_CALIBRI
  0
TEXT
  8
1
  6
CONTINUOUS
 10
101.788178
 20
1.752624
 40
0.150000
  1
FASE:
  7
TQS_CALIBRI
  0
TEXT
  8
1
  6
CONTINUOUS
 10
105.124829
 20
2.752624
 40
0.150000
  1
ESCALA:
  7
TQS_CALIBRI
  0
TEXT
  8
1
  6
CONTINUOUS
 10
105.112497
 20
1.752624
 40
0.150000
  1
PLANTA:
  7
TQS_CALIBRI
  0
TEXT
  8
1
  6
CONTINUOUS
 10
101.800510
 20
6.352624
 40
0.150000
  1
TÍTULO:
  7
TQS_CALIBRI
  0
TEXT
  8
1
  6
CONTINUOUS
 10
101.787482
 20
5.577767
 40
0.150000
  1
ELEMENTOS DA PRANCHA:
  7
TQS_CALIBRI
  0
TEXT
  8
1
  6
CONTINUOUS
 10
101.800510
 20
8.252624
 40
0.150000
  1
EMPREENDIMENTO/LOCAL:
  7
TQS_CALIBRI
  0
TEXT
  8
1
  6
CONTINUOUS
 10
106.761120
 20
11.025301
 40
0.150000
  1
CONTATOS:
  7
TQS_CALIBRI
  0
TEXT
  8
1
  6
CONTINUOUS
 10
114.224829
 20
2.752624
 40
0.150000
  1
PLANTA-REVISÃO:
  7
TQS_CALIBRI
  0
TEXT
  8
1
  6
CONTINUOUS
 10
102.041441
 20
16.843956
 40
0.200000
  1
00
  7
TQS_CALIBRI
  0
TEXT
  8
1
  6
CONTINUOUS
 10
102.041441
 20
17.343956
 40
0.200000
  1
01
  7
TQS_CALIBRI
  0
TEXT
  8
1
  6
CONTINUOUS
 10
102.041441
 20
17.843956
 40
0.200000
  1
02
  7
TQS_CALIBRI
  0
TEXT
  8
1
  6
CONTINUOUS
 10
102.041441
 20
18.343956
 40
0.200000
  1
03
  7
TQS_CALIBRI
  0
TEXT
  8
1
  6
CONTINUOUS
 10
102.041441
 20
18.843956
 40
0.200000
  1
04
  7
TQS_CALIBRI
  0
TEXT
  8
1
  6
CONTINUOUS
 10
102.041441
 20
19.343956
 40
0.200000
  1
05
  7
TQS_CALIBRI
  0
TEXT
  8
1
  6
CONTINUOUS
 10
102.041441
 20
19.843956
 40
0.200000
  1
06
  7
TQS_CALIBRI
  0
TEXT
  8
1
  6
CONTINUOUS
 10
102.041441
 20
20.343956
 40
0.200000
  1
07
  7
TQS_CALIBRI
  0
TEXT
  8
1
  6
CONTINUOUS
 10
102.041441
 20
20.843956
 40
0.200000
  1
08
  7
TQS_CALIBRI
  0
TEXT
  8
1
  6
CONTINUOUS
 10
102.041441
 20
21.343956
 40
0.200000
  1
09
  7
TQS_CALIBRI
  0
TEXT
  8
1
  6
CONTINUOUS
 10
102.041441
 20
21.843956
 40
0.200000
  1
10
  7
TQS_CALIBRI
  0
TEXT
  8
1
  6
CONTINUOUS
 10
116.437973
 20
16.222571
 40
0.250000
  1
AUTOR
  7
TQS_CALIBRI
  0
TEXT
  8
1
  6
CONTINUOUS
 10
106.749019
 20
10.335784
 40
0.195000
  1
Tel: 99928-2128
  7
TQS_CALIBRI
  0
TEXT
  8
1
  6
CONTINUOUS
 10
106.749019
 20
10.012284
 40
0.195000
  1
franciscogonca@hotmail.com 
  7
TQS_CALIBRI
  0
TEXT
  8
1
  6
CONTINUOUS
 10
106.749019
 20
9.680784
 40
0.195000
  1
Tel: 99981-6458
  7
TQS_CALIBRI
  0
TEXT
  8
1
  6
CONTINUOUS
 10
106.749019
 20
9.357284
 40
0.195000
  1
tiago@vgfengenharia.com.br 
  7
TQS_CALIBRI
  0
TEXT
  8
1
  6
CONTINUOUS
 10
106.749019
 20
9.025784
 40
0.195000
  1
Tel: 99912-8379
  7
TQS_CALIBRI
  0
TEXT
  8
1
  6
CONTINUOUS
 10
110.809443
 20
11.052624
 40
0.150000
  1
CLIENTE:
  7
TQS_CALIBRI
  0
TEXT
  8
1
  6
CONTINUOUS
 10
116.009770
 20
1.647683
 40
0.500000
  1
-R
  7
TQS_CALIBRI
  0
TEXT
  8
1
  6
CONTINUOUS
 10
101.832253
 20
12.547181
 40
0.250000
  1
RESPONSÁVEL -  Diego de Vasconcelos Gonçalves Ferreira
  7
TQS_CALIBRI
  0
TEXT
  8
1
  6
CONTINUOUS
 10
110.422141
 20
2.578345
 40
0.250000
  1
Diego Vasconcelos
  7
TQS_CALIBRI
  0
TEXT
  8
1
  6
CONTINUOUS
 10
106.749019
 20
10.667284
 40
0.195000
  1
diego@vgfengenharia.com.br 
  7
TQS_CALIBRI
  0
TEXT
  8
1
  6
CONTINUOUS
 10
104.982892
 20
16.853163
 40
0.200000
  1
Emissão inicial.
  7
TQS_CALIBRI
  0
TEXT
  8
1
  6
CONTINUOUS
 10
101.795719
 20
7.825700
 40
0.250000
  1
Assembléia Legislativa de Alagoas
  7
TQS_CALIBRI
  0
TEXT
  8
1
  6
CONTINUOUS
 10
104.517953
 20
14.045361
 40
0.250000
  1
ALA
  7
TQS_CALIBRI
  0
TEXT
  8
1
  6
CONTINUOUS
 10
101.789281
 20
2.263237
 40
0.250000
  1
26/02/2024
  7
TQS_CALIBRI
  0
TEXT
  8
1
  6
CONTINUOUS
 10
102.992347
 20
16.854551
 40
0.200000
  1
26/02/24
  7
TQS_CALIBRI
  0
TEXT
  8
1
  6
CONTINUOUS
 10
101.787954
 20
7.415393
 40
0.200000
  1
RUA SÁ E ALBUQUERQUE, NÚMERO 807, JARAGUÁ - MACEIÓ-AL
  7
TQS_CALIBRI
  0
TEXT
  8
1
  6
CONTINUOUS
 10
101.789859
 20
1.251887
 40
0.250000
  1
PE
  7
TQS_CALIBRI
  0
TEXT
  8
1
  6
CONTINUOUS
 10
105.114178
 20
1.251887
 40
0.250000
  1
CLA-EEM-EST-PE-0332-ARM-R00
  7
TQS_CALIBRI
  0
TEXT
  8
1
  6
CONTINUOUS
 10
116.547332
 20
16.842370
 40
0.200000
  1
DIEGO
  7
TQS_CALIBRI
  0
TEXT
  8
1
  6
CONTINUOUS
 10
114.396264
 20
1.644018
 40
0.500000
  1
0332
  7
TQS_CALIBRI
  0
TEXT
  8
1
  6
CONTINUOUS
 10
116.689770
 20
1.647683
 40
0.500000
  1
00
  7
TQS_CALIBRI
  0
TEXT
  8
1
  6
CONTINUOUS
 10
110.802729
 20
10.513659
 40
0.400000
  1
ALA
  7
TQS_CALIBRI
  0
TEXT
  8
1
  6
CONTINUOUS
 10
101.762319
 20
5.951739
 40
0.250000
  1
ARM. PROTENSÃO HORIZONTAL (02-1Pavto) - 01 - A e B
  7
TQS_CALIBRI
  0
ENDSEC
  0
EOF
