  0
SECTION
  2
HEADER
  9
$ACADVER
  1
AC1002
  9
$USERI1
 70
0
  9
$INSBASE
 10
0.000000
 20
0.000000
  9
$EXTMIN
 10
0.000000
 20
0.000000
  9
$EXTMAX
 10
7.761771
 20
4.436620
  9
$LIMMIN
 10
0.000000
 20
0.000000
  9
$LIMMAX
 10
12.000000
 20
9.000000
  9
$VIEWCTR
 10
78.887138
 20
59.361758
  9
$VIEWSIZE
 40
127.522840
  9
$TEXTSIZE
 40
0.100000
  9
$TRACEWID
 40
0.010000
  9
$LTSCALE
 40
1.000000
  0
ENDSEC
  0
SECTION
  2
TABLES
  0
TABLE
  2
LTYPE
 70
     3
  0
LTYPE
  2
CONTINUOUS
 70
    64
  3
Solid line
 72
    65
 73
     0
 40
0.000000
  0
LTYPE
  2
ESTILO_TQS_0001
 70
    64
  3
-  -  -  -  -  -
 72
    65
 73
     2
 40
1.000000
 49
0.700000
 49
-0.300000
  0
LTYPE
  2
ESTILO_TQS_0002
 70
    64
  3
. . . . . . . .
 72
    65
 73
     2
 40
0.400000
 49
0.100000
 49
-0.300000
  0
LTYPE
  2
ESTILO_TQS_0003
 70
    64
  3
- . - . - . - .
 72
    65
 73
     4
 40
0.910000
 49
0.500000
 49
-0.200000
 49
0.010000
 49
-0.200000
  0
LTYPE
  2
ESTILO_TQS_0004
 70
    64
  3
- .. - .. - ..
 72
    65
 73
     6
 40
1.120000
 49
0.500000
 49
-0.200000
 49
0.010000
 49
-0.200000
 49
0.010000
 49
-0.200000
  0
LTYPE
  2
CONTINUOUS
 70
    64
  3
- - - - - - - -
 72
    65
 73
     2
 40
0.400000
 49
0.300000
 49
-0.100000
  0
ENDTAB
  0
TABLE
  2
LAYER
 70
    89
  0
LAYER
  2
0
 70
     0
 62
     7
  6
CONTINUOUS
  0
LAYER
  2
1
 70
     0
 62
     1
  6
CONTINUOUS
  0
LAYER
  2
2
 70
     0
 62
     2
  6
CONTINUOUS
  0
LAYER
  2
3
 70
     0
 62
     3
  6
CONTINUOUS
  0
LAYER
  2
4
 70
     0
 62
     4
  6
CONTINUOUS
  0
LAYER
  2
5
 70
     0
 62
     5
  6
CONTINUOUS
  0
LAYER
  2
6
 70
     0
 62
     6
  6
CONTINUOUS
  0
LAYER
  2
7
 70
     0
 62
     7
  6
CONTINUOUS
  0
LAYER
  2
8
 70
     0
 62
     8
  6
CONTINUOUS
  0
LAYER
  2
9
 70
     0
 62
     9
  6
CONTINUOUS
  0
LAYER
  2
10
 70
     0
 62
    10
  6
CONTINUOUS
  0
LAYER
  2
11
 70
     0
 62
    11
  6
CONTINUOUS
  0
LAYER
  2
12
 70
     0
 62
    12
  6
CONTINUOUS
  0
LAYER
  2
13
 70
     0
 62
    13
  6
CONTINUOUS
  0
LAYER
  2
14
 70
     0
 62
    14
  6
CONTINUOUS
  0
LAYER
  2
15
 70
     0
 62
    15
  6
CONTINUOUS
  0
LAYER
  2
16
 70
     0
 62
     7
  6
CONTINUOUS
  0
LAYER
  2
17
 70
     0
 62
     2
  6
CONTINUOUS
  0
LAYER
  2
18
 70
     0
 62
     4
  6
CONTINUOUS
  0
LAYER
  2
19
 70
     0
 62
     5
  6
CONTINUOUS
  0
LAYER
  2
20
 70
     0
 62
     4
  6
CONTINUOUS
  0
LAYER
  2
21
 70
     0
 62
     2
  6
CONTINUOUS
  0
LAYER
  2
22
 70
     0
 62
     1
  6
CONTINUOUS
  0
LAYER
  2
23
 70
     0
 62
     7
  6
CONTINUOUS
  0
LAYER
  2
24
 70
     0
 62
     6
  6
CONTINUOUS
  0
LAYER
  2
25
 70
     0
 62
     1
  6
CONTINUOUS
  0
LAYER
  2
26
 70
     0
 62
     3
  6
CONTINUOUS
  0
LAYER
  2
27
 70
     0
 62
     4
  6
CONTINUOUS
  0
LAYER
  2
28
 70
     0
 62
     4
  6
CONTINUOUS
  0
LAYER
  2
30
 70
     0
 62
     4
  6
CONTINUOUS
  0
LAYER
  2
100
 70
     0
 62
     1
  6
CONTINUOUS
  0
LAYER
  2
101
 70
     0
 62
     9
  6
CONTINUOUS
  0
LAYER
  2
102
 70
     0
 62
     7
  6
CONTINUOUS
  0
LAYER
  2
103
 70
     0
 62
     2
  6
CONTINUOUS
  0
LAYER
  2
104
 70
     0
 62
    11
  6
CONTINUOUS
  0
LAYER
  2
105
 70
     0
 62
     3
  6
CONTINUOUS
  0
LAYER
  2
106
 70
     0
 62
     5
  6
CONTINUOUS
  0
LAYER
  2
107
 70
     0
 62
     3
  6
CONTINUOUS
  0
LAYER
  2
108
 70
     0
 62
     5
  6
CONTINUOUS
  0
LAYER
  2
109
 70
     0
 62
     3
  6
CONTINUOUS
  0
LAYER
  2
197
 70
     0
 62
     3
  6
CONTINUOUS
  0
LAYER
  2
198
 70
     0
 62
     2
  6
CONTINUOUS
  0
LAYER
  2
199
 70
     0
 62
     6
  6
CONTINUOUS
  0
LAYER
  2
200
 70
     0
 62
     7
  6
ESTILO_TQS_0002
  0
LAYER
  2
201
 70
     0
 62
     7
  6
ESTILO_TQS_0001
  0
LAYER
  2
202
 70
     0
 62
     7
  6
CONTINUOUS
  0
LAYER
  2
203
 70
     0
 62
     7
  6
ESTILO_TQS_0001
  0
LAYER
  2
204
 70
     0
 62
     7
  6
ESTILO_TQS_0003
  0
LAYER
  2
205
 70
     0
 62
     5
  6
ESTILO_TQS_0004
  0
LAYER
  2
206
 70
     0
 62
    15
  6
CONTINUOUS
  0
LAYER
  2
207
 70
     0
 62
     2
  6
CONTINUOUS
  0
LAYER
  2
208
 70
     0
 62
     5
  6
CONTINUOUS
  0
LAYER
  2
210
 70
     0
 62
    15
  6
ESTILO_TQS_0002
  0
LAYER
  2
211
 70
     0
 62
     7
  6
ESTILO_TQS_0001
  0
LAYER
  2
214
 70
     0
 62
    15
  6
CONTINUOUS
  0
LAYER
  2
215
 70
     0
 62
     2
  6
CONTINUOUS
  0
LAYER
  2
216
 70
     0
 62
     3
  6
CONTINUOUS
  0
LAYER
  2
217
 70
     0
 62
     3
  6
CONTINUOUS
  0
LAYER
  2
218
 70
     0
 62
     2
  6
CONTINUOUS
  0
LAYER
  2
219
 70
     0
 62
    15
  6
CONTINUOUS
  0
LAYER
  2
220
 70
     0
 62
    10
  6
CONTINUOUS
  0
LAYER
  2
221
 70
     0
 62
    11
  6
CONTINUOUS
  0
LAYER
  2
222
 70
     0
 62
    12
  6
CONTINUOUS
  0
LAYER
  2
223
 70
     0
 62
     6
  6
CONTINUOUS
  0
LAYER
  2
224
 70
     0
 62
     1
  6
CONTINUOUS
  0
LAYER
  2
225
 70
     0
 62
    15
  6
CONTINUOUS
  0
LAYER
  2
226
 70
     0
 62
     2
  6
CONTINUOUS
  0
LAYER
  2
227
 70
     0
 62
    10
  6
CONTINUOUS
  0
LAYER
  2
228
 70
     0
 62
    11
  6
CONTINUOUS
  0
LAYER
  2
229
 70
     0
 62
    12
  6
CONTINUOUS
  0
LAYER
  2
230
 70
     0
 62
     6
  6
CONTINUOUS
  0
LAYER
  2
231
 70
     0
 62
     3
  6
CONTINUOUS
  0
LAYER
  2
232
 70
     0
 62
    12
  6
CONTINUOUS
  0
LAYER
  2
233
 70
     0
 62
     4
  6
CONTINUOUS
  0
LAYER
  2
234
 70
     0
 62
    13
  6
CONTINUOUS
  0
LAYER
  2
235
 70
     0
 62
     5
  6
CONTINUOUS
  0
LAYER
  2
236
 70
     0
 62
     2
  6
CONTINUOUS
  0
LAYER
  2
237
 70
     0
 62
     6
  6
CONTINUOUS
  0
LAYER
  2
238
 70
     0
 62
    12
  6
CONTINUOUS
  0
LAYER
  2
239
 70
     0
 62
    11
  6
CONTINUOUS
  0
LAYER
  2
240
 70
     0
 62
    11
  6
CONTINUOUS
  0
LAYER
  2
241
 70
     0
 62
    12
  6
CONTINUOUS
  0
ENDTAB
  0
TABLE
  2
STYLE
 70
     1
  0
STYLE
  2
STANDARD
 70
    64
 40
0.000000
 41
1.000000
 50
0.000000
 71
     0
 42
0.200000
  3
ROMANS.SHX
  4

  0
STYLE
  2
TQS_CALIBRI
 70
     0
 40
0.000000
 41
1.000000
 50
0.000000
 71
     0
 42
0.200000
  3
calibri.ttf
  0
STYLE
  2
TQS_CALIBRI_U
 70
     0
 40
0.000000
 41
1.000000
 50
0.000000
 71
     0
 42
0.200000
  3
calibri.ttf
  0
STYLE
  2
TQS_CALIBRI_I
 70
     0
 40
0.000000
 41
1.000000
 50
0.000000
 71
     0
 42
0.200000
  3
calibri.ttf
  0
STYLE
  2
TQS_CALIBRI_I_U
 70
     0
 40
0.000000
 41
1.000000
 50
0.000000
 71
     0
 42
0.200000
  3
calibri.ttf
  0
STYLE
  2
TQS_CALIBRI_B
 70
     0
 40
0.000000
 41
1.000000
 50
0.000000
 71
     0
 42
0.200000
  3
calibri.ttf
  0
STYLE
  2
TQS_CALIBRI_B_U
 70
     0
 40
0.000000
 41
1.000000
 50
0.000000
 71
     0
 42
0.200000
  3
calibri.ttf
  0
STYLE
  2
TQS_CALIBRI_B_I
 70
     0
 40
0.000000
 41
1.000000
 50
0.000000
 71
     0
 42
0.200000
  3
calibri.ttf
  0
STYLE
  2
TQS_CALIBRI_B_I_U
 70
     0
 40
0.000000
 41
1.000000
 50
0.000000
 71
     0
 42
0.200000
  3
calibri.ttf
  0
ENDTAB
  0
TABLE
  2
VIEW
 70
     0
  0
ENDTAB
  0
ENDSEC
  0
SECTION
  2
BLOCKS
  0
BLOCK
  8
0
  2
_PLWTQS
 70
    64
 10
0.000000
 20
0.000000
  0
TEXT
  8
0
  6
CONTINUOUS
 10
0.000000
 20
0.000000
 40
0.200000
  1
$PLWDWGGlBMVwAAAAAAAChABAAAAMHC82deG7a4TWoBHUHqWtdjQd6aEmW3+4WQAnF0jpIk39rIeBZ9FTPlZyY8+rnfaufQCbvg+JxYrJ65KxE5R77u4U3q3N3Ly9Vl4VSmZl3EE0XSZXvC7uUt97c55poP3kIQw2OQZfPd6teweaACmQo=
  7
TQS_CALIBRI
  0
TEXT
  8
0
  6
CONTINUOUS
 10
0.000000
 20
-0.250000
 40
0.200000
  1
$PLWDWG+xsnr1nfZ83k4KUQWbYtGEC7qFO3jIx8wgrI6o1O8W63Y6StzoV+4hdiOrxuuL9t6UpZ/Grlau1389rKh1weyLBwFuKEKanWIP63Dsaisu7OfFwC7w188KCAuuSmKKUZ4HUJccQBVK9Gb7DbagNo1Db0SIc+fugTW3VVEdtz4Sk=
  7
TQS_CALIBRI
  0
TEXT
  8
0
  6
CONTINUOUS
 10
0.000000
 20
-0.500000
 40
0.200000
  1
$PLWDWGafN0WKn1ECG8wipdfLNwmRq7h+i7ch6N4HrvntgbDj8fxXdaOsQU78jwjv2912VV0SbMuBi06MfS8NsLlX6bpVqMM8ZqRMqq6D9xIntqZ4kQrBJZdJafuwqr6RivUuEfz2RsKsJu9ozWSTR9ckUWjKi45xPdPQmjq1b5CwJnJ8g=
  7
TQS_CALIBRI
  0
TEXT
  8
0
  6
CONTINUOUS
 10
0.000000
 20
-0.750000
 40
0.200000
  1
$PLWDWGsbHrf6+M2dIL26egwlRno3qFUR8z+HKU2i8Fo+sh7O1FiIsDsN3daVWIMjSh0ykHHxvjqvecABNpfyOhWxMe/w0OuTX9V48+kRfP9ZUVl5kPwFpa2QXvho1R7EUpTuGX7RxZeVCo7C0+yfA+ozVkq6/AfgxJcLeWqJD9ixEITgs=
  7
TQS_CALIBRI
  0
TEXT
  8
0
  6
CONTINUOUS
 10
0.000000
 20
-1.000000
 40
0.200000
  1
$PLWDWGZ3OPeQdJv/Nc/yE4yc08nBSPoqKHshVOzYNMtewrpnicv40mkRQLMXCO/nUv4MR2pBY/FXTzq7aoMMY4SZ7TiZ6zTxZAIqxqGrY6w45S7s7vRgZ023IFDTfIO307pIMsM/PmikQoaktJQlsXDe4IB35OBtdR11rqKAVZy/EmfYI=
  7
TQS_CALIBRI
  0
TEXT
  8
0
  6
CONTINUOUS
 10
0.000000
 20
-1.250000
 40
0.200000
  1
$PLWDWGwfPO9NM4hrVBXK78l+/xhUNBNTuixJV70Bt+HKe7yXmGjakEP7sCPKgu2pF3FDlsE1xPvJ6ZEp/Tc3H6pPcIu5pEoCf09CmEublh3/WssIUF7tydB/hwM1HslBHRRMlqY3lz8bYrCTdvnrrEbQmYSExdeP98DWv3iJec5rUXVc0=
  7
TQS_CALIBRI
  0
TEXT
  8
0
  6
CONTINUOUS
 10
0.000000
 20
-1.500000
 40
0.200000
  1
$PLWDWGRCCRtkBV4daVaUUBCKRFBFBvndJSA1om0BT7DLizHkOqRacmDisMkXxG51YFG6VEqALJPTgRozRIpPcV6CVALOtd7rNJkIkLfuX+RZAH54/F4McZi4G4120ds7yvyD0hIeLr8VAATeLcPHsAEclwApEkJTA3tIeIHsSM39YiH9k=
  7
TQS_CALIBRI
  0
TEXT
  8
0
  6
CONTINUOUS
 10
0.000000
 20
-1.750000
 40
0.200000
  1
$PLWDWGe7NHgBCwpAWe7U1zea7iwBJVV/beqgb8G5GLKfTkFgxGVW/bSgn+zdfJS7/f2cNWmsHNUkysCTcAAAAAwhNeJI4FfpqSFdVeEpgRgprBzVJMrAk3AAAAAA==
  7
TQS_CALIBRI
  0
ENDBLK
  8
0
  0
ENDSEC
  0
SECTION
  2
ENTITIES
  0
SOLID
  8
13
  6
CONTINUOUS
 10
102.095046
 20
10.244446
 11
102.095046
 21
9.498246
 12
101.971546
 22
9.498246
 13
101.971546
 23
9.498246
  0
SOLID
  8
13
  6
CONTINUOUS
 10
102.095046
 20
10.244446
 11
101.971546
 21
9.498246
 12
101.971546
 22
11.162246
 13
101.971546
 23
11.162246
  0
SOLID
  8
13
  6
CONTINUOUS
 10
102.095046
 20
10.244446
 11
101.971546
 21
11.162246
 12
102.095046
 22
11.162246
 13
102.095046
 23
11.162246
  0
SOLID
  8
13
  6
CONTINUOUS
 10
102.095046
 20
10.244446
 11
102.095046
 21
11.162246
 12
102.095046
 22
10.244446
 13
102.095046
 23
10.244446
  0
SOLID
  8
13
  6
CONTINUOUS
 10
102.522746
 20
10.230979
 11
102.522746
 21
9.498246
 12
102.095046
 22
9.498246
 13
102.095046
 23
9.498246
  0
SOLID
  8
13
  6
CONTINUOUS
 10
102.522746
 20
10.230979
 11
102.095046
 21
9.498246
 12
102.095046
 22
10.244446
 13
102.095046
 23
10.244446
  0
SOLID
  8
13
  6
CONTINUOUS
 10
102.522746
 20
10.230979
 11
102.095046
 21
10.244446
 12
102.143544
 22
10.248642
 13
102.143544
 23
10.248642
  0
SOLID
  8
13
  6
CONTINUOUS
 10
102.522746
 20
10.230979
 11
102.143544
 21
10.248642
 12
102.211078
 22
10.252071
 13
102.211078
 23
10.252071
  0
SOLID
  8
13
  6
CONTINUOUS
 10
102.522746
 20
10.230979
 11
102.211078
 21
10.252071
 12
102.259959
 22
10.252484
 13
102.259959
 23
10.252484
  0
SOLID
  8
13
  6
CONTINUOUS
 10
102.522746
 20
10.230979
 11
102.259959
 21
10.252484
 12
102.290321
 22
10.252141
 13
102.290321
 23
10.252141
  0
SOLID
  8
13
  6
CONTINUOUS
 10
102.522746
 20
10.230979
 11
102.290321
 21
10.252141
 12
102.334203
 22
10.250668
 13
102.334203
 23
10.250668
  0
SOLID
  8
13
  6
CONTINUOUS
 10
102.522746
 20
10.230979
 11
102.334203
 21
10.250668
 12
102.394518
 22
10.246747
 13
102.394518
 23
10.246747
  0
SOLID
  8
13
  6
CONTINUOUS
 10
102.522746
 20
10.230979
 11
102.394518
 21
10.246747
 12
102.446340
 22
10.241621
 13
102.446340
 23
10.241621
  0
SOLID
  8
13
  6
CONTINUOUS
 10
102.522746
 20
10.230979
 11
102.446340
 21
10.241621
 12
102.490083
 22
10.235974
 13
102.490083
 23
10.235974
  0
SOLID
  8
13
  6
CONTINUOUS
 10
102.522746
 20
10.230979
 11
102.490083
 21
10.235974
 12
102.522746
 22
10.230979
 13
102.522746
 23
10.230979
  0
SOLID
  8
13
  6
CONTINUOUS
 10
102.594246
 20
10.217654
 11
102.594246
 21
9.498246
 12
103.021946
 22
9.498246
 13
103.021946
 23
9.498246
  0
SOLID
  8
13
  6
CONTINUOUS
 10
102.594246
 20
10.217654
 11
103.021946
 21
9.498246
 12
103.021946
 22
10.064184
 13
103.021946
 23
10.064184
  0
SOLID
  8
13
  6
CONTINUOUS
 10
102.594246
 20
10.217654
 11
103.021946
 21
10.064184
 12
103.003898
 22
10.073542
 13
103.003898
 23
10.073542
  0
SOLID
  8
13
  6
CONTINUOUS
 10
102.594246
 20
10.217654
 11
103.003898
 21
10.073542
 12
102.981716
 22
10.084501
 13
102.981716
 23
10.084501
  0
SOLID
  8
13
  6
CONTINUOUS
 10
102.594246
 20
10.217654
 11
102.981716
 21
10.084501
 12
102.953307
 22
10.098271
 13
102.953307
 23
10.098271
  0
SOLID
  8
13
  6
CONTINUOUS
 10
102.594246
 20
10.217654
 11
102.953307
 21
10.098271
 12
102.912865
 22
10.116383
 13
102.912865
 23
10.116383
  0
SOLID
  8
13
  6
CONTINUOUS
 10
102.594246
 20
10.217654
 11
102.912865
 21
10.116383
 12
102.885024
 22
10.128001
 13
102.885024
 23
10.128001
  0
SOLID
  8
13
  6
CONTINUOUS
 10
102.594246
 20
10.217654
 11
102.885024
 21
10.128001
 12
102.844071
 22
10.144755
 13
102.844071
 23
10.144755
  0
SOLID
  8
13
  6
CONTINUOUS
 10
102.594246
 20
10.217654
 11
102.844071
 21
10.144755
 12
102.813490
 22
10.155923
 13
102.813490
 23
10.155923
  0
SOLID
  8
13
  6
CONTINUOUS
 10
102.594246
 20
10.217654
 11
102.813490
 21
10.155923
 12
102.778388
 22
10.168156
 13
102.778388
 23
10.168156
  0
SOLID
  8
13
  6
CONTINUOUS
 10
102.594246
 20
10.217654
 11
102.778388
 21
10.168156
 12
102.744083
 22
10.178793
 13
102.744083
 23
10.178793
  0
SOLID
  8
13
  6
CONTINUOUS
 10
102.594246
 20
10.217654
 11
102.744083
 21
10.178793
 12
102.703465
 22
10.191172
 13
102.703465
 23
10.191172
  0
SOLID
  8
13
  6
CONTINUOUS
 10
102.594246
 20
10.217654
 11
102.703465
 21
10.191172
 12
102.665141
 22
10.201162
 13
102.665141
 23
10.201162
  0
SOLID
  8
13
  6
CONTINUOUS
 10
102.594246
 20
10.217654
 11
102.665141
 21
10.201162
 12
102.624819
 22
10.210970
 13
102.624819
 23
10.210970
  0
SOLID
  8
13
  6
CONTINUOUS
 10
102.594246
 20
10.217654
 11
102.624819
 21
10.210970
 12
102.594246
 22
10.217654
 13
102.594246
 23
10.217654
  0
SOLID
  8
13
  6
CONTINUOUS
 10
103.093446
 20
10.024343
 11
103.093446
 21
9.498246
 12
103.521146
 22
9.498246
 13
103.521146
 23
9.498246
  0
SOLID
  8
13
  6
CONTINUOUS
 10
103.093446
 20
10.024343
 11
103.521146
 21
9.498246
 12
103.521146
 22
9.661030
 13
103.521146
 23
9.661030
  0
SOLID
  8
13
  6
CONTINUOUS
 10
103.093446
 20
10.024343
 11
103.521146
 21
9.661030
 12
103.507797
 22
9.676793
 13
103.507797
 23
9.676793
  0
SOLID
  8
13
  6
CONTINUOUS
 10
103.093446
 20
10.024343
 11
103.507797
 21
9.676793
 12
103.495964
 22
9.690528
 13
103.495964
 23
9.690528
  0
SOLID
  8
13
  6
CONTINUOUS
 10
103.093446
 20
10.024343
 11
103.495964
 21
9.690528
 12
103.473877
 22
9.715277
 13
103.473877
 23
9.715277
  0
SOLID
  8
13
  6
CONTINUOUS
 10
103.093446
 20
10.024343
 11
103.473877
 21
9.715277
 12
103.454164
 22
9.736530
 13
103.454164
 23
9.736530
  0
SOLID
  8
13
  6
CONTINUOUS
 10
103.093446
 20
10.024343
 11
103.454164
 21
9.736530
 12
103.434048
 22
9.757502
 13
103.434048
 23
9.757502
  0
SOLID
  8
13
  6
CONTINUOUS
 10
103.093446
 20
10.024343
 11
103.434048
 21
9.757502
 12
103.410015
 22
9.781535
 13
103.410015
 23
9.781535
  0
SOLID
  8
13
  6
CONTINUOUS
 10
103.093446
 20
10.024343
 11
103.410015
 21
9.781535
 12
103.399294
 22
9.791943
 13
103.399294
 23
9.791943
  0
SOLID
  8
13
  6
CONTINUOUS
 10
103.093446
 20
10.024343
 11
103.399294
 21
9.791943
 12
103.388429
 22
9.802406
 13
103.388429
 23
9.802406
  0
SOLID
  8
13
  6
CONTINUOUS
 10
103.093446
 20
10.024343
 11
103.388429
 21
9.802406
 12
103.359952
 22
9.828752
 13
103.359952
 23
9.828752
  0
SOLID
  8
13
  6
CONTINUOUS
 10
103.093446
 20
10.024343
 11
103.359952
 21
9.828752
 12
103.325139
 22
9.859181
 13
103.325139
 23
9.859181
  0
SOLID
  8
13
  6
CONTINUOUS
 10
103.093446
 20
10.024343
 11
103.325139
 21
9.859181
 12
103.286846
 22
9.890826
 13
103.286846
 23
9.890826
  0
SOLID
  8
13
  6
CONTINUOUS
 10
103.093446
 20
10.024343
 11
103.286846
 21
9.890826
 12
103.251036
 22
9.918745
 13
103.251036
 23
9.918745
  0
SOLID
  8
13
  6
CONTINUOUS
 10
103.093446
 20
10.024343
 11
103.251036
 21
9.918745
 12
103.200839
 22
9.955427
 13
103.200839
 23
9.955427
  0
SOLID
  8
13
  6
CONTINUOUS
 10
103.093446
 20
10.024343
 11
103.200839
 21
9.955427
 12
103.134352
 22
9.999676
 13
103.134352
 23
9.999676
  0
SOLID
  8
13
  6
CONTINUOUS
 10
103.093446
 20
10.024343
 11
103.134352
 21
9.999676
 12
103.093446
 22
10.024343
 13
103.093446
 23
10.024343
  0
SOLID
  8
13
  6
CONTINUOUS
 10
102.522746
 20
10.635283
 11
102.522746
 21
11.162246
 12
102.095046
 22
11.162246
 13
102.095046
 23
11.162246
  0
SOLID
  8
13
  6
CONTINUOUS
 10
102.522746
 20
10.635283
 11
102.095046
 21
11.162246
 12
102.095046
 22
10.995122
 13
102.095046
 23
10.995122
  0
SOLID
  8
13
  6
CONTINUOUS
 10
102.522746
 20
10.635283
 11
102.095046
 21
10.995122
 12
102.153689
 22
10.929235
 13
102.153689
 23
10.929235
  0
SOLID
  8
13
  6
CONTINUOUS
 10
102.522746
 20
10.635283
 11
102.153689
 21
10.929235
 12
102.237359
 22
10.846559
 13
102.237359
 23
10.846559
  0
SOLID
  8
13
  6
CONTINUOUS
 10
102.522746
 20
10.635283
 11
102.237359
 21
10.846559
 12
102.308389
 22
10.784730
 13
102.308389
 23
10.784730
  0
SOLID
  8
13
  6
CONTINUOUS
 10
102.522746
 20
10.635283
 11
102.308389
 21
10.784730
 12
102.366624
 22
10.739274
 13
102.366624
 23
10.739274
  0
SOLID
  8
13
  6
CONTINUOUS
 10
102.522746
 20
10.635283
 11
102.366624
 21
10.739274
 12
102.406322
 22
10.710064
 13
102.406322
 23
10.710064
  0
SOLID
  8
13
  6
CONTINUOUS
 10
102.522746
 20
10.635283
 11
102.406322
 21
10.710064
 12
102.455827
 22
10.676682
 13
102.455827
 23
10.676682
  0
SOLID
  8
13
  6
CONTINUOUS
 10
102.522746
 20
10.635283
 11
102.455827
 21
10.676682
 12
102.493954
 22
10.652515
 13
102.493954
 23
10.652515
  0
SOLID
  8
13
  6
CONTINUOUS
 10
102.522746
 20
10.635283
 11
102.493954
 21
10.652515
 12
102.522746
 22
10.635283
 13
102.522746
 23
10.635283
  0
SOLID
  8
13
  6
CONTINUOUS
 10
103.021946
 20
10.443678
 11
103.021946
 21
11.162246
 12
102.594246
 22
11.162246
 13
102.594246
 23
11.162246
  0
SOLID
  8
13
  6
CONTINUOUS
 10
103.021946
 20
10.443678
 11
102.594246
 21
11.162246
 12
102.594246
 22
10.595859
 13
102.594246
 23
10.595859
  0
SOLID
  8
13
  6
CONTINUOUS
 10
103.021946
 20
10.443678
 11
102.594246
 21
10.595859
 12
102.663800
 22
10.561766
 13
102.663800
 23
10.561766
  0
SOLID
  8
13
  6
CONTINUOUS
 10
103.021946
 20
10.443678
 11
102.663800
 21
10.561766
 12
102.744359
 22
10.527375
 13
102.744359
 23
10.527375
  0
SOLID
  8
13
  6
CONTINUOUS
 10
103.021946
 20
10.443678
 11
102.744359
 21
10.527375
 12
102.812197
 22
10.501464
 13
102.812197
 23
10.501464
  0
SOLID
  8
13
  6
CONTINUOUS
 10
103.021946
 20
10.443678
 11
102.812197
 21
10.501464
 12
102.889458
 22
10.476967
 13
102.889458
 23
10.476967
  0
SOLID
  8
13
  6
CONTINUOUS
 10
103.021946
 20
10.443678
 11
102.889458
 21
10.476967
 12
102.950702
 22
10.460007
 13
102.950702
 23
10.460007
  0
SOLID
  8
13
  6
CONTINUOUS
 10
103.021946
 20
10.443678
 11
102.950702
 21
10.460007
 12
103.021946
 22
10.443678
 13
103.021946
 23
10.443678
  0
SOLID
  8
13
  6
CONTINUOUS
 10
103.093446
 20
10.430307
 11
103.093446
 21
11.162246
 12
103.521146
 22
11.162246
 13
103.521146
 23
11.162246
  0
SOLID
  8
13
  6
CONTINUOUS
 10
103.093446
 20
10.430307
 11
103.521146
 21
11.162246
 12
103.521146
 22
10.417580
 13
103.521146
 23
10.417580
  0
SOLID
  8
13
  6
CONTINUOUS
 10
103.093446
 20
10.430307
 11
103.521146
 21
10.417580
 12
103.476372
 22
10.413637
 13
103.476372
 23
10.413637
  0
SOLID
  8
13
  6
CONTINUOUS
 10
103.093446
 20
10.430307
 11
103.476372
 21
10.413637
 12
103.416577
 22
10.410480
 13
103.416577
 23
10.410480
  0
SOLID
  8
13
  6
CONTINUOUS
 10
103.093446
 20
10.430307
 11
103.416577
 21
10.410480
 12
103.366788
 22
10.409453
 13
103.366788
 23
10.409453
  0
SOLID
  8
13
  6
CONTINUOUS
 10
103.093446
 20
10.430307
 11
103.366788
 21
10.409453
 12
103.336830
 22
10.409453
 13
103.336830
 23
10.409453
  0
SOLID
  8
13
  6
CONTINUOUS
 10
103.093446
 20
10.430307
 11
103.336830
 21
10.409453
 12
103.286182
 22
10.410821
 13
103.286182
 23
10.410821
  0
SOLID
  8
13
  6
CONTINUOUS
 10
103.093446
 20
10.430307
 11
103.286182
 21
10.410821
 12
103.241261
 22
10.413321
 13
103.241261
 23
10.413321
  0
SOLID
  8
13
  6
CONTINUOUS
 10
103.093446
 20
10.430307
 11
103.241261
 21
10.413321
 12
103.205545
 22
10.416539
 13
103.205545
 23
10.416539
  0
SOLID
  8
13
  6
CONTINUOUS
 10
103.093446
 20
10.430307
 11
103.205545
 21
10.416539
 12
103.155349
 22
10.421044
 13
103.155349
 23
10.421044
  0
SOLID
  8
13
  6
CONTINUOUS
 10
103.093446
 20
10.430307
 11
103.155349
 21
10.421044
 12
103.093446
 22
10.430307
 13
103.093446
 23
10.430307
  0
SOLID
  8
13
  6
CONTINUOUS
 10
102.594246
 20
9.498246
 11
102.594246
 21
11.162246
 12
102.522746
 22
11.162246
 13
102.522746
 23
11.162246
  0
SOLID
  8
13
  6
CONTINUOUS
 10
102.594246
 20
9.498246
 11
102.522746
 21
11.162246
 12
102.522746
 22
9.498246
 13
102.522746
 23
9.498246
  0
SOLID
  8
13
  6
CONTINUOUS
 10
102.594246
 20
9.498246
 11
102.522746
 21
9.498246
 12
102.522746
 22
9.498246
 13
102.522746
 23
9.498246
  0
SOLID
  8
13
  6
CONTINUOUS
 10
103.021946
 20
11.162246
 11
103.093446
 21
11.162246
 12
103.093446
 22
9.498246
 13
103.093446
 23
9.498246
  0
SOLID
  8
13
  6
CONTINUOUS
 10
103.021946
 20
11.162246
 11
103.093446
 21
9.498246
 12
103.021946
 22
9.498246
 13
103.021946
 23
9.498246
  0
SOLID
  8
13
  6
CONTINUOUS
 10
103.021946
 20
11.162246
 11
103.021946
 21
9.498246
 12
103.021946
 22
11.162246
 13
103.021946
 23
11.162246
  0
SOLID
  8
13
  6
CONTINUOUS
 10
103.521146
 20
9.498246
 11
103.635546
 21
9.498246
 12
103.635546
 22
11.162246
 13
103.635546
 23
11.162246
  0
SOLID
  8
13
  6
CONTINUOUS
 10
103.521146
 20
9.498246
 11
103.635546
 21
11.162246
 12
103.521146
 22
11.162246
 13
103.521146
 23
11.162246
  0
SOLID
  8
13
  6
CONTINUOUS
 10
103.521146
 20
9.498246
 11
103.521146
 21
11.162246
 12
103.521146
 22
9.498246
 13
103.521146
 23
9.498246
  0
POLYLINE
  8
1
  6
CONTINUOUS
 66
     1
  0
VERTEX
  8
1
  6
CONTINUOUS
 10
20.499820
 20
11.441998
  0
VERTEX
  8
1
  6
CONTINUOUS
 10
12.665669
 20
10.614525
  0
SEQEND
  8
1
  6
CONTINUOUS
  0
POLYLINE
  8
1
  6
CONTINUOUS
 66
     1
  0
VERTEX
  8
1
  6
CONTINUOUS
 10
12.541322
 20
10.199166
  0
VERTEX
  8
1
  6
CONTINUOUS
 10
20.546534
 20
11.044707
  0
SEQEND
  8
1
  6
CONTINUOUS
  0
POLYLINE
  8
1
  6
CONTINUOUS
 66
     1
  0
VERTEX
  8
1
  6
CONTINUOUS
 10
31.138689
 20
12.578297
  0
VERTEX
  8
1
  6
CONTINUOUS
 10
21.295394
 20
11.526516
  0
SEQEND
  8
1
  6
CONTINUOUS
  0
POLYLINE
  8
1
  6
CONTINUOUS
 66
     1
  0
VERTEX
  8
1
  6
CONTINUOUS
 10
21.342106
 20
11.129230
  0
VERTEX
  8
1
  6
CONTINUOUS
 10
31.185402
 20
12.181012
  0
SEQEND
  8
1
  6
CONTINUOUS
  0
POLYLINE
  8
1
  6
CONTINUOUS
 66
     1
  0
VERTEX
  8
1
  6
CONTINUOUS
 10
44.970788
 20
14.051800
  0
VERTEX
  8
1
  6
CONTINUOUS
 10
31.934221
 20
12.663170
  0
SEQEND
  8
1
  6
CONTINUOUS
  0
POLYLINE
  8
1
  6
CONTINUOUS
 66
     1
  0
VERTEX
  8
1
  6
CONTINUOUS
 10
31.980934
 20
12.265883
  0
VERTEX
  8
1
  6
CONTINUOUS
 10
45.017500
 20
13.654512
  0
SEQEND
  8
1
  6
CONTINUOUS
  0
POLYLINE
  8
1
  6
CONTINUOUS
 66
     1
  0
VERTEX
  8
1
  6
CONTINUOUS
 10
55.400210
 20
15.158164
  0
VERTEX
  8
1
  6
CONTINUOUS
 10
45.766356
 20
14.136362
  0
SEQEND
  8
1
  6
CONTINUOUS
  0
POLYLINE
  8
1
  6
CONTINUOUS
 66
     1
  0
VERTEX
  8
1
  6
CONTINUOUS
 10
45.813069
 20
13.739073
  0
VERTEX
  8
1
  6
CONTINUOUS
 10
55.446923
 20
14.760875
  0
SEQEND
  8
1
  6
CONTINUOUS
  0
POLYLINE
  8
1
  6
CONTINUOUS
 66
     1
  0
VERTEX
  8
1
  6
CONTINUOUS
 10
63.097517
 20
15.974568
  0
VERTEX
  8
1
  6
CONTINUOUS
 10
55.798005
 20
15.200356
  0
SEQEND
  8
1
  6
CONTINUOUS
  0
POLYLINE
  8
1
  6
CONTINUOUS
 66
     1
  0
VERTEX
  8
1
  6
CONTINUOUS
 10
55.844718
 20
14.803067
  0
VERTEX
  8
1
  6
CONTINUOUS
 10
63.147363
 20
15.577612
  0
SEQEND
  8
1
  6
CONTINUOUS
  0
POLYLINE
  8
1
  6
CONTINUOUS
 66
     1
  0
VERTEX
  8
1
  6
CONTINUOUS
 10
15.982063
 20
56.083280
  0
VERTEX
  8
1
  6
CONTINUOUS
 10
7.247891
 20
55.024953
  0
SEQEND
  8
1
  6
CONTINUOUS
  0
POLYLINE
  8
1
  6
CONTINUOUS
 66
     1
  0
VERTEX
  8
1
  6
CONTINUOUS
 10
7.296326
 20
54.627896
  0
VERTEX
  8
1
  6
CONTINUOUS
 10
16.028773
 20
55.686014
  0
SEQEND
  8
1
  6
CONTINUOUS
  0
POLYLINE
  8
1
  6
CONTINUOUS
 66
     1
  0
VERTEX
  8
1
  6
CONTINUOUS
 10
24.057212
 20
57.061752
  0
VERTEX
  8
1
  6
CONTINUOUS
 10
16.577710
 20
56.155455
  0
SEQEND
  8
1
  6
CONTINUOUS
  0
POLYLINE
  8
1
  6
CONTINUOUS
 66
     1
  0
VERTEX
  8
1
  6
CONTINUOUS
 10
16.624420
 20
55.758189
  0
VERTEX
  8
1
  6
CONTINUOUS
 10
24.103922
 20
56.664486
  0
SEQEND
  8
1
  6
CONTINUOUS
  0
POLYLINE
  8
1
  6
CONTINUOUS
 66
     1
  0
VERTEX
  8
1
  6
CONTINUOUS
 10
34.650436
 20
58.345521
  0
VERTEX
  8
1
  6
CONTINUOUS
 10
25.049956
 20
57.182052
  0
SEQEND
  8
1
  6
CONTINUOUS
  0
POLYLINE
  8
1
  6
CONTINUOUS
 66
     1
  0
VERTEX
  8
1
  6
CONTINUOUS
 10
25.096666
 20
56.784787
  0
VERTEX
  8
1
  6
CONTINUOUS
 10
34.697146
 20
57.948255
  0
SEQEND
  8
1
  6
CONTINUOUS
  0
POLYLINE
  8
1
  6
CONTINUOUS
 66
     1
  0
VERTEX
  8
1
  6
CONTINUOUS
 10
43.090872
 20
59.368406
  0
VERTEX
  8
1
  6
CONTINUOUS
 10
35.047533
 20
58.393645
  0
SEQEND
  8
1
  6
CONTINUOUS
  0
POLYLINE
  8
1
  6
CONTINUOUS
 66
     1
  0
VERTEX
  8
1
  6
CONTINUOUS
 10
35.094243
 20
57.996379
  0
VERTEX
  8
1
  6
CONTINUOUS
 10
43.137582
 20
58.971140
  0
SEQEND
  8
1
  6
CONTINUOUS
  0
POLYLINE
  8
1
  6
CONTINUOUS
 66
     1
  0
VERTEX
  8
1
  6
CONTINUOUS
 10
58.836088
 20
61.278383
  0
VERTEX
  8
1
  6
CONTINUOUS
 10
43.487966
 20
59.416553
  0
SEQEND
  8
1
  6
CONTINUOUS
  0
POLYLINE
  8
1
  6
CONTINUOUS
 66
     1
  0
VERTEX
  8
1
  6
CONTINUOUS
 10
43.534676
 20
59.019287
  0
VERTEX
  8
1
  6
CONTINUOUS
 10
58.882692
 20
60.881104
  0
SEQEND
  8
1
  6
CONTINUOUS
  0
POLYLINE
  8
1
  6
CONTINUOUS
 66
     1
  0
VERTEX
  8
1
  6
CONTINUOUS
 10
11.018072
 20
20.820068
  0
VERTEX
  8
1
  6
CONTINUOUS
 10
12.219860
 20
10.965882
  0
SEQEND
  8
1
  6
CONTINUOUS
  0
POLYLINE
  8
1
  6
CONTINUOUS
 66
     1
  0
VERTEX
  8
1
  6
CONTINUOUS
 10
12.616917
 20
11.014318
  0
VERTEX
  8
1
  6
CONTINUOUS
 10
11.415129
 20
20.868504
  0
SEQEND
  8
1
  6
CONTINUOUS
  0
POLYLINE
  8
1
  6
CONTINUOUS
 66
     1
  0
VERTEX
  8
1
  6
CONTINUOUS
 10
9.594962
 20
32.485499
  0
VERTEX
  8
1
  6
CONTINUOUS
 10
10.969641
 20
21.217125
  0
SEQEND
  8
1
  6
CONTINUOUS
  0
POLYLINE
  8
1
  6
CONTINUOUS
 66
     1
  0
VERTEX
  8
1
  6
CONTINUOUS
 10
11.366698
 20
21.265561
  0
VERTEX
  8
1
  6
CONTINUOUS
 10
9.992018
 20
32.533935
  0
SEQEND
  8
1
  6
CONTINUOUS
  0
POLYLINE
  8
1
  6
CONTINUOUS
 66
     1
  0
VERTEX
  8
1
  6
CONTINUOUS
 10
8.184583
 20
44.046501
  0
VERTEX
  8
1
  6
CONTINUOUS
 10
9.546523
 20
32.882555
  0
SEQEND
  8
1
  6
CONTINUOUS
  0
POLYLINE
  8
1
  6
CONTINUOUS
 66
     1
  0
VERTEX
  8
1
  6
CONTINUOUS
 10
9.943579
 20
32.930991
  0
VERTEX
  8
1
  6
CONTINUOUS
 10
8.581640
 20
44.094937
  0
SEQEND
  8
1
  6
CONTINUOUS
  0
POLYLINE
  8
1
  6
CONTINUOUS
 66
     1
  0
VERTEX
  8
1
  6
CONTINUOUS
 10
6.947727
 20
54.182414
  0
VERTEX
  8
1
  6
CONTINUOUS
 10
8.136138
 20
44.443556
  0
SEQEND
  8
1
  6
CONTINUOUS
  0
POLYLINE
  8
1
  6
CONTINUOUS
 66
     1
  0
VERTEX
  8
1
  6
CONTINUOUS
 10
8.533194
 20
44.491992
  0
VERTEX
  8
1
  6
CONTINUOUS
 10
7.344784
 20
54.230850
  0
SEQEND
  8
1
  6
CONTINUOUS
  0
POLYLINE
  8
1
  6
CONTINUOUS
 66
     1
  0
VERTEX
  8
1
  6
CONTINUOUS
 10
74.153678
 20
63.189333
  0
VERTEX
  8
1
  6
CONTINUOUS
 10
60.965014
 20
61.643069
  0
SEQEND
  8
1
  6
CONTINUOUS
  0
POLYLINE
  8
1
  6
CONTINUOUS
 66
     1
  0
VERTEX
  8
1
  6
CONTINUOUS
 10
61.011724
 20
61.245806
  0
VERTEX
  8
1
  6
CONTINUOUS
 10
74.200388
 20
62.792070
  0
SEQEND
  8
1
  6
CONTINUOUS
  0
POLYLINE
  8
1
  6
CONTINUOUS
 66
     1
  0
VERTEX
  8
1
  6
CONTINUOUS
 10
84.737669
 20
64.430624
  0
VERTEX
  8
1
  6
CONTINUOUS
 10
75.146873
 20
63.305797
  0
SEQEND
  8
1
  6
CONTINUOUS
  0
POLYLINE
  8
1
  6
CONTINUOUS
 66
     1
  0
VERTEX
  8
1
  6
CONTINUOUS
 10
75.193583
 20
62.908534
  0
VERTEX
  8
1
  6
CONTINUOUS
 10
84.784379
 20
64.033360
  0
SEQEND
  8
1
  6
CONTINUOUS
  0
POLYLINE
  8
1
  6
CONTINUOUS
 66
     1
  0
VERTEX
  8
1
  6
CONTINUOUS
 10
91.247855
 20
65.194151
  0
VERTEX
  8
1
  6
CONTINUOUS
 10
85.134947
 20
64.477217
  0
SEQEND
  8
1
  6
CONTINUOUS
  0
POLYLINE
  8
1
  6
CONTINUOUS
 66
     1
  0
VERTEX
  8
1
  6
CONTINUOUS
 10
85.181656
 20
64.079954
  0
VERTEX
  8
1
  6
CONTINUOUS
 10
90.897842
 20
64.750359
  0
SEQEND
  8
1
  6
CONTINUOUS
  0
POLYLINE
  8
1
  6
CONTINUOUS
 66
     1
  0
VERTEX
  8
1
  6
CONTINUOUS
 10
62.054076
 20
27.200775
  0
VERTEX
  8
1
  6
CONTINUOUS
 10
63.065026
 20
16.373442
  0
SEQEND
  8
1
  6
CONTINUOUS
  0
POLYLINE
  8
1
  6
CONTINUOUS
 66
     1
  0
VERTEX
  8
1
  6
CONTINUOUS
 10
63.518422
 20
15.820208
  0
VERTEX
  8
1
  6
CONTINUOUS
 10
62.452322
 20
27.238196
  0
SEQEND
  8
1
  6
CONTINUOUS
  0
POLYLINE
  8
1
  6
CONTINUOUS
 66
     1
  0
VERTEX
  8
1
  6
CONTINUOUS
 10
60.991170
 20
38.514231
  0
VERTEX
  8
1
  6
CONTINUOUS
 10
62.016775
 20
27.599032
  0
SEQEND
  8
1
  6
CONTINUOUS
  0
POLYLINE
  8
1
  6
CONTINUOUS
 66
     1
  0
VERTEX
  8
1
  6
CONTINUOUS
 10
62.415021
 20
27.636453
  0
VERTEX
  8
1
  6
CONTINUOUS
 10
61.389416
 20
38.551652
  0
SEQEND
  8
1
  6
CONTINUOUS
  0
POLYLINE
  8
1
  6
CONTINUOUS
 66
     1
  0
VERTEX
  8
1
  6
CONTINUOUS
 10
59.901358
 20
50.112772
  0
VERTEX
  8
1
  6
CONTINUOUS
 10
60.953751
 20
38.912477
  0
SEQEND
  8
1
  6
CONTINUOUS
  0
POLYLINE
  8
1
  6
CONTINUOUS
 66
     1
  0
VERTEX
  8
1
  6
CONTINUOUS
 10
61.351996
 20
38.949898
  0
VERTEX
  8
1
  6
CONTINUOUS
 10
60.299604
 20
50.150192
  0
SEQEND
  8
1
  6
CONTINUOUS
  0
POLYLINE
  8
1
  6
CONTINUOUS
 66
     1
  0
VERTEX
  8
1
  6
CONTINUOUS
 10
59.846946
 20
50.691865
  0
VERTEX
  8
1
  6
CONTINUOUS
 10
59.863938
 20
50.511017
  0
SEQEND
  8
1
  6
CONTINUOUS
  0
POLYLINE
  8
1
  6
CONTINUOUS
 66
     1
  0
VERTEX
  8
1
  6
CONTINUOUS
 10
60.262184
 20
50.548438
  0
VERTEX
  8
1
  6
CONTINUOUS
 10
60.245192
 20
50.729284
  0
SEQEND
  8
1
  6
CONTINUOUS
  0
POLYLINE
  8
1
  6
CONTINUOUS
 66
     1
  0
VERTEX
  8
1
  6
CONTINUOUS
 10
58.882692
 20
60.881104
  0
VERTEX
  8
1
  6
CONTINUOUS
 10
59.846958
 20
50.691732
  0
SEQEND
  8
1
  6
CONTINUOUS
  0
POLYLINE
  8
1
  6
CONTINUOUS
 66
     1
  0
VERTEX
  8
1
  6
CONTINUOUS
 10
60.245179
 20
50.729417
  0
VERTEX
  8
1
  6
CONTINUOUS
 10
59.317735
 20
60.529687
  0
SEQEND
  8
1
  6
CONTINUOUS
  0
POLYLINE
  8
1
  6
CONTINUOUS
 66
     1
  0
VERTEX
  8
1
  6
CONTINUOUS
 10
60.245179
 20
50.729417
  0
VERTEX
  8
1
  6
CONTINUOUS
 10
60.245192
 20
50.729284
  0
SEQEND
  8
1
  6
CONTINUOUS
  0
POLYLINE
  8
1
  6
CONTINUOUS
 66
     1
  0
VERTEX
  8
1
  6
CONTINUOUS
 10
59.846958
 20
50.691732
  0
VERTEX
  8
1
  6
CONTINUOUS
 10
59.846946
 20
50.691865
  0
SEQEND
  8
1
  6
CONTINUOUS
  0
POLYLINE
  8
1
  6
CONTINUOUS
 66
     1
  0
VERTEX
  8
1
  6
CONTINUOUS
 10
63.819005
 20
27.022406
  0
VERTEX
  8
1
  6
CONTINUOUS
 10
64.802718
 20
16.574246
  0
SEQEND
  8
1
  6
CONTINUOUS
  0
POLYLINE
  8
1
  6
CONTINUOUS
 66
     1
  0
VERTEX
  8
1
  6
CONTINUOUS
 10
65.237810
 20
16.220316
  0
VERTEX
  8
1
  6
CONTINUOUS
 10
64.217251
 20
27.059826
  0
SEQEND
  8
1
  6
CONTINUOUS
  0
POLYLINE
  8
1
  6
CONTINUOUS
 66
     1
  0
VERTEX
  8
1
  6
CONTINUOUS
 10
63.768351
 20
27.560409
  0
VERTEX
  8
1
  6
CONTINUOUS
 10
63.781510
 20
27.420644
  0
SEQEND
  8
1
  6
CONTINUOUS
  0
POLYLINE
  8
1
  6
CONTINUOUS
 66
     1
  0
VERTEX
  8
1
  6
CONTINUOUS
 10
64.179756
 20
27.458065
  0
VERTEX
  8
1
  6
CONTINUOUS
 10
64.166590
 20
27.597904
  0
SEQEND
  8
1
  6
CONTINUOUS
  0
POLYLINE
  8
1
  6
CONTINUOUS
 66
     1
  0
VERTEX
  8
1
  6
CONTINUOUS
 10
62.719234
 20
38.725845
  0
VERTEX
  8
1
  6
CONTINUOUS
 10
63.768347
 20
27.560447
  0
SEQEND
  8
1
  6
CONTINUOUS
  0
POLYLINE
  8
1
  6
CONTINUOUS
 66
     1
  0
VERTEX
  8
1
  6
CONTINUOUS
 10
64.166593
 20
27.597867
  0
VERTEX
  8
1
  6
CONTINUOUS
 10
63.117480
 20
38.763266
  0
SEQEND
  8
1
  6
CONTINUOUS
  0
POLYLINE
  8
1
  6
CONTINUOUS
 66
     1
  0
VERTEX
  8
1
  6
CONTINUOUS
 10
61.629426
 20
50.324338
  0
VERTEX
  8
1
  6
CONTINUOUS
 10
62.681814
 20
39.124091
  0
SEQEND
  8
1
  6
CONTINUOUS
  0
POLYLINE
  8
1
  6
CONTINUOUS
 66
     1
  0
VERTEX
  8
1
  6
CONTINUOUS
 10
63.080060
 20
39.161512
  0
VERTEX
  8
1
  6
CONTINUOUS
 10
62.027672
 20
50.361758
  0
SEQEND
  8
1
  6
CONTINUOUS
  0
POLYLINE
  8
1
  6
CONTINUOUS
 66
     1
  0
VERTEX
  8
1
  6
CONTINUOUS
 10
61.580032
 20
50.850026
  0
VERTEX
  8
1
  6
CONTINUOUS
 10
61.592007
 20
50.722583
  0
SEQEND
  8
1
  6
CONTINUOUS
  0
POLYLINE
  8
1
  6
CONTINUOUS
 66
     1
  0
VERTEX
  8
1
  6
CONTINUOUS
 10
61.990252
 20
50.760004
  0
VERTEX
  8
1
  6
CONTINUOUS
 10
61.978278
 20
50.887445
  0
SEQEND
  8
1
  6
CONTINUOUS
  0
POLYLINE
  8
1
  6
CONTINUOUS
 66
     1
  0
VERTEX
  8
1
  6
CONTINUOUS
 10
60.614460
 20
61.199095
  0
VERTEX
  8
1
  6
CONTINUOUS
 10
61.580020
 20
50.850156
  0
SEQEND
  8
1
  6
CONTINUOUS
  0
POLYLINE
  8
1
  6
CONTINUOUS
 66
     1
  0
VERTEX
  8
1
  6
CONTINUOUS
 10
61.978290
 20
50.887315
  0
VERTEX
  8
1
  6
CONTINUOUS
 10
61.049008
 20
60.847433
  0
SEQEND
  8
1
  6
CONTINUOUS
  0
POLYLINE
  8
1
  6
CONTINUOUS
 66
     1
  0
VERTEX
  8
1
  6
CONTINUOUS
 10
64.166593
 20
27.597867
  0
VERTEX
  8
1
  6
CONTINUOUS
 10
64.166590
 20
27.597904
  0
SEQEND
  8
1
  6
CONTINUOUS
  0
POLYLINE
  8
1
  6
CONTINUOUS
 66
     1
  0
VERTEX
  8
1
  6
CONTINUOUS
 10
63.768347
 20
27.560447
  0
VERTEX
  8
1
  6
CONTINUOUS
 10
63.768351
 20
27.560409
  0
SEQEND
  8
1
  6
CONTINUOUS
  0
POLYLINE
  8
1
  6
CONTINUOUS
 66
     1
  0
VERTEX
  8
1
  6
CONTINUOUS
 10
61.978290
 20
50.887315
  0
VERTEX
  8
1
  6
CONTINUOUS
 10
61.978278
 20
50.887445
  0
SEQEND
  8
1
  6
CONTINUOUS
  0
POLYLINE
  8
1
  6
CONTINUOUS
 66
     1
  0
VERTEX
  8
1
  6
CONTINUOUS
 10
61.580020
 20
50.850156
  0
VERTEX
  8
1
  6
CONTINUOUS
 10
61.580032
 20
50.850026
  0
SEQEND
  8
1
  6
CONTINUOUS
  0
POLYLINE
  8
1
  6
CONTINUOUS
 66
     1
  0
VERTEX
  8
1
  6
CONTINUOUS
 10
72.240060
 20
17.078900
  0
VERTEX
  8
1
  6
CONTINUOUS
 10
65.237430
 20
16.223548
  0
SEQEND
  8
1
  6
CONTINUOUS
  0
POLYLINE
  8
1
  6
CONTINUOUS
 66
     1
  0
VERTEX
  8
1
  6
CONTINUOUS
 10
65.284140
 20
15.826281
  0
VERTEX
  8
1
  6
CONTINUOUS
 10
72.286770
 20
16.681633
  0
SEQEND
  8
1
  6
CONTINUOUS
  0
POLYLINE
  8
1
  6
CONTINUOUS
 66
     1
  0
VERTEX
  8
1
  6
CONTINUOUS
 10
79.654220
 20
17.984520
  0
VERTEX
  8
1
  6
CONTINUOUS
 10
73.034166
 20
17.175898
  0
SEQEND
  8
1
  6
CONTINUOUS
  0
POLYLINE
  8
1
  6
CONTINUOUS
 66
     1
  0
VERTEX
  8
1
  6
CONTINUOUS
 10
73.080876
 20
16.778631
  0
VERTEX
  8
1
  6
CONTINUOUS
 10
79.700930
 20
17.587252
  0
SEQEND
  8
1
  6
CONTINUOUS
  0
POLYLINE
  8
1
  6
CONTINUOUS
 66
     1
  0
VERTEX
  8
1
  6
CONTINUOUS
 10
88.530157
 20
19.072440
  0
VERTEX
  8
1
  6
CONTINUOUS
 10
80.448305
 20
18.081691
  0
SEQEND
  8
1
  6
CONTINUOUS
  0
POLYLINE
  8
1
  6
CONTINUOUS
 66
     1
  0
VERTEX
  8
1
  6
CONTINUOUS
 10
80.495016
 20
17.684423
  0
VERTEX
  8
1
  6
CONTINUOUS
 10
88.576867
 20
18.675172
  0
SEQEND
  8
1
  6
CONTINUOUS
  0
POLYLINE
  8
1
  6
CONTINUOUS
 66
     1
  0
VERTEX
  8
1
  6
CONTINUOUS
 10
96.221095
 20
20.014508
  0
VERTEX
  8
1
  6
CONTINUOUS
 10
89.324226
 20
19.169753
  0
SEQEND
  8
1
  6
CONTINUOUS
  0
POLYLINE
  8
1
  6
CONTINUOUS
 66
     1
  0
VERTEX
  8
1
  6
CONTINUOUS
 10
89.370936
 20
18.772485
  0
VERTEX
  8
1
  6
CONTINUOUS
 10
96.665395
 20
19.665939
  0
SEQEND
  8
1
  6
CONTINUOUS
  0
POLYLINE
  8
1
  6
CONTINUOUS
 66
     1
  0
VERTEX
  8
1
  6
CONTINUOUS
 10
96.064900
 20
21.327114
  0
VERTEX
  8
1
  6
CONTINUOUS
 10
96.221095
 20
20.014508
  0
SEQEND
  8
1
  6
CONTINUOUS
  0
POLYLINE
  8
1
  6
CONTINUOUS
 66
     1
  0
VERTEX
  8
1
  6
CONTINUOUS
 10
96.665395
 20
19.665939
  0
VERTEX
  8
1
  6
CONTINUOUS
 10
96.462179
 20
21.373699
  0
SEQEND
  8
1
  6
CONTINUOUS
  0
POLYLINE
  8
1
  6
CONTINUOUS
 66
     1
  0
VERTEX
  8
1
  6
CONTINUOUS
 10
94.965993
 20
30.561961
  0
VERTEX
  8
1
  6
CONTINUOUS
 10
95.970370
 20
22.121511
  0
SEQEND
  8
1
  6
CONTINUOUS
  0
POLYLINE
  8
1
  6
CONTINUOUS
 66
     1
  0
VERTEX
  8
1
  6
CONTINUOUS
 10
96.367649
 20
22.168096
  0
VERTEX
  8
1
  6
CONTINUOUS
 10
95.363271
 20
30.608546
  0
SEQEND
  8
1
  6
CONTINUOUS
  0
POLYLINE
  8
1
  6
CONTINUOUS
 66
     1
  0
VERTEX
  8
1
  6
CONTINUOUS
 10
93.570070
 20
42.293355
  0
VERTEX
  8
1
  6
CONTINUOUS
 10
94.895097
 20
31.157759
  0
SEQEND
  8
1
  6
CONTINUOUS
  0
POLYLINE
  8
1
  6
CONTINUOUS
 66
     1
  0
VERTEX
  8
1
  6
CONTINUOUS
 10
95.292376
 20
31.204344
  0
VERTEX
  8
1
  6
CONTINUOUS
 10
93.967349
 20
42.339940
  0
SEQEND
  8
1
  6
CONTINUOUS
  0
POLYLINE
  8
1
  6
CONTINUOUS
 66
     1
  0
VERTEX
  8
1
  6
CONTINUOUS
 10
92.189501
 20
53.895737
  0
VERTEX
  8
1
  6
CONTINUOUS
 10
93.451914
 20
43.286351
  0
SEQEND
  8
1
  6
CONTINUOUS
  0
POLYLINE
  8
1
  6
CONTINUOUS
 66
     1
  0
VERTEX
  8
1
  6
CONTINUOUS
 10
93.849192
 20
43.332936
  0
VERTEX
  8
1
  6
CONTINUOUS
 10
92.586780
 20
53.942322
  0
SEQEND
  8
1
  6
CONTINUOUS
  0
POLYLINE
  8
1
  6
CONTINUOUS
 66
     1
  0
VERTEX
  8
1
  6
CONTINUOUS
 10
91.094722
 20
63.095855
  0
VERTEX
  8
1
  6
CONTINUOUS
 10
92.142237
 20
54.292935
  0
SEQEND
  8
1
  6
CONTINUOUS
  0
POLYLINE
  8
1
  6
CONTINUOUS
 66
     1
  0
VERTEX
  8
1
  6
CONTINUOUS
 10
92.539516
 20
54.339520
  0
VERTEX
  8
1
  6
CONTINUOUS
 10
91.492001
 20
63.142440
  0
SEQEND
  8
1
  6
CONTINUOUS
  0
POLYLINE
  8
1
  6
CONTINUOUS
 66
     1
  0
VERTEX
  8
1
  6
CONTINUOUS
 10
90.897842
 20
64.750359
  0
VERTEX
  8
1
  6
CONTINUOUS
 10
91.000192
 20
63.890252
  0
SEQEND
  8
1
  6
CONTINUOUS
  0
POLYLINE
  8
1
  6
CONTINUOUS
 66
     1
  0
VERTEX
  8
1
  6
CONTINUOUS
 10
91.397470
 20
63.936837
  0
VERTEX
  8
1
  6
CONTINUOUS
 10
91.247855
 20
65.194151
  0
SEQEND
  8
1
  6
CONTINUOUS
  0
LINE
  8
1
  6
CONTINUOUS
 10
7.429575
 20
53.535996
 11
7.925893
 21
53.596564
  0
LINE
  8
1
  6
CONTINUOUS
 10
7.925893
 20
53.596564
 11
7.792682
 21
54.688155
  0
LINE
  8
1
  6
CONTINUOUS
 10
58.929818
 20
60.383145
 11
58.446942
 21
60.324218
  0
LINE
  8
1
  6
CONTINUOUS
 10
58.446942
 20
60.324218
 11
58.386331
 21
60.820886
  0
LINE
  8
1
  6
CONTINUOUS
 10
12.605101
 20
11.110843
 11
13.101419
 21
11.171411
  0
LINE
  8
1
  6
CONTINUOUS
 10
13.101419
 20
11.171411
 11
13.162999
 21
10.666795
  0
LINE
  8
1
  6
CONTINUOUS
 10
65.181239
 20
16.821143
 11
65.665840
 21
16.880280
  0
LINE
  8
1
  6
CONTINUOUS
 10
65.665840
 20
16.880280
 11
65.738514
 21
16.284754
  0
LINE
  8
1
  6
CONTINUOUS
 10
96.160527
 20
20.510826
 11
95.664209
 21
20.450259
  0
LINE
  8
1
  6
CONTINUOUS
 10
95.664209
 20
20.450259
 11
95.724800
 21
19.953746
  0
LINE
  8
1
  6
CONTINUOUS
 10
61.058306
 20
60.747780
 11
61.568609
 21
60.810054
  0
LINE
  8
1
  6
CONTINUOUS
 10
61.568609
 20
60.810054
 11
61.508329
 21
61.304018
  0
LINE
  8
1
  6
CONTINUOUS
 10
27.624583
 20
22.970599
 11
27.624583
 21
22.970599
  0
POLYLINE
  8
1
  6
CONTINUOUS
 66
     1
  0
VERTEX
  8
1
  6
CONTINUOUS
 10
27.361564
 20
22.637702
  0
VERTEX
  8
1
  6
CONTINUOUS
 10
27.957481
 20
22.707580
  0
VERTEX
  8
1
  6
CONTINUOUS
 10
27.887603
 20
23.303497
  0
VERTEX
  8
1
  6
CONTINUOUS
 10
27.291686
 20
23.233619
  0
VERTEX
  8
1
  6
CONTINUOUS
 10
27.361564
 20
22.637702
  0
SEQEND
  8
1
  6
CONTINUOUS
  0
LINE
  8
1
  6
CONTINUOUS
 10
24.899642
 20
46.209761
 11
24.899642
 21
46.209761
  0
POLYLINE
  8
1
  6
CONTINUOUS
 66
     1
  0
VERTEX
  8
1
  6
CONTINUOUS
 10
24.636622
 20
45.876863
  0
VERTEX
  8
1
  6
CONTINUOUS
 10
25.232540
 20
45.946741
  0
VERTEX
  8
1
  6
CONTINUOUS
 10
25.162662
 20
46.542658
  0
VERTEX
  8
1
  6
CONTINUOUS
 10
24.566745
 20
46.472781
  0
VERTEX
  8
1
  6
CONTINUOUS
 10
24.636622
 20
45.876863
  0
SEQEND
  8
1
  6
CONTINUOUS
  0
LINE
  8
1
  6
CONTINUOUS
 10
44.565132
 20
48.515654
 11
44.565132
 21
48.515654
  0
POLYLINE
  8
1
  6
CONTINUOUS
 66
     1
  0
VERTEX
  8
1
  6
CONTINUOUS
 10
44.302112
 20
48.182757
  0
VERTEX
  8
1
  6
CONTINUOUS
 10
44.898029
 20
48.252635
  0
VERTEX
  8
1
  6
CONTINUOUS
 10
44.828152
 20
48.848552
  0
VERTEX
  8
1
  6
CONTINUOUS
 10
44.232235
 20
48.778674
  0
VERTEX
  8
1
  6
CONTINUOUS
 10
44.302112
 20
48.182757
  0
SEQEND
  8
1
  6
CONTINUOUS
  0
LINE
  8
1
  6
CONTINUOUS
 10
47.290073
 20
25.276493
 11
47.290073
 21
25.276493
  0
POLYLINE
  8
1
  6
CONTINUOUS
 66
     1
  0
VERTEX
  8
1
  6
CONTINUOUS
 10
47.027054
 20
24.943596
  0
VERTEX
  8
1
  6
CONTINUOUS
 10
47.622971
 20
25.013473
  0
VERTEX
  8
1
  6
CONTINUOUS
 10
47.553093
 20
25.609390
  0
VERTEX
  8
1
  6
CONTINUOUS
 10
46.957176
 20
25.539513
  0
VERTEX
  8
1
  6
CONTINUOUS
 10
47.027054
 20
24.943596
  0
SEQEND
  8
1
  6
CONTINUOUS
  0
LINE
  8
1
  6
CONTINUOUS
 10
74.195392
 20
28.431262
 11
74.195392
 21
28.431262
  0
POLYLINE
  8
1
  6
CONTINUOUS
 66
     1
  0
VERTEX
  8
1
  6
CONTINUOUS
 10
73.932372
 20
28.098365
  0
VERTEX
  8
1
  6
CONTINUOUS
 10
74.528289
 20
28.168243
  0
VERTEX
  8
1
  6
CONTINUOUS
 10
74.458412
 20
28.764160
  0
VERTEX
  8
1
  6
CONTINUOUS
 10
73.862495
 20
28.694282
  0
VERTEX
  8
1
  6
CONTINUOUS
 10
73.932372
 20
28.098365
  0
SEQEND
  8
1
  6
CONTINUOUS
  0
LINE
  8
1
  6
CONTINUOUS
 10
76.244485
 20
52.230203
 11
76.244485
 21
52.230203
  0
POLYLINE
  8
1
  6
CONTINUOUS
 66
     1
  0
VERTEX
  8
1
  6
CONTINUOUS
 10
75.981465
 20
51.897305
  0
VERTEX
  8
1
  6
CONTINUOUS
 10
76.577382
 20
51.967183
  0
VERTEX
  8
1
  6
CONTINUOUS
 10
76.507504
 20
52.563100
  0
VERTEX
  8
1
  6
CONTINUOUS
 10
75.911587
 20
52.493222
  0
VERTEX
  8
1
  6
CONTINUOUS
 10
75.981465
 20
51.897305
  0
SEQEND
  8
1
  6
CONTINUOUS
  0
LINE
  8
1
  6
CONTINUOUS
 10
11.192389
 20
21.042815
 11
11.192389
 21
21.042815
  0
POLYLINE
  8
1
  6
CONTINUOUS
 66
     1
  0
VERTEX
  8
1
  6
CONTINUOUS
 10
11.415135
 20
20.868505
  0
VERTEX
  8
1
  6
CONTINUOUS
 10
11.366699
 20
21.265561
  0
VERTEX
  8
1
  6
CONTINUOUS
 10
10.969642
 20
21.217126
  0
VERTEX
  8
1
  6
CONTINUOUS
 10
11.018078
 20
20.820069
  0
VERTEX
  8
1
  6
CONTINUOUS
 10
11.415135
 20
20.868505
  0
SEQEND
  8
1
  6
CONTINUOUS
  0
LINE
  8
1
  6
CONTINUOUS
 10
8.358892
 20
44.269247
 11
8.358892
 21
44.269247
  0
POLYLINE
  8
1
  6
CONTINUOUS
 66
     1
  0
VERTEX
  8
1
  6
CONTINUOUS
 10
8.581638
 20
44.094936
  0
VERTEX
  8
1
  6
CONTINUOUS
 10
8.533202
 20
44.491993
  0
VERTEX
  8
1
  6
CONTINUOUS
 10
8.136146
 20
44.443557
  0
VERTEX
  8
1
  6
CONTINUOUS
 10
8.184582
 20
44.046500
  0
VERTEX
  8
1
  6
CONTINUOUS
 10
8.581638
 20
44.094936
  0
SEQEND
  8
1
  6
CONTINUOUS
  0
LINE
  8
1
  6
CONTINUOUS
 10
63.999640
 20
27.240260
 11
63.999640
 21
27.240260
  0
POLYLINE
  8
1
  6
CONTINUOUS
 66
     1
  0
VERTEX
  8
1
  6
CONTINUOUS
 10
64.217474
 20
27.059847
  0
VERTEX
  8
1
  6
CONTINUOUS
 10
64.180053
 20
27.458093
  0
VERTEX
  8
1
  6
CONTINUOUS
 10
63.781807
 20
27.420672
  0
VERTEX
  8
1
  6
CONTINUOUS
 10
63.819228
 20
27.022426
  0
VERTEX
  8
1
  6
CONTINUOUS
 10
64.217474
 20
27.059847
  0
SEQEND
  8
1
  6
CONTINUOUS
  0
LINE
  8
1
  6
CONTINUOUS
 10
61.814942
 20
50.542650
 11
61.814942
 21
50.542650
  0
POLYLINE
  8
1
  6
CONTINUOUS
 66
     1
  0
VERTEX
  8
1
  6
CONTINUOUS
 10
62.032776
 20
50.362238
  0
VERTEX
  8
1
  6
CONTINUOUS
 10
61.995355
 20
50.760484
  0
VERTEX
  8
1
  6
CONTINUOUS
 10
61.597109
 20
50.723063
  0
VERTEX
  8
1
  6
CONTINUOUS
 10
61.634530
 20
50.324817
  0
VERTEX
  8
1
  6
CONTINUOUS
 10
62.032776
 20
50.362238
  0
SEQEND
  8
1
  6
CONTINUOUS
  0
LINE
  8
1
  6
CONTINUOUS
 10
7.097797
 20
54.603686
 11
7.097797
 21
54.603686
  0
POLYLINE
  8
1
  6
CONTINUOUS
 66
     1
  0
VERTEX
  8
1
  6
CONTINUOUS
 10
7.344761
 20
54.230847
  0
VERTEX
  8
1
  6
CONTINUOUS
 10
7.247890
 20
55.024960
  0
VERTEX
  8
1
  6
CONTINUOUS
 10
6.850833
 20
54.976524
  0
VERTEX
  8
1
  6
CONTINUOUS
 10
6.947705
 20
54.182411
  0
VERTEX
  8
1
  6
CONTINUOUS
 10
7.344761
 20
54.230847
  0
SEQEND
  8
1
  6
CONTINUOUS
  0
LINE
  8
1
  6
CONTINUOUS
 10
12.466807
 20
10.593041
 11
12.466807
 21
10.593041
  0
POLYLINE
  8
1
  6
CONTINUOUS
 66
     1
  0
VERTEX
  8
1
  6
CONTINUOUS
 10
12.713771
 20
10.220203
  0
VERTEX
  8
1
  6
CONTINUOUS
 10
12.616899
 20
11.014316
  0
VERTEX
  8
1
  6
CONTINUOUS
 10
12.219842
 20
10.965880
  0
VERTEX
  8
1
  6
CONTINUOUS
 10
12.316714
 20
10.171767
  0
VERTEX
  8
1
  6
CONTINUOUS
 10
12.713771
 20
10.220203
  0
SEQEND
  8
1
  6
CONTINUOUS
  0
LINE
  8
1
  6
CONTINUOUS
 10
20.920992
 20
11.285372
 11
20.920992
 21
11.285372
  0
POLYLINE
  8
1
  6
CONTINUOUS
 66
     1
  0
VERTEX
  8
1
  6
CONTINUOUS
 10
20.547084
 20
11.040030
  0
VERTEX
  8
1
  6
CONTINUOUS
 10
21.341610
 20
11.133450
  0
VERTEX
  8
1
  6
CONTINUOUS
 10
21.294900
 20
11.530713
  0
VERTEX
  8
1
  6
CONTINUOUS
 10
20.500374
 20
11.437293
  0
VERTEX
  8
1
  6
CONTINUOUS
 10
20.547084
 20
11.040030
  0
SEQEND
  8
1
  6
CONTINUOUS
  0
LINE
  8
1
  6
CONTINUOUS
 10
45.391918
 20
13.895526
 11
45.391918
 21
13.895526
  0
POLYLINE
  8
1
  6
CONTINUOUS
 66
     1
  0
VERTEX
  8
1
  6
CONTINUOUS
 10
45.018009
 20
13.650185
  0
VERTEX
  8
1
  6
CONTINUOUS
 10
45.812536
 20
13.743604
  0
VERTEX
  8
1
  6
CONTINUOUS
 10
45.765826
 20
14.140868
  0
VERTEX
  8
1
  6
CONTINUOUS
 10
44.971299
 20
14.047448
  0
VERTEX
  8
1
  6
CONTINUOUS
 10
45.018009
 20
13.650185
  0
SEQEND
  8
1
  6
CONTINUOUS
  0
LINE
  8
1
  6
CONTINUOUS
 10
65.038908
 20
16.199262
 11
65.038908
 21
16.199262
  0
POLYLINE
  8
1
  6
CONTINUOUS
 66
     1
  0
VERTEX
  8
1
  6
CONTINUOUS
 10
64.886986
 20
15.778643
  0
VERTEX
  8
1
  6
CONTINUOUS
 10
65.284249
 20
15.825353
  0
VERTEX
  8
1
  6
CONTINUOUS
 10
65.190829
 20
16.619880
  0
VERTEX
  8
1
  6
CONTINUOUS
 10
64.793566
 20
16.573170
  0
VERTEX
  8
1
  6
CONTINUOUS
 10
64.886986
 20
15.778643
  0
SEQEND
  8
1
  6
CONTINUOUS
  0
LINE
  8
1
  6
CONTINUOUS
 10
88.950544
 20
18.922486
 11
88.950544
 21
18.922486
  0
POLYLINE
  8
1
  6
CONTINUOUS
 66
     1
  0
VERTEX
  8
1
  6
CONTINUOUS
 10
88.576635
 20
18.677145
  0
VERTEX
  8
1
  6
CONTINUOUS
 10
89.371162
 20
18.770564
  0
VERTEX
  8
1
  6
CONTINUOUS
 10
89.324452
 20
19.167828
  0
VERTEX
  8
1
  6
CONTINUOUS
 10
88.529925
 20
19.074408
  0
VERTEX
  8
1
  6
CONTINUOUS
 10
88.576635
 20
18.677145
  0
SEQEND
  8
1
  6
CONTINUOUS
  0
LINE
  8
1
  6
CONTINUOUS
 10
60.813092
 20
61.222450
 11
60.813092
 21
61.222450
  0
POLYLINE
  8
1
  6
CONTINUOUS
 66
     1
  0
VERTEX
  8
1
  6
CONTINUOUS
 10
60.661170
 20
60.801831
  0
VERTEX
  8
1
  6
CONTINUOUS
 10
61.058434
 20
60.848541
  0
VERTEX
  8
1
  6
CONTINUOUS
 10
60.965014
 20
61.643068
  0
VERTEX
  8
1
  6
CONTINUOUS
 10
60.567750
 20
61.596358
  0
VERTEX
  8
1
  6
CONTINUOUS
 10
60.661170
 20
60.801831
  0
SEQEND
  8
1
  6
CONTINUOUS
  0
LINE
  8
1
  6
CONTINUOUS
 10
84.959667
 20
64.255255
 11
84.959667
 21
64.255255
  0
POLYLINE
  8
1
  6
CONTINUOUS
 66
     1
  0
VERTEX
  8
1
  6
CONTINUOUS
 10
84.784390
 20
64.033268
  0
VERTEX
  8
1
  6
CONTINUOUS
 10
85.181654
 20
64.079978
  0
VERTEX
  8
1
  6
CONTINUOUS
 10
85.134944
 20
64.477242
  0
VERTEX
  8
1
  6
CONTINUOUS
 10
84.737680
 20
64.430532
  0
VERTEX
  8
1
  6
CONTINUOUS
 10
84.784390
 20
64.033268
  0
SEQEND
  8
1
  6
CONTINUOUS
  0
LINE
  8
1
  6
CONTINUOUS
 10
43.312773
 20
59.193851
 11
43.312773
 21
59.193851
  0
POLYLINE
  8
1
  6
CONTINUOUS
 66
     1
  0
VERTEX
  8
1
  6
CONTINUOUS
 10
43.137497
 20
58.971864
  0
VERTEX
  8
1
  6
CONTINUOUS
 10
43.534760
 20
59.018574
  0
VERTEX
  8
1
  6
CONTINUOUS
 10
43.488050
 20
59.415837
  0
VERTEX
  8
1
  6
CONTINUOUS
 10
43.090787
 20
59.369127
  0
VERTEX
  8
1
  6
CONTINUOUS
 10
43.137497
 20
58.971864
  0
SEQEND
  8
1
  6
CONTINUOUS
  0
LINE
  8
1
  6
CONTINUOUS
 10
62.232427
 20
27.418414
 11
62.232427
 21
27.418414
  0
POLYLINE
  8
1
  6
CONTINUOUS
 66
     1
  0
VERTEX
  8
1
  6
CONTINUOUS
 10
62.450261
 20
27.238002
  0
VERTEX
  8
1
  6
CONTINUOUS
 10
62.412840
 20
27.636248
  0
VERTEX
  8
1
  6
CONTINUOUS
 10
62.014594
 20
27.598827
  0
VERTEX
  8
1
  6
CONTINUOUS
 10
62.052015
 20
27.200581
  0
VERTEX
  8
1
  6
CONTINUOUS
 10
62.450261
 20
27.238002
  0
SEQEND
  8
1
  6
CONTINUOUS
  0
LINE
  8
1
  6
CONTINUOUS
 10
60.079592
 20
50.330400
 11
60.079592
 21
50.330400
  0
POLYLINE
  8
1
  6
CONTINUOUS
 66
     1
  0
VERTEX
  8
1
  6
CONTINUOUS
 10
60.297425
 20
50.149988
  0
VERTEX
  8
1
  6
CONTINUOUS
 10
60.260005
 20
50.548234
  0
VERTEX
  8
1
  6
CONTINUOUS
 10
59.861759
 20
50.510813
  0
VERTEX
  8
1
  6
CONTINUOUS
 10
59.899180
 20
50.112567
  0
VERTEX
  8
1
  6
CONTINUOUS
 10
60.297425
 20
50.149988
  0
SEQEND
  8
1
  6
CONTINUOUS
  0
LINE
  8
1
  6
CONTINUOUS
 10
63.296156
 20
15.997862
 11
63.296156
 21
15.997862
  0
POLYLINE
  8
1
  6
CONTINUOUS
 66
     1
  0
VERTEX
  8
1
  6
CONTINUOUS
 10
63.144234
 20
15.577244
  0
VERTEX
  8
1
  6
CONTINUOUS
 10
63.541497
 20
15.623954
  0
VERTEX
  8
1
  6
CONTINUOUS
 10
63.448077
 20
16.418480
  0
VERTEX
  8
1
  6
CONTINUOUS
 10
63.050814
 20
16.371771
  0
VERTEX
  8
1
  6
CONTINUOUS
 10
63.144234
 20
15.577244
  0
SEQEND
  8
1
  6
CONTINUOUS
  0
LINE
  8
1
  6
CONTINUOUS
 10
59.081409
 20
60.904656
 11
59.081409
 21
60.904656
  0
POLYLINE
  8
1
  6
CONTINUOUS
 66
     1
  0
VERTEX
  8
1
  6
CONTINUOUS
 10
58.929487
 20
60.484037
  0
VERTEX
  8
1
  6
CONTINUOUS
 10
59.326750
 20
60.530747
  0
VERTEX
  8
1
  6
CONTINUOUS
 10
59.233330
 20
61.325274
  0
VERTEX
  8
1
  6
CONTINUOUS
 10
58.836067
 20
61.278564
  0
VERTEX
  8
1
  6
CONTINUOUS
 10
58.929487
 20
60.484037
  0
SEQEND
  8
1
  6
CONTINUOUS
  0
LINE
  8
1
  6
CONTINUOUS
 10
92.364169
 20
54.117589
 11
92.364169
 21
54.117589
  0
POLYLINE
  8
1
  6
CONTINUOUS
 66
     1
  0
VERTEX
  8
1
  6
CONTINUOUS
 10
92.188823
 20
53.895657
  0
VERTEX
  8
1
  6
CONTINUOUS
 10
92.586101
 20
53.942242
  0
VERTEX
  8
1
  6
CONTINUOUS
 10
92.539516
 20
54.339520
  0
VERTEX
  8
1
  6
CONTINUOUS
 10
92.142238
 20
54.292935
  0
VERTEX
  8
1
  6
CONTINUOUS
 10
92.188823
 20
53.895657
  0
SEQEND
  8
1
  6
CONTINUOUS
  0
LINE
  8
1
  6
CONTINUOUS
 10
95.128844
 20
30.883113
 11
95.128844
 21
30.883113
  0
POLYLINE
  8
1
  6
CONTINUOUS
 66
     1
  0
VERTEX
  8
1
  6
CONTINUOUS
 10
94.965143
 20
30.561862
  0
VERTEX
  8
1
  6
CONTINUOUS
 10
95.362421
 20
30.608447
  0
VERTEX
  8
1
  6
CONTINUOUS
 10
95.292544
 20
31.204364
  0
VERTEX
  8
1
  6
CONTINUOUS
 10
94.895266
 20
31.157779
  0
VERTEX
  8
1
  6
CONTINUOUS
 10
94.965143
 20
30.561862
  0
SEQEND
  8
1
  6
CONTINUOUS
  0
LINE
  8
1
  6
CONTINUOUS
 10
74.673632
 20
63.048926
 11
74.673632
 21
63.048926
  0
POLYLINE
  8
1
  6
CONTINUOUS
 66
     1
  0
VERTEX
  8
1
  6
CONTINUOUS
 10
74.200407
 20
62.791907
  0
VERTEX
  8
1
  6
CONTINUOUS
 10
75.193566
 20
62.908682
  0
VERTEX
  8
1
  6
CONTINUOUS
 10
75.146856
 20
63.305945
  0
VERTEX
  8
1
  6
CONTINUOUS
 10
74.153698
 20
63.189171
  0
VERTEX
  8
1
  6
CONTINUOUS
 10
74.200407
 20
62.791907
  0
SEQEND
  8
1
  6
CONTINUOUS
  0
LINE
  8
1
  6
CONTINUOUS
 10
80.074628
 20
17.834385
 11
80.074628
 21
17.834385
  0
POLYLINE
  8
1
  6
CONTINUOUS
 66
     1
  0
VERTEX
  8
1
  6
CONTINUOUS
 10
79.700719
 20
17.589043
  0
VERTEX
  8
1
  6
CONTINUOUS
 10
80.495246
 20
17.682463
  0
VERTEX
  8
1
  6
CONTINUOUS
 10
80.448536
 20
18.079726
  0
VERTEX
  8
1
  6
CONTINUOUS
 10
79.654009
 20
17.986307
  0
VERTEX
  8
1
  6
CONTINUOUS
 10
79.700719
 20
17.589043
  0
SEQEND
  8
1
  6
CONTINUOUS
  0
LINE
  8
1
  6
CONTINUOUS
 10
9.769123
 20
32.708227
 11
9.769123
 21
32.708227
  0
POLYLINE
  8
1
  6
CONTINUOUS
 66
     1
  0
VERTEX
  8
1
  6
CONTINUOUS
 10
9.991869
 20
32.533917
  0
VERTEX
  8
1
  6
CONTINUOUS
 10
9.943433
 20
32.930973
  0
VERTEX
  8
1
  6
CONTINUOUS
 10
9.546377
 20
32.882537
  0
VERTEX
  8
1
  6
CONTINUOUS
 10
9.594813
 20
32.485481
  0
VERTEX
  8
1
  6
CONTINUOUS
 10
9.991869
 20
32.533917
  0
SEQEND
  8
1
  6
CONTINUOUS
  0
LINE
  8
1
  6
CONTINUOUS
 10
61.171584
 20
38.732065
 11
61.171584
 21
38.732065
  0
POLYLINE
  8
1
  6
CONTINUOUS
 66
     1
  0
VERTEX
  8
1
  6
CONTINUOUS
 10
61.389417
 20
38.551652
  0
VERTEX
  8
1
  6
CONTINUOUS
 10
61.351996
 20
38.949898
  0
VERTEX
  8
1
  6
CONTINUOUS
 10
60.953751
 20
38.912477
  0
VERTEX
  8
1
  6
CONTINUOUS
 10
60.991171
 20
38.514232
  0
VERTEX
  8
1
  6
CONTINUOUS
 10
61.389417
 20
38.551652
  0
SEQEND
  8
1
  6
CONTINUOUS
  0
LINE
  8
1
  6
CONTINUOUS
 10
62.899647
 20
38.943679
 11
62.899647
 21
38.943679
  0
POLYLINE
  8
1
  6
CONTINUOUS
 66
     1
  0
VERTEX
  8
1
  6
CONTINUOUS
 10
63.117481
 20
38.763266
  0
VERTEX
  8
1
  6
CONTINUOUS
 10
63.080060
 20
39.161512
  0
VERTEX
  8
1
  6
CONTINUOUS
 10
62.681814
 20
39.124091
  0
VERTEX
  8
1
  6
CONTINUOUS
 10
62.719235
 20
38.725845
  0
VERTEX
  8
1
  6
CONTINUOUS
 10
63.117481
 20
38.763266
  0
SEQEND
  8
1
  6
CONTINUOUS
  0
LINE
  8
1
  6
CONTINUOUS
 10
93.709866
 20
42.813173
 11
93.709866
 21
42.813173
  0
POLYLINE
  8
1
  6
CONTINUOUS
 66
     1
  0
VERTEX
  8
1
  6
CONTINUOUS
 10
93.569459
 20
42.293283
  0
VERTEX
  8
1
  6
CONTINUOUS
 10
93.966737
 20
42.339868
  0
VERTEX
  8
1
  6
CONTINUOUS
 10
93.850274
 20
43.333063
  0
VERTEX
  8
1
  6
CONTINUOUS
 10
93.452996
 20
43.286478
  0
VERTEX
  8
1
  6
CONTINUOUS
 10
93.569459
 20
42.293283
  0
SEQEND
  8
1
  6
CONTINUOUS
  0
LINE
  8
1
  6
CONTINUOUS
 10
96.216260
 20
21.747603
 11
96.216260
 21
21.747603
  0
POLYLINE
  8
1
  6
CONTINUOUS
 66
     1
  0
VERTEX
  8
1
  6
CONTINUOUS
 10
96.064206
 20
21.327033
  0
VERTEX
  8
1
  6
CONTINUOUS
 10
96.461484
 20
21.373618
  0
VERTEX
  8
1
  6
CONTINUOUS
 10
96.368314
 20
22.168174
  0
VERTEX
  8
1
  6
CONTINUOUS
 10
95.971036
 20
22.121589
  0
VERTEX
  8
1
  6
CONTINUOUS
 10
96.064206
 20
21.327033
  0
SEQEND
  8
1
  6
CONTINUOUS
  0
LINE
  8
1
  6
CONTINUOUS
 10
31.559804
 20
12.422156
 11
31.559804
 21
12.422156
  0
POLYLINE
  8
1
  6
CONTINUOUS
 66
     1
  0
VERTEX
  8
1
  6
CONTINUOUS
 10
31.185895
 20
12.176815
  0
VERTEX
  8
1
  6
CONTINUOUS
 10
31.980422
 20
12.270234
  0
VERTEX
  8
1
  6
CONTINUOUS
 10
31.933712
 20
12.667498
  0
VERTEX
  8
1
  6
CONTINUOUS
 10
31.139185
 20
12.574078
  0
VERTEX
  8
1
  6
CONTINUOUS
 10
31.185895
 20
12.176815
  0
SEQEND
  8
1
  6
CONTINUOUS
  0
LINE
  8
1
  6
CONTINUOUS
 10
55.622278
 20
14.982197
 11
55.622278
 21
14.982197
  0
POLYLINE
  8
1
  6
CONTINUOUS
 66
     1
  0
VERTEX
  8
1
  6
CONTINUOUS
 10
55.447001
 20
14.760210
  0
VERTEX
  8
1
  6
CONTINUOUS
 10
55.844265
 20
14.806920
  0
VERTEX
  8
1
  6
CONTINUOUS
 10
55.797555
 20
15.204183
  0
VERTEX
  8
1
  6
CONTINUOUS
 10
55.400291
 20
15.157473
  0
VERTEX
  8
1
  6
CONTINUOUS
 10
55.447001
 20
14.760210
  0
SEQEND
  8
1
  6
CONTINUOUS
  0
LINE
  8
1
  6
CONTINUOUS
 10
72.660294
 20
16.930246
 11
72.660294
 21
16.930246
  0
POLYLINE
  8
1
  6
CONTINUOUS
 66
     1
  0
VERTEX
  8
1
  6
CONTINUOUS
 10
72.286386
 20
16.684905
  0
VERTEX
  8
1
  6
CONTINUOUS
 10
73.080912
 20
16.778324
  0
VERTEX
  8
1
  6
CONTINUOUS
 10
73.034202
 20
17.175588
  0
VERTEX
  8
1
  6
CONTINUOUS
 10
72.239676
 20
17.082168
  0
VERTEX
  8
1
  6
CONTINUOUS
 10
72.286386
 20
16.684905
  0
SEQEND
  8
1
  6
CONTINUOUS
  0
LINE
  8
1
  6
CONTINUOUS
 10
24.576747
 20
56.924902
 11
24.576747
 21
56.924902
  0
POLYLINE
  8
1
  6
CONTINUOUS
 66
     1
  0
VERTEX
  8
1
  6
CONTINUOUS
 10
24.103523
 20
56.667883
  0
VERTEX
  8
1
  6
CONTINUOUS
 10
25.096681
 20
56.784658
  0
VERTEX
  8
1
  6
CONTINUOUS
 10
25.049972
 20
57.181921
  0
VERTEX
  8
1
  6
CONTINUOUS
 10
24.056813
 20
57.065146
  0
VERTEX
  8
1
  6
CONTINUOUS
 10
24.103523
 20
56.667883
  0
SEQEND
  8
1
  6
CONTINUOUS
  0
LINE
  8
1
  6
CONTINUOUS
 10
34.872273
 20
58.171513
 11
34.872273
 21
58.171513
  0
POLYLINE
  8
1
  6
CONTINUOUS
 66
     1
  0
VERTEX
  8
1
  6
CONTINUOUS
 10
34.696997
 20
57.949526
  0
VERTEX
  8
1
  6
CONTINUOUS
 10
35.094260
 20
57.996236
  0
VERTEX
  8
1
  6
CONTINUOUS
 10
35.047550
 20
58.393500
  0
VERTEX
  8
1
  6
CONTINUOUS
 10
34.650287
 20
58.346790
  0
VERTEX
  8
1
  6
CONTINUOUS
 10
34.696997
 20
57.949526
  0
SEQEND
  8
1
  6
CONTINUOUS
  0
LINE
  8
1
  6
CONTINUOUS
 10
77.600757
 20
40.662855
 11
77.600757
 21
40.662855
  0
POLYLINE
  8
1
  6
CONTINUOUS
 66
     1
  0
VERTEX
  8
1
  6
CONTINUOUS
 10
77.337737
 20
40.329957
  0
VERTEX
  8
1
  6
CONTINUOUS
 10
77.933654
 20
40.399835
  0
VERTEX
  8
1
  6
CONTINUOUS
 10
77.863776
 20
40.995752
  0
VERTEX
  8
1
  6
CONTINUOUS
 10
77.267859
 20
40.925874
  0
VERTEX
  8
1
  6
CONTINUOUS
 10
77.337737
 20
40.329957
  0
SEQEND
  8
1
  6
CONTINUOUS
  0
LINE
  8
1
  6
CONTINUOUS
 10
26.256007
 20
34.642433
 11
26.256007
 21
34.642433
  0
POLYLINE
  8
1
  6
CONTINUOUS
 66
     1
  0
VERTEX
  8
1
  6
CONTINUOUS
 10
25.992987
 20
34.309536
  0
VERTEX
  8
1
  6
CONTINUOUS
 10
26.588904
 20
34.379414
  0
VERTEX
  8
1
  6
CONTINUOUS
 10
26.519026
 20
34.975331
  0
VERTEX
  8
1
  6
CONTINUOUS
 10
25.923109
 20
34.905453
  0
VERTEX
  8
1
  6
CONTINUOUS
 10
25.992987
 20
34.309536
  0
SEQEND
  8
1
  6
CONTINUOUS
  0
LINE
  8
1
  6
CONTINUOUS
 10
45.921427
 20
36.948319
 11
45.921427
 21
36.948319
  0
POLYLINE
  8
1
  6
CONTINUOUS
 66
     1
  0
VERTEX
  8
1
  6
CONTINUOUS
 10
45.658408
 20
36.615422
  0
VERTEX
  8
1
  6
CONTINUOUS
 10
46.254325
 20
36.685300
  0
VERTEX
  8
1
  6
CONTINUOUS
 10
46.184447
 20
37.281217
  0
VERTEX
  8
1
  6
CONTINUOUS
 10
45.588530
 20
37.211339
  0
VERTEX
  8
1
  6
CONTINUOUS
 10
45.658408
 20
36.615422
  0
SEQEND
  8
1
  6
CONTINUOUS
  0
LINE
  8
1
  6
CONTINUOUS
 10
91.245416
 20
63.516266
 11
91.245416
 21
63.516266
  0
POLYLINE
  8
1
  6
CONTINUOUS
 66
     1
  0
VERTEX
  8
1
  6
CONTINUOUS
 10
91.093362
 20
63.095696
  0
VERTEX
  8
1
  6
CONTINUOUS
 10
91.490640
 20
63.142281
  0
VERTEX
  8
1
  6
CONTINUOUS
 10
91.397470
 20
63.936837
  0
VERTEX
  8
1
  6
CONTINUOUS
 10
91.000192
 20
63.890252
  0
VERTEX
  8
1
  6
CONTINUOUS
 10
91.093362
 20
63.095696
  0
SEQEND
  8
1
  6
CONTINUOUS
  0
LINE
  8
1
  6
CONTINUOUS
 10
16.303148
 20
55.921531
 11
16.303148
 21
55.921531
  0
POLYLINE
  8
1
  6
CONTINUOUS
 66
     1
  0
VERTEX
  8
1
  6
CONTINUOUS
 10
16.028555
 20
55.687867
  0
VERTEX
  8
1
  6
CONTINUOUS
 10
16.624450
 20
55.757932
  0
VERTEX
  8
1
  6
CONTINUOUS
 10
16.577740
 20
56.155195
  0
VERTEX
  8
1
  6
CONTINUOUS
 10
15.981845
 20
56.085130
  0
VERTEX
  8
1
  6
CONTINUOUS
 10
16.028555
 20
55.687867
  0
SEQEND
  8
1
  6
CONTINUOUS
  0
LINE
  8
1
  6
CONTINUOUS
 10
85.041330
 20
29.703003
 11
85.041330
 21
29.703003
  0
POLYLINE
  8
1
  6
CONTINUOUS
 66
     1
  0
VERTEX
  8
1
  6
CONTINUOUS
 10
84.778311
 20
29.370105
  0
VERTEX
  8
1
  6
CONTINUOUS
 10
85.374228
 20
29.439983
  0
VERTEX
  8
1
  6
CONTINUOUS
 10
85.304350
 20
30.035900
  0
VERTEX
  8
1
  6
CONTINUOUS
 10
84.708433
 20
29.966022
  0
VERTEX
  8
1
  6
CONTINUOUS
 10
84.778311
 20
29.370105
  0
SEQEND
  8
1
  6
CONTINUOUS
  0
LINE
  8
1
  6
CONTINUOUS
 10
58.440205
 20
60.379420
 11
58.887770
 21
60.838019
  0
LINE
  8
1
  6
CONTINUOUS
 10
58.438878
 20
60.827261
 11
58.878429
 21
60.376874
  0
LINE
  8
1
  6
CONTINUOUS
 10
95.718208
 20
20.007764
 11
96.167117
 21
20.456829
  0
LINE
  8
1
  6
CONTINUOUS
 10
95.718173
 20
20.456844
 11
96.166977
 21
20.007883
  0
LINE
  8
1
  6
CONTINUOUS
 10
12.659096
 20
10.668422
 11
13.108106
 21
11.116617
  0
LINE
  8
1
  6
CONTINUOUS
 10
12.659169
 20
11.117441
 11
13.115623
 21
10.661815
  0
LINE
  8
1
  6
CONTINUOUS
 10
61.054335
 20
60.790341
 11
61.514878
 21
61.250350
  0
LINE
  8
1
  6
CONTINUOUS
 10
61.063883
 20
61.251920
 11
61.513051
 21
60.803274
  0
LINE
  8
1
  6
CONTINUOUS
 10
65.230896
 20
16.279122
 11
65.675017
 21
16.805082
  0
LINE
  8
1
  6
CONTINUOUS
 10
65.226510
 20
16.826667
 11
65.689436
 21
16.278437
  0
LINE
  8
1
  6
CONTINUOUS
 10
7.405250
 20
53.735336
 11
7.817001
 21
54.488874
  0
LINE
  8
1
  6
CONTINUOUS
 10
7.327205
 20
54.631645
 11
7.894867
 21
53.592778
  0
LINE
  8
4
  6
CONTINUOUS
 10
32.502702
 20
56.545240
 11
32.362947
 21
57.737074
  0
LINE
  8
4
  6
CONTINUOUS
 10
32.482131
 20
57.751049
 11
32.243764
 21
57.723098
  0
LINE
  8
4
  6
CONTINUOUS
 10
32.484926
 20
57.727213
 11
32.246559
 21
57.699262
  0
LINE
  8
4
  6
CONTINUOUS
 10
32.487721
 20
57.703376
 11
32.249354
 21
57.675425
  0
LINE
  8
4
  6
CONTINUOUS
 10
37.593654
 20
13.129563
 11
37.698471
 21
12.235687
  0
LINE
  8
4
  6
CONTINUOUS
 10
37.631430
 20
12.227826
 11
37.765511
 21
12.243549
  0
LINE
  8
4
  6
CONTINUOUS
 10
37.631430
 20
12.227826
 11
37.803287
 21
11.341812
  0
LINE
  8
4
  6
CONTINUOUS
 10
37.765511
 20
12.243549
 11
37.803287
 21
11.341812
  0
LINE
  8
4
  6
CONTINUOUS
 10
37.541679
 20
12.413639
 11
37.809842
 21
12.445084
  0
LINE
  8
4
  6
CONTINUOUS
 10
37.524209
 20
12.562618
 11
37.792372
 21
12.594063
  0
POLYLINE
  8
4
  6
CONTINUOUS
 66
     1
  0
VERTEX
  8
4
  6
CONTINUOUS
 10
32.502702
 20
56.545240
  0
VERTEX
  8
4
  6
CONTINUOUS
 10
37.593654
 20
13.129563
  0
SEQEND
  8
4
  6
CONTINUOUS
  0
LINE
  8
4
  6
CONTINUOUS
 10
30.238218
 20
56.279705
 11
30.098462
 21
57.471539
  0
LINE
  8
4
  6
CONTINUOUS
 10
30.217646
 20
57.485514
 11
29.979279
 21
57.457563
  0
LINE
  8
4
  6
CONTINUOUS
 10
30.220441
 20
57.461678
 11
29.982074
 21
57.433727
  0
LINE
  8
4
  6
CONTINUOUS
 10
30.223236
 20
57.437841
 11
29.984869
 21
57.409890
  0
LINE
  8
4
  6
CONTINUOUS
 10
35.329169
 20
12.864028
 11
35.433986
 21
11.970152
  0
LINE
  8
4
  6
CONTINUOUS
 10
35.366945
 20
11.962291
 11
35.501026
 21
11.978014
  0
LINE
  8
4
  6
CONTINUOUS
 10
35.366945
 20
11.962291
 11
35.538802
 21
11.076277
  0
LINE
  8
4
  6
CONTINUOUS
 10
35.501026
 20
11.978014
 11
35.538802
 21
11.076277
  0
LINE
  8
4
  6
CONTINUOUS
 10
35.277194
 20
12.148104
 11
35.545357
 21
12.179549
  0
LINE
  8
4
  6
CONTINUOUS
 10
35.259725
 20
12.297083
 11
35.527887
 21
12.328528
  0
POLYLINE
  8
4
  6
CONTINUOUS
 66
     1
  0
VERTEX
  8
4
  6
CONTINUOUS
 10
30.238218
 20
56.279705
  0
VERTEX
  8
4
  6
CONTINUOUS
 10
35.329169
 20
12.864028
  0
SEQEND
  8
4
  6
CONTINUOUS
  0
LINE
  8
4
  6
CONTINUOUS
 10
27.973733
 20
56.014170
 11
27.833978
 21
57.206004
  0
LINE
  8
4
  6
CONTINUOUS
 10
27.953161
 20
57.219979
 11
27.714794
 21
57.192028
  0
LINE
  8
4
  6
CONTINUOUS
 10
27.955956
 20
57.196143
 11
27.717589
 21
57.168192
  0
LINE
  8
4
  6
CONTINUOUS
 10
27.958751
 20
57.172306
 11
27.720384
 21
57.144355
  0
LINE
  8
4
  6
CONTINUOUS
 10
33.064685
 20
12.598493
 11
33.169501
 21
11.704617
  0
LINE
  8
4
  6
CONTINUOUS
 10
33.102460
 20
11.696756
 11
33.236542
 21
11.712479
  0
LINE
  8
4
  6
CONTINUOUS
 10
33.102460
 20
11.696756
 11
33.274318
 21
10.810742
  0
LINE
  8
4
  6
CONTINUOUS
 10
33.236542
 20
11.712479
 11
33.274318
 21
10.810742
  0
LINE
  8
4
  6
CONTINUOUS
 10
33.012709
 20
11.882569
 11
33.280872
 21
11.914014
  0
LINE
  8
4
  6
CONTINUOUS
 10
32.995240
 20
12.031548
 11
33.263403
 21
12.062993
  0
POLYLINE
  8
4
  6
CONTINUOUS
 66
     1
  0
VERTEX
  8
4
  6
CONTINUOUS
 10
27.973733
 20
56.014170
  0
VERTEX
  8
4
  6
CONTINUOUS
 10
33.064685
 20
12.598493
  0
SEQEND
  8
4
  6
CONTINUOUS
  0
LINE
  8
4
  6
CONTINUOUS
 10
25.709248
 20
55.748635
 11
25.569493
 21
56.940469
  0
LINE
  8
4
  6
CONTINUOUS
 10
25.688676
 20
56.954444
 11
25.450310
 21
56.926493
  0
LINE
  8
4
  6
CONTINUOUS
 10
25.691471
 20
56.930608
 11
25.453105
 21
56.902656
  0
LINE
  8
4
  6
CONTINUOUS
 10
25.694267
 20
56.906771
 11
25.455900
 21
56.878820
  0
LINE
  8
4
  6
CONTINUOUS
 10
30.800200
 20
12.332958
 11
30.905016
 21
11.439082
  0
LINE
  8
4
  6
CONTINUOUS
 10
30.837976
 20
11.431221
 11
30.972057
 21
11.446944
  0
LINE
  8
4
  6
CONTINUOUS
 10
30.837976
 20
11.431221
 11
31.009833
 21
10.545207
  0
LINE
  8
4
  6
CONTINUOUS
 10
30.972057
 20
11.446944
 11
31.009833
 21
10.545207
  0
LINE
  8
4
  6
CONTINUOUS
 10
30.748225
 20
11.617034
 11
31.016387
 21
11.648479
  0
LINE
  8
4
  6
CONTINUOUS
 10
30.730755
 20
11.766013
 11
30.998918
 21
11.797458
  0
POLYLINE
  8
4
  6
CONTINUOUS
 66
     1
  0
VERTEX
  8
4
  6
CONTINUOUS
 10
25.709248
 20
55.748635
  0
VERTEX
  8
4
  6
CONTINUOUS
 10
30.800200
 20
12.332958
  0
SEQEND
  8
4
  6
CONTINUOUS
  0
LINE
  8
4
  6
CONTINUOUS
 10
23.444763
 20
55.483100
 11
23.305008
 21
56.674934
  0
LINE
  8
4
  6
CONTINUOUS
 10
23.424192
 20
56.688909
 11
23.185825
 21
56.660958
  0
LINE
  8
4
  6
CONTINUOUS
 10
23.426987
 20
56.665073
 11
23.188620
 21
56.637121
  0
LINE
  8
4
  6
CONTINUOUS
 10
23.429782
 20
56.641236
 11
23.191415
 21
56.613285
  0
LINE
  8
4
  6
CONTINUOUS
 10
28.535715
 20
12.067423
 11
28.640532
 21
11.173547
  0
LINE
  8
4
  6
CONTINUOUS
 10
28.573491
 20
11.165686
 11
28.707572
 21
11.181409
  0
LINE
  8
4
  6
CONTINUOUS
 10
28.573491
 20
11.165686
 11
28.745348
 21
10.279672
  0
LINE
  8
4
  6
CONTINUOUS
 10
28.707572
 20
11.181409
 11
28.745348
 21
10.279672
  0
LINE
  8
4
  6
CONTINUOUS
 10
28.483740
 20
11.351499
 11
28.751903
 21
11.382944
  0
LINE
  8
4
  6
CONTINUOUS
 10
28.466271
 20
11.500478
 11
28.734433
 21
11.531923
  0
POLYLINE
  8
4
  6
CONTINUOUS
 66
     1
  0
VERTEX
  8
4
  6
CONTINUOUS
 10
23.444763
 20
55.483100
  0
VERTEX
  8
4
  6
CONTINUOUS
 10
28.535715
 20
12.067423
  0
SEQEND
  8
4
  6
CONTINUOUS
  0
LINE
  8
4
  6
CONTINUOUS
 10
21.180279
 20
55.217565
 11
21.040523
 21
56.409399
  0
LINE
  8
4
  6
CONTINUOUS
 10
21.159707
 20
56.423374
 11
20.921340
 21
56.395423
  0
LINE
  8
4
  6
CONTINUOUS
 10
21.162502
 20
56.399538
 11
20.924135
 21
56.371586
  0
LINE
  8
4
  6
CONTINUOUS
 10
21.165297
 20
56.375701
 11
20.926930
 21
56.347750
  0
LINE
  8
4
  6
CONTINUOUS
 10
26.271230
 20
11.801888
 11
26.376047
 21
10.908012
  0
LINE
  8
4
  6
CONTINUOUS
 10
26.309006
 20
10.900151
 11
26.443087
 21
10.915874
  0
LINE
  8
4
  6
CONTINUOUS
 10
26.309006
 20
10.900151
 11
26.480863
 21
10.014137
  0
LINE
  8
4
  6
CONTINUOUS
 10
26.443087
 20
10.915874
 11
26.480863
 21
10.014137
  0
LINE
  8
4
  6
CONTINUOUS
 10
26.219255
 20
11.085964
 11
26.487418
 21
11.117409
  0
LINE
  8
4
  6
CONTINUOUS
 10
26.201786
 20
11.234943
 11
26.469948
 21
11.266388
  0
POLYLINE
  8
4
  6
CONTINUOUS
 66
     1
  0
VERTEX
  8
4
  6
CONTINUOUS
 10
21.180279
 20
55.217565
  0
VERTEX
  8
4
  6
CONTINUOUS
 10
26.271230
 20
11.801888
  0
SEQEND
  8
4
  6
CONTINUOUS
  0
LINE
  8
4
  6
CONTINUOUS
 10
18.915794
 20
54.952030
 11
18.776039
 21
56.143864
  0
LINE
  8
4
  6
CONTINUOUS
 10
18.895222
 20
56.157839
 11
18.656855
 21
56.129888
  0
LINE
  8
4
  6
CONTINUOUS
 10
18.898017
 20
56.134003
 11
18.659650
 21
56.106051
  0
LINE
  8
4
  6
CONTINUOUS
 10
18.900812
 20
56.110166
 11
18.662446
 21
56.082215
  0
LINE
  8
4
  6
CONTINUOUS
 10
24.006746
 20
11.536353
 11
24.111562
 21
10.642477
  0
LINE
  8
4
  6
CONTINUOUS
 10
24.044521
 20
10.634616
 11
24.178603
 21
10.650339
  0
LINE
  8
4
  6
CONTINUOUS
 10
24.044521
 20
10.634616
 11
24.216379
 21
9.748602
  0
LINE
  8
4
  6
CONTINUOUS
 10
24.178603
 20
10.650339
 11
24.216379
 21
9.748602
  0
LINE
  8
4
  6
CONTINUOUS
 10
23.954770
 20
10.820429
 11
24.222933
 21
10.851874
  0
LINE
  8
4
  6
CONTINUOUS
 10
23.937301
 20
10.969408
 11
24.205464
 21
11.000853
  0
POLYLINE
  8
4
  6
CONTINUOUS
 66
     1
  0
VERTEX
  8
4
  6
CONTINUOUS
 10
18.915794
 20
54.952030
  0
VERTEX
  8
4
  6
CONTINUOUS
 10
24.006746
 20
11.536353
  0
SEQEND
  8
4
  6
CONTINUOUS
  0
LINE
  8
4
  6
CONTINUOUS
 10
16.651309
 20
54.686495
 11
16.511554
 21
55.878329
  0
LINE
  8
4
  6
CONTINUOUS
 10
16.630737
 20
55.892304
 11
16.392371
 21
55.864353
  0
LINE
  8
4
  6
CONTINUOUS
 10
16.633532
 20
55.868467
 11
16.395166
 21
55.840516
  0
LINE
  8
4
  6
CONTINUOUS
 10
16.636328
 20
55.844631
 11
16.397961
 21
55.816680
  0
LINE
  8
4
  6
CONTINUOUS
 10
21.742261
 20
11.270818
 11
21.847077
 21
10.376942
  0
LINE
  8
4
  6
CONTINUOUS
 10
21.780037
 20
10.369081
 11
21.914118
 21
10.384804
  0
LINE
  8
4
  6
CONTINUOUS
 10
21.780037
 20
10.369081
 11
21.951894
 21
9.483067
  0
LINE
  8
4
  6
CONTINUOUS
 10
21.914118
 20
10.384804
 11
21.951894
 21
9.483067
  0
LINE
  8
4
  6
CONTINUOUS
 10
21.690286
 20
10.554894
 11
21.958448
 21
10.586339
  0
LINE
  8
4
  6
CONTINUOUS
 10
21.672816
 20
10.703873
 11
21.940979
 21
10.735318
  0
POLYLINE
  8
4
  6
CONTINUOUS
 66
     1
  0
VERTEX
  8
4
  6
CONTINUOUS
 10
16.651309
 20
54.686495
  0
VERTEX
  8
4
  6
CONTINUOUS
 10
21.742261
 20
11.270818
  0
SEQEND
  8
4
  6
CONTINUOUS
  0
LINE
  8
4
  6
CONTINUOUS
 10
14.497816
 20
54.380816
 11
14.358061
 21
55.572651
  0
LINE
  8
4
  6
CONTINUOUS
 10
14.477244
 20
55.586626
 11
14.238877
 21
55.558675
  0
LINE
  8
4
  6
CONTINUOUS
 10
14.480039
 20
55.562789
 11
14.241673
 21
55.534838
  0
LINE
  8
4
  6
CONTINUOUS
 10
14.482835
 20
55.538953
 11
14.244468
 21
55.511002
  0
LINE
  8
4
  6
CONTINUOUS
 10
19.564033
 20
11.176075
 11
19.668850
 21
10.282199
  0
LINE
  8
4
  6
CONTINUOUS
 10
19.601809
 20
10.274338
 11
19.735891
 21
10.290060
  0
LINE
  8
4
  6
CONTINUOUS
 10
19.601809
 20
10.274338
 11
19.773666
 21
9.388324
  0
LINE
  8
4
  6
CONTINUOUS
 10
19.735891
 20
10.290060
 11
19.773666
 21
9.388324
  0
LINE
  8
4
  6
CONTINUOUS
 10
19.512058
 20
10.460151
 11
19.780221
 21
10.491596
  0
LINE
  8
4
  6
CONTINUOUS
 10
19.494589
 20
10.609130
 11
19.762752
 21
10.640574
  0
POLYLINE
  8
4
  6
CONTINUOUS
 66
     1
  0
VERTEX
  8
4
  6
CONTINUOUS
 10
14.497816
 20
54.380816
  0
VERTEX
  8
4
  6
CONTINUOUS
 10
19.564033
 20
11.176075
  0
SEQEND
  8
4
  6
CONTINUOUS
  0
LINE
  8
4
  6
CONTINUOUS
 10
12.511426
 20
54.147891
 11
12.371671
 21
55.339725
  0
LINE
  8
4
  6
CONTINUOUS
 10
12.490854
 20
55.353701
 11
12.252487
 21
55.325750
  0
LINE
  8
4
  6
CONTINUOUS
 10
12.493649
 20
55.329864
 11
12.255282
 21
55.301913
  0
LINE
  8
4
  6
CONTINUOUS
 10
12.496444
 20
55.306027
 11
12.258078
 21
55.278076
  0
LINE
  8
4
  6
CONTINUOUS
 10
17.577643
 20
10.943149
 11
17.682460
 21
10.049274
  0
LINE
  8
4
  6
CONTINUOUS
 10
17.615419
 20
10.041412
 11
17.749500
 21
10.057135
  0
LINE
  8
4
  6
CONTINUOUS
 10
17.615419
 20
10.041412
 11
17.787276
 21
9.155398
  0
LINE
  8
4
  6
CONTINUOUS
 10
17.749500
 20
10.057135
 11
17.787276
 21
9.155398
  0
LINE
  8
4
  6
CONTINUOUS
 10
17.525668
 20
10.227225
 11
17.793831
 21
10.258670
  0
LINE
  8
4
  6
CONTINUOUS
 10
17.508199
 20
10.376204
 11
17.776361
 21
10.407649
  0
POLYLINE
  8
4
  6
CONTINUOUS
 66
     1
  0
VERTEX
  8
4
  6
CONTINUOUS
 10
12.511426
 20
54.147891
  0
VERTEX
  8
4
  6
CONTINUOUS
 10
17.577643
 20
10.943149
  0
SEQEND
  8
4
  6
CONTINUOUS
  0
LINE
  8
4
  6
CONTINUOUS
 10
10.525036
 20
53.914966
 11
10.385281
 21
55.106800
  0
LINE
  8
4
  6
CONTINUOUS
 10
10.504464
 20
55.120775
 11
10.266097
 21
55.092824
  0
LINE
  8
4
  6
CONTINUOUS
 10
10.507259
 20
55.096938
 11
10.268892
 21
55.068987
  0
LINE
  8
4
  6
CONTINUOUS
 10
10.510054
 20
55.073102
 11
10.271687
 21
55.045151
  0
LINE
  8
4
  6
CONTINUOUS
 10
15.591253
 20
10.710224
 11
15.696070
 21
9.816348
  0
LINE
  8
4
  6
CONTINUOUS
 10
15.629029
 20
9.808487
 11
15.763110
 21
9.824209
  0
LINE
  8
4
  6
CONTINUOUS
 10
15.629029
 20
9.808487
 11
15.800886
 21
8.922473
  0
LINE
  8
4
  6
CONTINUOUS
 10
15.763110
 20
9.824209
 11
15.800886
 21
8.922473
  0
LINE
  8
4
  6
CONTINUOUS
 10
15.539278
 20
9.994300
 11
15.807441
 21
10.025745
  0
LINE
  8
4
  6
CONTINUOUS
 10
15.521809
 20
10.143279
 11
15.789971
 21
10.174724
  0
POLYLINE
  8
4
  6
CONTINUOUS
 66
     1
  0
VERTEX
  8
4
  6
CONTINUOUS
 10
10.525036
 20
53.914966
  0
VERTEX
  8
4
  6
CONTINUOUS
 10
15.591253
 20
10.710224
  0
SEQEND
  8
4
  6
CONTINUOUS
  0
LINE
  8
4
  6
CONTINUOUS
 10
8.538646
 20
53.682040
 11
8.398891
 21
54.873874
  0
LINE
  8
4
  6
CONTINUOUS
 10
8.518074
 20
54.887850
 11
8.279707
 21
54.859899
  0
LINE
  8
4
  6
CONTINUOUS
 10
8.520869
 20
54.864013
 11
8.282502
 21
54.836062
  0
LINE
  8
4
  6
CONTINUOUS
 10
8.523664
 20
54.840176
 11
8.285297
 21
54.812225
  0
LINE
  8
4
  6
CONTINUOUS
 10
13.604863
 20
10.477298
 11
13.709680
 21
9.583423
  0
LINE
  8
4
  6
CONTINUOUS
 10
13.642639
 20
9.575561
 11
13.776720
 21
9.591284
  0
LINE
  8
4
  6
CONTINUOUS
 10
13.642639
 20
9.575561
 11
13.814496
 21
8.689547
  0
LINE
  8
4
  6
CONTINUOUS
 10
13.776720
 20
9.591284
 11
13.814496
 21
8.689547
  0
LINE
  8
4
  6
CONTINUOUS
 10
13.552888
 20
9.761374
 11
13.821050
 21
9.792819
  0
LINE
  8
4
  6
CONTINUOUS
 10
13.535418
 20
9.910353
 11
13.803581
 21
9.941798
  0
POLYLINE
  8
4
  6
CONTINUOUS
 66
     1
  0
VERTEX
  8
4
  6
CONTINUOUS
 10
8.538646
 20
53.682040
  0
VERTEX
  8
4
  6
CONTINUOUS
 10
13.604863
 20
10.477298
  0
SEQEND
  8
4
  6
CONTINUOUS
  0
LINE
  8
4
  6
CONTINUOUS
 10
50.176794
 20
58.617716
 11
50.037038
 21
59.809550
  0
LINE
  8
4
  6
CONTINUOUS
 10
50.156222
 20
59.823525
 11
49.917855
 21
59.795574
  0
LINE
  8
4
  6
CONTINUOUS
 10
50.159017
 20
59.799688
 11
49.920650
 21
59.771737
  0
LINE
  8
4
  6
CONTINUOUS
 10
50.161812
 20
59.775852
 11
49.923445
 21
59.747901
  0
LINE
  8
4
  6
CONTINUOUS
 10
55.267745
 20
15.202039
 11
55.372562
 21
14.308163
  0
LINE
  8
4
  6
CONTINUOUS
 10
55.305521
 20
14.300302
 11
55.439602
 21
14.316025
  0
LINE
  8
4
  6
CONTINUOUS
 10
55.305521
 20
14.300302
 11
55.477378
 21
13.414288
  0
LINE
  8
4
  6
CONTINUOUS
 10
55.439602
 20
14.316025
 11
55.477378
 21
13.414288
  0
LINE
  8
4
  6
CONTINUOUS
 10
55.215770
 20
14.486115
 11
55.483933
 21
14.517560
  0
LINE
  8
4
  6
CONTINUOUS
 10
55.198301
 20
14.635094
 11
55.466463
 21
14.666539
  0
POLYLINE
  8
4
  6
CONTINUOUS
 66
     1
  0
VERTEX
  8
4
  6
CONTINUOUS
 10
50.176794
 20
58.617716
  0
VERTEX
  8
4
  6
CONTINUOUS
 10
55.267745
 20
15.202039
  0
SEQEND
  8
4
  6
CONTINUOUS
  0
LINE
  8
4
  6
CONTINUOUS
 10
47.971900
 20
58.359168
 11
47.832145
 21
59.551002
  0
LINE
  8
4
  6
CONTINUOUS
 10
47.951329
 20
59.564978
 11
47.712962
 21
59.537027
  0
LINE
  8
4
  6
CONTINUOUS
 10
47.954124
 20
59.541141
 11
47.715757
 21
59.513190
  0
LINE
  8
4
  6
CONTINUOUS
 10
47.956919
 20
59.517305
 11
47.718552
 21
59.489353
  0
LINE
  8
4
  6
CONTINUOUS
 10
53.062852
 20
14.943492
 11
53.167669
 21
14.049616
  0
LINE
  8
4
  6
CONTINUOUS
 10
53.100628
 20
14.041755
 11
53.234709
 21
14.057477
  0
LINE
  8
4
  6
CONTINUOUS
 10
53.100628
 20
14.041755
 11
53.272485
 21
13.155741
  0
LINE
  8
4
  6
CONTINUOUS
 10
53.234709
 20
14.057477
 11
53.272485
 21
13.155741
  0
LINE
  8
4
  6
CONTINUOUS
 10
53.010877
 20
14.227568
 11
53.279040
 21
14.259013
  0
LINE
  8
4
  6
CONTINUOUS
 10
52.993408
 20
14.376546
 11
53.261570
 21
14.407991
  0
POLYLINE
  8
4
  6
CONTINUOUS
 66
     1
  0
VERTEX
  8
4
  6
CONTINUOUS
 10
47.971900
 20
58.359168
  0
VERTEX
  8
4
  6
CONTINUOUS
 10
53.062852
 20
14.943492
  0
SEQEND
  8
4
  6
CONTINUOUS
  0
LINE
  8
4
  6
CONTINUOUS
 10
45.767007
 20
58.100621
 11
45.627252
 21
59.292455
  0
LINE
  8
4
  6
CONTINUOUS
 10
45.746436
 20
59.306431
 11
45.508069
 21
59.278480
  0
LINE
  8
4
  6
CONTINUOUS
 10
45.749231
 20
59.282594
 11
45.510864
 21
59.254643
  0
LINE
  8
4
  6
CONTINUOUS
 10
45.752026
 20
59.258757
 11
45.513659
 21
59.230806
  0
LINE
  8
4
  6
CONTINUOUS
 10
50.857959
 20
14.684944
 11
50.962776
 21
13.791069
  0
LINE
  8
4
  6
CONTINUOUS
 10
50.895735
 20
13.783208
 11
51.029816
 21
13.798930
  0
LINE
  8
4
  6
CONTINUOUS
 10
50.895735
 20
13.783208
 11
51.067592
 21
12.897193
  0
LINE
  8
4
  6
CONTINUOUS
 10
51.029816
 20
13.798930
 11
51.067592
 21
12.897193
  0
LINE
  8
4
  6
CONTINUOUS
 10
50.805984
 20
13.969021
 11
51.074146
 21
14.000466
  0
LINE
  8
4
  6
CONTINUOUS
 10
50.788514
 20
14.117999
 11
51.056677
 21
14.149444
  0
POLYLINE
  8
4
  6
CONTINUOUS
 66
     1
  0
VERTEX
  8
4
  6
CONTINUOUS
 10
45.767007
 20
58.100621
  0
VERTEX
  8
4
  6
CONTINUOUS
 10
50.857959
 20
14.684944
  0
SEQEND
  8
4
  6
CONTINUOUS
  0
LINE
  8
4
  6
CONTINUOUS
 10
43.562114
 20
57.842074
 11
43.422359
 21
59.033908
  0
LINE
  8
4
  6
CONTINUOUS
 10
43.541543
 20
59.047883
 11
43.303176
 21
59.019932
  0
LINE
  8
4
  6
CONTINUOUS
 10
43.544338
 20
59.024047
 11
43.305971
 21
58.996096
  0
LINE
  8
4
  6
CONTINUOUS
 10
43.547133
 20
59.000210
 11
43.308766
 21
58.972259
  0
LINE
  8
4
  6
CONTINUOUS
 10
48.653066
 20
14.426397
 11
48.757882
 21
13.532522
  0
LINE
  8
4
  6
CONTINUOUS
 10
48.690842
 20
13.524660
 11
48.824923
 21
13.540383
  0
LINE
  8
4
  6
CONTINUOUS
 10
48.690842
 20
13.524660
 11
48.862699
 21
12.638646
  0
LINE
  8
4
  6
CONTINUOUS
 10
48.824923
 20
13.540383
 11
48.862699
 21
12.638646
  0
LINE
  8
4
  6
CONTINUOUS
 10
48.601091
 20
13.710473
 11
48.869253
 21
13.741918
  0
LINE
  8
4
  6
CONTINUOUS
 10
48.583621
 20
13.859452
 11
48.851784
 21
13.890897
  0
POLYLINE
  8
4
  6
CONTINUOUS
 66
     1
  0
VERTEX
  8
4
  6
CONTINUOUS
 10
43.562114
 20
57.842074
  0
VERTEX
  8
4
  6
CONTINUOUS
 10
48.653066
 20
14.426397
  0
SEQEND
  8
4
  6
CONTINUOUS
  0
LINE
  8
4
  6
CONTINUOUS
 10
41.357221
 20
57.583527
 11
41.217466
 21
58.775361
  0
LINE
  8
4
  6
CONTINUOUS
 10
41.336649
 20
58.789336
 11
41.098283
 21
58.761385
  0
LINE
  8
4
  6
CONTINUOUS
 10
41.339445
 20
58.765499
 11
41.101078
 21
58.737548
  0
LINE
  8
4
  6
CONTINUOUS
 10
41.342240
 20
58.741663
 11
41.103873
 21
58.713712
  0
LINE
  8
4
  6
CONTINUOUS
 10
46.448173
 20
14.167850
 11
46.552989
 21
13.273974
  0
LINE
  8
4
  6
CONTINUOUS
 10
46.485949
 20
13.266113
 11
46.620030
 21
13.281836
  0
LINE
  8
4
  6
CONTINUOUS
 10
46.485949
 20
13.266113
 11
46.657806
 21
12.380099
  0
LINE
  8
4
  6
CONTINUOUS
 10
46.620030
 20
13.281836
 11
46.657806
 21
12.380099
  0
LINE
  8
4
  6
CONTINUOUS
 10
46.396198
 20
13.451926
 11
46.664360
 21
13.483371
  0
LINE
  8
4
  6
CONTINUOUS
 10
46.378728
 20
13.600905
 11
46.646891
 21
13.632350
  0
POLYLINE
  8
4
  6
CONTINUOUS
 66
     1
  0
VERTEX
  8
4
  6
CONTINUOUS
 10
41.357221
 20
57.583527
  0
VERTEX
  8
4
  6
CONTINUOUS
 10
46.448173
 20
14.167850
  0
SEQEND
  8
4
  6
CONTINUOUS
  0
LINE
  8
4
  6
CONTINUOUS
 10
39.152328
 20
57.324979
 11
39.012573
 21
58.516813
  0
LINE
  8
4
  6
CONTINUOUS
 10
39.131756
 20
58.530789
 11
38.893390
 21
58.502838
  0
LINE
  8
4
  6
CONTINUOUS
 10
39.134552
 20
58.506952
 11
38.896185
 21
58.479001
  0
LINE
  8
4
  6
CONTINUOUS
 10
39.137347
 20
58.483116
 11
38.898980
 21
58.455164
  0
LINE
  8
4
  6
CONTINUOUS
 10
44.243280
 20
13.909303
 11
44.348096
 21
13.015427
  0
LINE
  8
4
  6
CONTINUOUS
 10
44.281056
 20
13.007566
 11
44.415137
 21
13.023288
  0
LINE
  8
4
  6
CONTINUOUS
 10
44.281056
 20
13.007566
 11
44.452913
 21
12.121552
  0
LINE
  8
4
  6
CONTINUOUS
 10
44.415137
 20
13.023288
 11
44.452913
 21
12.121552
  0
LINE
  8
4
  6
CONTINUOUS
 10
44.191305
 20
13.193379
 11
44.459467
 21
13.224824
  0
LINE
  8
4
  6
CONTINUOUS
 10
44.173835
 20
13.342357
 11
44.441998
 21
13.373802
  0
POLYLINE
  8
4
  6
CONTINUOUS
 66
     1
  0
VERTEX
  8
4
  6
CONTINUOUS
 10
39.152328
 20
57.324979
  0
VERTEX
  8
4
  6
CONTINUOUS
 10
44.243280
 20
13.909303
  0
SEQEND
  8
4
  6
CONTINUOUS
  0
LINE
  8
4
  6
CONTINUOUS
 10
36.947435
 20
57.066432
 11
36.807680
 21
58.258266
  0
LINE
  8
4
  6
CONTINUOUS
 10
36.926863
 20
58.272242
 11
36.688497
 21
58.244291
  0
LINE
  8
4
  6
CONTINUOUS
 10
36.929659
 20
58.248405
 11
36.691292
 21
58.220454
  0
LINE
  8
4
  6
CONTINUOUS
 10
36.932454
 20
58.224568
 11
36.694087
 21
58.196617
  0
LINE
  8
4
  6
CONTINUOUS
 10
42.038387
 20
13.650755
 11
42.143203
 21
12.756880
  0
LINE
  8
4
  6
CONTINUOUS
 10
42.076163
 20
12.749019
 11
42.210244
 21
12.764741
  0
LINE
  8
4
  6
CONTINUOUS
 10
42.076163
 20
12.749019
 11
42.248020
 21
11.863004
  0
LINE
  8
4
  6
CONTINUOUS
 10
42.210244
 20
12.764741
 11
42.248020
 21
11.863004
  0
LINE
  8
4
  6
CONTINUOUS
 10
41.986412
 20
12.934832
 11
42.254574
 21
12.966277
  0
LINE
  8
4
  6
CONTINUOUS
 10
41.968942
 20
13.083810
 11
42.237105
 21
13.115255
  0
POLYLINE
  8
4
  6
CONTINUOUS
 66
     1
  0
VERTEX
  8
4
  6
CONTINUOUS
 10
36.947435
 20
57.066432
  0
VERTEX
  8
4
  6
CONTINUOUS
 10
42.038387
 20
13.650755
  0
SEQEND
  8
4
  6
CONTINUOUS
  0
LINE
  8
4
  6
CONTINUOUS
 10
34.742542
 20
56.807885
 11
34.602787
 21
57.999719
  0
LINE
  8
4
  6
CONTINUOUS
 10
34.721970
 20
58.013694
 11
34.483604
 21
57.985743
  0
LINE
  8
4
  6
CONTINUOUS
 10
34.724765
 20
57.989858
 11
34.486399
 21
57.961907
  0
LINE
  8
4
  6
CONTINUOUS
 10
34.727561
 20
57.966021
 11
34.489194
 21
57.938070
  0
LINE
  8
4
  6
CONTINUOUS
 10
39.833494
 20
13.392208
 11
39.938310
 21
12.498333
  0
LINE
  8
4
  6
CONTINUOUS
 10
39.871270
 20
12.490471
 11
40.005351
 21
12.506194
  0
LINE
  8
4
  6
CONTINUOUS
 10
39.871270
 20
12.490471
 11
40.043127
 21
11.604457
  0
LINE
  8
4
  6
CONTINUOUS
 10
40.005351
 20
12.506194
 11
40.043127
 21
11.604457
  0
LINE
  8
4
  6
CONTINUOUS
 10
39.781519
 20
12.676284
 11
40.049681
 21
12.707729
  0
LINE
  8
4
  6
CONTINUOUS
 10
39.764049
 20
12.825263
 11
40.032212
 21
12.856708
  0
POLYLINE
  8
4
  6
CONTINUOUS
 66
     1
  0
VERTEX
  8
4
  6
CONTINUOUS
 10
34.742542
 20
56.807885
  0
VERTEX
  8
4
  6
CONTINUOUS
 10
39.833494
 20
13.392208
  0
SEQEND
  8
4
  6
CONTINUOUS
  0
LINE
  8
4
  6
CONTINUOUS
 10
56.845725
 20
59.517184
 11
56.705970
 21
60.709018
  0
LINE
  8
4
  6
CONTINUOUS
 10
56.825153
 20
60.722994
 11
56.586787
 21
60.695043
  0
LINE
  8
4
  6
CONTINUOUS
 10
56.827948
 20
60.699157
 11
56.589582
 21
60.671206
  0
LINE
  8
4
  6
CONTINUOUS
 10
56.830744
 20
60.675320
 11
56.592377
 21
60.647369
  0
LINE
  8
4
  6
CONTINUOUS
 10
61.986037
 20
15.680561
 11
62.090854
 21
14.786686
  0
LINE
  8
4
  6
CONTINUOUS
 10
62.023813
 20
14.778824
 11
62.157894
 21
14.794547
  0
LINE
  8
4
  6
CONTINUOUS
 10
62.023813
 20
14.778824
 11
62.195670
 21
13.892810
  0
LINE
  8
4
  6
CONTINUOUS
 10
62.157894
 20
14.794547
 11
62.195670
 21
13.892810
  0
LINE
  8
4
  6
CONTINUOUS
 10
61.934062
 20
14.964637
 11
62.202225
 21
14.996082
  0
LINE
  8
4
  6
CONTINUOUS
 10
61.916593
 20
15.113616
 11
62.184755
 21
15.145061
  0
POLYLINE
  8
4
  6
CONTINUOUS
 66
     1
  0
VERTEX
  8
4
  6
CONTINUOUS
 10
56.845725
 20
59.517184
  0
VERTEX
  8
4
  6
CONTINUOUS
 10
61.986037
 20
15.680561
  0
SEQEND
  8
4
  6
CONTINUOUS
  0
LINE
  8
4
  6
CONTINUOUS
 10
54.620968
 20
59.256308
 11
54.481213
 21
60.448142
  0
LINE
  8
4
  6
CONTINUOUS
 10
54.600396
 20
60.462117
 11
54.362030
 21
60.434166
  0
LINE
  8
4
  6
CONTINUOUS
 10
54.603192
 20
60.438281
 11
54.364825
 21
60.410329
  0
LINE
  8
4
  6
CONTINUOUS
 10
54.605987
 20
60.414444
 11
54.367620
 21
60.386493
  0
LINE
  8
4
  6
CONTINUOUS
 10
59.761280
 20
15.419685
 11
59.866097
 21
14.525809
  0
LINE
  8
4
  6
CONTINUOUS
 10
59.799056
 20
14.517948
 11
59.933138
 21
14.533670
  0
LINE
  8
4
  6
CONTINUOUS
 10
59.799056
 20
14.517948
 11
59.970913
 21
13.631934
  0
LINE
  8
4
  6
CONTINUOUS
 10
59.933138
 20
14.533670
 11
59.970913
 21
13.631934
  0
LINE
  8
4
  6
CONTINUOUS
 10
59.709305
 20
14.703761
 11
59.977468
 21
14.735206
  0
LINE
  8
4
  6
CONTINUOUS
 10
59.691836
 20
14.852740
 11
59.959998
 21
14.884185
  0
POLYLINE
  8
4
  6
CONTINUOUS
 66
     1
  0
VERTEX
  8
4
  6
CONTINUOUS
 10
54.620968
 20
59.256308
  0
VERTEX
  8
4
  6
CONTINUOUS
 10
59.761280
 20
15.419685
  0
SEQEND
  8
4
  6
CONTINUOUS
  0
LINE
  8
4
  6
CONTINUOUS
 10
52.396211
 20
58.995431
 11
52.256456
 21
60.187265
  0
LINE
  8
4
  6
CONTINUOUS
 10
52.375640
 20
60.201241
 11
52.137273
 21
60.173290
  0
LINE
  8
4
  6
CONTINUOUS
 10
52.378435
 20
60.177404
 11
52.140068
 21
60.149453
  0
LINE
  8
4
  6
CONTINUOUS
 10
52.381230
 20
60.153567
 11
52.142863
 21
60.125616
  0
LINE
  8
4
  6
CONTINUOUS
 10
57.536523
 20
15.158808
 11
57.641340
 21
14.264933
  0
LINE
  8
4
  6
CONTINUOUS
 10
57.574299
 20
14.257071
 11
57.708381
 21
14.272794
  0
LINE
  8
4
  6
CONTINUOUS
 10
57.574299
 20
14.257071
 11
57.746156
 21
13.371057
  0
LINE
  8
4
  6
CONTINUOUS
 10
57.708381
 20
14.272794
 11
57.746156
 21
13.371057
  0
LINE
  8
4
  6
CONTINUOUS
 10
57.484548
 20
14.442884
 11
57.752711
 21
14.474329
  0
LINE
  8
4
  6
CONTINUOUS
 10
57.467079
 20
14.591863
 11
57.735242
 21
14.623308
  0
POLYLINE
  8
4
  6
CONTINUOUS
 66
     1
  0
VERTEX
  8
4
  6
CONTINUOUS
 10
52.396211
 20
58.995431
  0
VERTEX
  8
4
  6
CONTINUOUS
 10
57.536523
 20
15.158808
  0
SEQEND
  8
4
  6
CONTINUOUS
  0
LINE
  8
4
  6
CONTINUOUS
 10
82.220000
 20
62.625010
 11
82.080245
 21
63.816844
  0
LINE
  8
4
  6
CONTINUOUS
 10
82.199428
 20
63.830819
 11
81.961062
 21
63.802868
  0
LINE
  8
4
  6
CONTINUOUS
 10
82.202224
 20
63.806983
 11
81.963857
 21
63.779031
  0
LINE
  8
4
  6
CONTINUOUS
 10
82.205019
 20
63.783146
 11
81.966652
 21
63.755195
  0
LINE
  8
4
  6
CONTINUOUS
 10
87.371834
 20
18.690129
 11
87.476651
 21
17.796254
  0
LINE
  8
4
  6
CONTINUOUS
 10
87.409610
 20
17.788392
 11
87.543691
 21
17.804115
  0
LINE
  8
4
  6
CONTINUOUS
 10
87.409610
 20
17.788392
 11
87.581467
 21
16.902378
  0
LINE
  8
4
  6
CONTINUOUS
 10
87.543691
 20
17.804115
 11
87.581467
 21
16.902378
  0
LINE
  8
4
  6
CONTINUOUS
 10
87.319859
 20
17.974205
 11
87.588022
 21
18.005650
  0
LINE
  8
4
  6
CONTINUOUS
 10
87.302390
 20
18.123184
 11
87.570552
 21
18.154629
  0
POLYLINE
  8
4
  6
CONTINUOUS
 66
     1
  0
VERTEX
  8
4
  6
CONTINUOUS
 10
82.220000
 20
62.625010
  0
VERTEX
  8
4
  6
CONTINUOUS
 10
87.371834
 20
18.690129
  0
SEQEND
  8
4
  6
CONTINUOUS
  0
LINE
  8
4
  6
CONTINUOUS
 10
80.313066
 20
62.401401
 11
80.173311
 21
63.593235
  0
LINE
  8
4
  6
CONTINUOUS
 10
80.292494
 20
63.607211
 11
80.054127
 21
63.579260
  0
LINE
  8
4
  6
CONTINUOUS
 10
80.295289
 20
63.583374
 11
80.056922
 21
63.555423
  0
LINE
  8
4
  6
CONTINUOUS
 10
80.298084
 20
63.559537
 11
80.059717
 21
63.531586
  0
LINE
  8
4
  6
CONTINUOUS
 10
85.464900
 20
18.466521
 11
85.569716
 21
17.572645
  0
LINE
  8
4
  6
CONTINUOUS
 10
85.502675
 20
17.564784
 11
85.636757
 21
17.580506
  0
LINE
  8
4
  6
CONTINUOUS
 10
85.502675
 20
17.564784
 11
85.674533
 21
16.678770
  0
LINE
  8
4
  6
CONTINUOUS
 10
85.636757
 20
17.580506
 11
85.674533
 21
16.678770
  0
LINE
  8
4
  6
CONTINUOUS
 10
85.412924
 20
17.750597
 11
85.681087
 21
17.782042
  0
LINE
  8
4
  6
CONTINUOUS
 10
85.395455
 20
17.899576
 11
85.663618
 21
17.931020
  0
POLYLINE
  8
4
  6
CONTINUOUS
 66
     1
  0
VERTEX
  8
4
  6
CONTINUOUS
 10
80.313066
 20
62.401401
  0
VERTEX
  8
4
  6
CONTINUOUS
 10
85.464900
 20
18.466521
  0
SEQEND
  8
4
  6
CONTINUOUS
  0
LINE
  8
4
  6
CONTINUOUS
 10
78.406131
 20
62.177793
 11
78.266376
 21
63.369627
  0
LINE
  8
4
  6
CONTINUOUS
 10
78.385559
 20
63.383602
 11
78.147193
 21
63.355651
  0
LINE
  8
4
  6
CONTINUOUS
 10
78.388355
 20
63.359766
 11
78.149988
 21
63.331815
  0
LINE
  8
4
  6
CONTINUOUS
 10
78.391150
 20
63.335929
 11
78.152783
 21
63.307978
  0
LINE
  8
4
  6
CONTINUOUS
 10
83.557965
 20
18.242912
 11
83.662782
 21
17.349037
  0
LINE
  8
4
  6
CONTINUOUS
 10
83.595741
 20
17.341175
 11
83.729822
 21
17.356898
  0
LINE
  8
4
  6
CONTINUOUS
 10
83.595741
 20
17.341175
 11
83.767598
 21
16.455161
  0
LINE
  8
4
  6
CONTINUOUS
 10
83.729822
 20
17.356898
 11
83.767598
 21
16.455161
  0
LINE
  8
4
  6
CONTINUOUS
 10
83.505990
 20
17.526988
 11
83.774153
 21
17.558433
  0
LINE
  8
4
  6
CONTINUOUS
 10
83.488521
 20
17.675967
 11
83.756683
 21
17.707412
  0
POLYLINE
  8
4
  6
CONTINUOUS
 66
     1
  0
VERTEX
  8
4
  6
CONTINUOUS
 10
78.406131
 20
62.177793
  0
VERTEX
  8
4
  6
CONTINUOUS
 10
83.557965
 20
18.242912
  0
SEQEND
  8
4
  6
CONTINUOUS
  0
LINE
  8
4
  6
CONTINUOUS
 10
76.499197
 20
61.954184
 11
76.359442
 21
63.146018
  0
LINE
  8
4
  6
CONTINUOUS
 10
76.478625
 20
63.159994
 11
76.240258
 21
63.132043
  0
LINE
  8
4
  6
CONTINUOUS
 10
76.481420
 20
63.136157
 11
76.243053
 21
63.108206
  0
LINE
  8
4
  6
CONTINUOUS
 10
76.484215
 20
63.112321
 11
76.245848
 21
63.084370
  0
LINE
  8
4
  6
CONTINUOUS
 10
81.651031
 20
18.019304
 11
81.755847
 21
17.125428
  0
LINE
  8
4
  6
CONTINUOUS
 10
81.688806
 20
17.117567
 11
81.822888
 21
17.133290
  0
LINE
  8
4
  6
CONTINUOUS
 10
81.688806
 20
17.117567
 11
81.860664
 21
16.231553
  0
LINE
  8
4
  6
CONTINUOUS
 10
81.822888
 20
17.133290
 11
81.860664
 21
16.231553
  0
LINE
  8
4
  6
CONTINUOUS
 10
81.599055
 20
17.303380
 11
81.867218
 21
17.334825
  0
LINE
  8
4
  6
CONTINUOUS
 10
81.581586
 20
17.452359
 11
81.849749
 21
17.483804
  0
POLYLINE
  8
4
  6
CONTINUOUS
 66
     1
  0
VERTEX
  8
4
  6
CONTINUOUS
 10
76.499197
 20
61.954184
  0
VERTEX
  8
4
  6
CONTINUOUS
 10
81.651031
 20
18.019304
  0
SEQEND
  8
4
  6
CONTINUOUS
  0
LINE
  8
4
  6
CONTINUOUS
 10
74.592262
 20
61.730576
 11
74.452507
 21
62.922410
  0
LINE
  8
4
  6
CONTINUOUS
 10
74.571690
 20
62.936385
 11
74.333324
 21
62.908434
  0
LINE
  8
4
  6
CONTINUOUS
 10
74.574486
 20
62.912549
 11
74.336119
 21
62.884598
  0
LINE
  8
4
  6
CONTINUOUS
 10
74.577281
 20
62.888712
 11
74.338914
 21
62.860761
  0
LINE
  8
4
  6
CONTINUOUS
 10
79.744096
 20
17.795695
 11
79.848913
 21
16.901820
  0
LINE
  8
4
  6
CONTINUOUS
 10
79.781872
 20
16.893959
 11
79.915953
 21
16.909681
  0
LINE
  8
4
  6
CONTINUOUS
 10
79.781872
 20
16.893959
 11
79.953729
 21
16.007944
  0
LINE
  8
4
  6
CONTINUOUS
 10
79.915953
 20
16.909681
 11
79.953729
 21
16.007944
  0
LINE
  8
4
  6
CONTINUOUS
 10
79.692121
 20
17.079772
 11
79.960284
 21
17.111217
  0
LINE
  8
4
  6
CONTINUOUS
 10
79.674652
 20
17.228750
 11
79.942814
 21
17.260195
  0
POLYLINE
  8
4
  6
CONTINUOUS
 66
     1
  0
VERTEX
  8
4
  6
CONTINUOUS
 10
74.592262
 20
61.730576
  0
VERTEX
  8
4
  6
CONTINUOUS
 10
79.744096
 20
17.795695
  0
SEQEND
  8
4
  6
CONTINUOUS
  0
LINE
  8
4
  6
CONTINUOUS
 10
72.685328
 20
61.506967
 11
72.545572
 21
62.698802
  0
LINE
  8
4
  6
CONTINUOUS
 10
72.664756
 20
62.712777
 11
72.426389
 21
62.684826
  0
LINE
  8
4
  6
CONTINUOUS
 10
72.667551
 20
62.688940
 11
72.429184
 21
62.660989
  0
LINE
  8
4
  6
CONTINUOUS
 10
72.670346
 20
62.665104
 11
72.431979
 21
62.637153
  0
LINE
  8
4
  6
CONTINUOUS
 10
77.837162
 20
17.572087
 11
77.941978
 21
16.678211
  0
LINE
  8
4
  6
CONTINUOUS
 10
77.874937
 20
16.670350
 11
78.009019
 21
16.686073
  0
LINE
  8
4
  6
CONTINUOUS
 10
77.874937
 20
16.670350
 11
78.046794
 21
15.784336
  0
LINE
  8
4
  6
CONTINUOUS
 10
78.009019
 20
16.686073
 11
78.046794
 21
15.784336
  0
LINE
  8
4
  6
CONTINUOUS
 10
77.785186
 20
16.856163
 11
78.053349
 21
16.887608
  0
LINE
  8
4
  6
CONTINUOUS
 10
77.767717
 20
17.005142
 11
78.035880
 21
17.036587
  0
POLYLINE
  8
4
  6
CONTINUOUS
 66
     1
  0
VERTEX
  8
4
  6
CONTINUOUS
 10
72.685328
 20
61.506967
  0
VERTEX
  8
4
  6
CONTINUOUS
 10
77.837162
 20
17.572087
  0
SEQEND
  8
4
  6
CONTINUOUS
  0
LINE
  8
4
  6
CONTINUOUS
 10
70.778393
 20
61.283359
 11
70.638638
 21
62.475193
  0
LINE
  8
4
  6
CONTINUOUS
 10
70.757821
 20
62.489169
 11
70.519455
 21
62.461218
  0
LINE
  8
4
  6
CONTINUOUS
 10
70.760616
 20
62.465332
 11
70.522250
 21
62.437381
  0
LINE
  8
4
  6
CONTINUOUS
 10
70.763412
 20
62.441495
 11
70.525045
 21
62.413544
  0
LINE
  8
4
  6
CONTINUOUS
 10
75.930227
 20
17.348479
 11
76.035044
 21
16.454603
  0
LINE
  8
4
  6
CONTINUOUS
 10
75.968003
 20
16.446742
 11
76.102084
 21
16.462464
  0
LINE
  8
4
  6
CONTINUOUS
 10
75.968003
 20
16.446742
 11
76.139860
 21
15.560727
  0
LINE
  8
4
  6
CONTINUOUS
 10
76.102084
 20
16.462464
 11
76.139860
 21
15.560727
  0
LINE
  8
4
  6
CONTINUOUS
 10
75.878252
 20
16.632555
 11
76.146414
 21
16.664000
  0
LINE
  8
4
  6
CONTINUOUS
 10
75.860782
 20
16.781533
 11
76.128945
 21
16.812978
  0
POLYLINE
  8
4
  6
CONTINUOUS
 66
     1
  0
VERTEX
  8
4
  6
CONTINUOUS
 10
70.778393
 20
61.283359
  0
VERTEX
  8
4
  6
CONTINUOUS
 10
75.930227
 20
17.348479
  0
SEQEND
  8
4
  6
CONTINUOUS
  0
LINE
  8
4
  6
CONTINUOUS
 10
68.871459
 20
61.059751
 11
68.731703
 21
62.251585
  0
LINE
  8
4
  6
CONTINUOUS
 10
68.850887
 20
62.265560
 11
68.612520
 21
62.237609
  0
LINE
  8
4
  6
CONTINUOUS
 10
68.853682
 20
62.241724
 11
68.615315
 21
62.213772
  0
LINE
  8
4
  6
CONTINUOUS
 10
68.856477
 20
62.217887
 11
68.618110
 21
62.189936
  0
LINE
  8
4
  6
CONTINUOUS
 10
74.023293
 20
17.124870
 11
74.128109
 21
16.230995
  0
LINE
  8
4
  6
CONTINUOUS
 10
74.061068
 20
16.223133
 11
74.195150
 21
16.238856
  0
LINE
  8
4
  6
CONTINUOUS
 10
74.061068
 20
16.223133
 11
74.232925
 21
15.337119
  0
LINE
  8
4
  6
CONTINUOUS
 10
74.195150
 20
16.238856
 11
74.232925
 21
15.337119
  0
LINE
  8
4
  6
CONTINUOUS
 10
73.971317
 20
16.408946
 11
74.239480
 21
16.440391
  0
LINE
  8
4
  6
CONTINUOUS
 10
73.953848
 20
16.557925
 11
74.222011
 21
16.589370
  0
POLYLINE
  8
4
  6
CONTINUOUS
 66
     1
  0
VERTEX
  8
4
  6
CONTINUOUS
 10
68.871459
 20
61.059751
  0
VERTEX
  8
4
  6
CONTINUOUS
 10
74.023293
 20
17.124870
  0
SEQEND
  8
4
  6
CONTINUOUS
  0
LINE
  8
4
  6
CONTINUOUS
 10
66.724142
 20
60.808015
 11
66.584387
 21
61.999849
  0
LINE
  8
4
  6
CONTINUOUS
 10
66.703570
 20
62.013824
 11
66.465203
 21
61.985873
  0
LINE
  8
4
  6
CONTINUOUS
 10
66.706365
 20
61.989987
 11
66.467998
 21
61.962036
  0
LINE
  8
4
  6
CONTINUOUS
 10
66.709160
 20
61.966151
 11
66.470793
 21
61.938200
  0
LINE
  8
4
  6
CONTINUOUS
 10
71.881824
 20
16.823262
 11
71.986640
 21
15.929386
  0
LINE
  8
4
  6
CONTINUOUS
 10
71.919599
 20
15.921525
 11
72.053681
 21
15.937248
  0
LINE
  8
4
  6
CONTINUOUS
 10
71.919599
 20
15.921525
 11
72.091457
 21
15.035511
  0
LINE
  8
4
  6
CONTINUOUS
 10
72.053681
 20
15.937248
 11
72.091457
 21
15.035511
  0
LINE
  8
4
  6
CONTINUOUS
 10
71.829848
 20
16.107338
 11
72.098011
 21
16.138783
  0
LINE
  8
4
  6
CONTINUOUS
 10
71.812379
 20
16.256317
 11
72.080542
 21
16.287762
  0
POLYLINE
  8
4
  6
CONTINUOUS
 66
     1
  0
VERTEX
  8
4
  6
CONTINUOUS
 10
66.724142
 20
60.808015
  0
VERTEX
  8
4
  6
CONTINUOUS
 10
71.881824
 20
16.823262
  0
SEQEND
  8
4
  6
CONTINUOUS
  0
LINE
  8
4
  6
CONTINUOUS
 10
64.499385
 20
60.547138
 11
64.359630
 21
61.738972
  0
LINE
  8
4
  6
CONTINUOUS
 10
64.478813
 20
61.752948
 11
64.240446
 21
61.724997
  0
LINE
  8
4
  6
CONTINUOUS
 10
64.481608
 20
61.729111
 11
64.243241
 21
61.701160
  0
LINE
  8
4
  6
CONTINUOUS
 10
64.484403
 20
61.705274
 11
64.246036
 21
61.677323
  0
LINE
  8
4
  6
CONTINUOUS
 10
69.657067
 20
16.562385
 11
69.761883
 21
15.668510
  0
LINE
  8
4
  6
CONTINUOUS
 10
69.694843
 20
15.660649
 11
69.828924
 21
15.676371
  0
LINE
  8
4
  6
CONTINUOUS
 10
69.694843
 20
15.660649
 11
69.866700
 21
14.774634
  0
LINE
  8
4
  6
CONTINUOUS
 10
69.828924
 20
15.676371
 11
69.866700
 21
14.774634
  0
LINE
  8
4
  6
CONTINUOUS
 10
69.605091
 20
15.846462
 11
69.873254
 21
15.877906
  0
LINE
  8
4
  6
CONTINUOUS
 10
69.587622
 20
15.995440
 11
69.855785
 21
16.026885
  0
POLYLINE
  8
4
  6
CONTINUOUS
 66
     1
  0
VERTEX
  8
4
  6
CONTINUOUS
 10
64.499385
 20
60.547138
  0
VERTEX
  8
4
  6
CONTINUOUS
 10
69.657067
 20
16.562385
  0
SEQEND
  8
4
  6
CONTINUOUS
  0
LINE
  8
4
  6
CONTINUOUS
 10
62.274628
 20
60.286261
 11
62.134873
 21
61.478096
  0
LINE
  8
4
  6
CONTINUOUS
 10
62.254056
 20
61.492071
 11
62.015689
 21
61.464120
  0
LINE
  8
4
  6
CONTINUOUS
 10
62.256851
 20
61.468234
 11
62.018484
 21
61.440283
  0
LINE
  8
4
  6
CONTINUOUS
 10
62.259646
 20
61.444398
 11
62.021279
 21
61.416447
  0
LINE
  8
4
  6
CONTINUOUS
 10
67.432310
 20
16.301509
 11
67.537126
 21
15.407633
  0
LINE
  8
4
  6
CONTINUOUS
 10
67.470086
 20
15.399772
 11
67.604167
 21
15.415495
  0
LINE
  8
4
  6
CONTINUOUS
 10
67.470086
 20
15.399772
 11
67.641943
 21
14.513758
  0
LINE
  8
4
  6
CONTINUOUS
 10
67.604167
 20
15.415495
 11
67.641943
 21
14.513758
  0
LINE
  8
4
  6
CONTINUOUS
 10
67.380335
 20
15.585585
 11
67.648497
 21
15.617030
  0
LINE
  8
4
  6
CONTINUOUS
 10
67.362865
 20
15.734564
 11
67.631028
 21
15.766009
  0
POLYLINE
  8
4
  6
CONTINUOUS
 66
     1
  0
VERTEX
  8
4
  6
CONTINUOUS
 10
62.274628
 20
60.286261
  0
VERTEX
  8
4
  6
CONTINUOUS
 10
67.432310
 20
16.301509
  0
SEQEND
  8
4
  6
CONTINUOUS
  0
LINE
  8
4
  6
CONTINUOUS
 10
90.074122
 20
63.546150
 11
89.934367
 21
64.737984
  0
LINE
  8
4
  6
CONTINUOUS
 10
90.053550
 20
64.751960
 11
89.815184
 21
64.724008
  0
LINE
  8
4
  6
CONTINUOUS
 10
90.056345
 20
64.728123
 11
89.817979
 21
64.700172
  0
LINE
  8
4
  6
CONTINUOUS
 10
90.059141
 20
64.704286
 11
89.820774
 21
64.676335
  0
LINE
  8
4
  6
CONTINUOUS
 10
95.218488
 20
19.674960
 11
95.323304
 21
18.781084
  0
LINE
  8
4
  6
CONTINUOUS
 10
95.256263
 20
18.773223
 11
95.390345
 21
18.788946
  0
LINE
  8
4
  6
CONTINUOUS
 10
95.256263
 20
18.773223
 11
95.428121
 21
17.887209
  0
LINE
  8
4
  6
CONTINUOUS
 10
95.390345
 20
18.788946
 11
95.428121
 21
17.887209
  0
LINE
  8
4
  6
CONTINUOUS
 10
95.166512
 20
18.959036
 11
95.434675
 21
18.990481
  0
LINE
  8
4
  6
CONTINUOUS
 10
95.149043
 20
19.108015
 11
95.417206
 21
19.139460
  0
POLYLINE
  8
4
  6
CONTINUOUS
 66
     1
  0
VERTEX
  8
4
  6
CONTINUOUS
 10
90.074122
 20
63.546150
  0
VERTEX
  8
4
  6
CONTINUOUS
 10
95.218488
 20
19.674960
  0
SEQEND
  8
4
  6
CONTINUOUS
  0
LINE
  8
4
  6
CONTINUOUS
 10
88.127460
 20
63.317883
 11
87.987705
 21
64.509717
  0
LINE
  8
4
  6
CONTINUOUS
 10
88.106888
 20
64.523693
 11
87.868521
 21
64.495742
  0
LINE
  8
4
  6
CONTINUOUS
 10
88.109683
 20
64.499856
 11
87.871316
 21
64.471905
  0
LINE
  8
4
  6
CONTINUOUS
 10
88.112478
 20
64.476019
 11
87.874111
 21
64.448068
  0
LINE
  8
4
  6
CONTINUOUS
 10
93.271825
 20
19.446693
 11
93.376642
 21
18.552817
  0
LINE
  8
4
  6
CONTINUOUS
 10
93.309601
 20
18.544956
 11
93.443682
 21
18.560679
  0
LINE
  8
4
  6
CONTINUOUS
 10
93.309601
 20
18.544956
 11
93.481458
 21
17.658942
  0
LINE
  8
4
  6
CONTINUOUS
 10
93.443682
 20
18.560679
 11
93.481458
 21
17.658942
  0
LINE
  8
4
  6
CONTINUOUS
 10
93.219850
 20
18.730769
 11
93.488013
 21
18.762214
  0
LINE
  8
4
  6
CONTINUOUS
 10
93.202381
 20
18.879748
 11
93.470543
 21
18.911193
  0
POLYLINE
  8
4
  6
CONTINUOUS
 66
     1
  0
VERTEX
  8
4
  6
CONTINUOUS
 10
88.127460
 20
63.317883
  0
VERTEX
  8
4
  6
CONTINUOUS
 10
93.271825
 20
19.446693
  0
SEQEND
  8
4
  6
CONTINUOUS
  0
LINE
  8
4
  6
CONTINUOUS
 10
86.180798
 20
63.089616
 11
86.041042
 21
64.281450
  0
LINE
  8
4
  6
CONTINUOUS
 10
86.160226
 20
64.295426
 11
85.921859
 21
64.267475
  0
LINE
  8
4
  6
CONTINUOUS
 10
86.163021
 20
64.271589
 11
85.924654
 21
64.243638
  0
LINE
  8
4
  6
CONTINUOUS
 10
86.165816
 20
64.247752
 11
85.927449
 21
64.219801
  0
LINE
  8
4
  6
CONTINUOUS
 10
91.325163
 20
19.218426
 11
91.429979
 21
18.324550
  0
LINE
  8
4
  6
CONTINUOUS
 10
91.362939
 20
18.316689
 11
91.497020
 21
18.332412
  0
LINE
  8
4
  6
CONTINUOUS
 10
91.362939
 20
18.316689
 11
91.534796
 21
17.430675
  0
LINE
  8
4
  6
CONTINUOUS
 10
91.497020
 20
18.332412
 11
91.534796
 21
17.430675
  0
LINE
  8
4
  6
CONTINUOUS
 10
91.273188
 20
18.502502
 11
91.541350
 21
18.533947
  0
LINE
  8
4
  6
CONTINUOUS
 10
91.255718
 20
18.651481
 11
91.523881
 21
18.682926
  0
POLYLINE
  8
4
  6
CONTINUOUS
 66
     1
  0
VERTEX
  8
4
  6
CONTINUOUS
 10
86.180798
 20
63.089616
  0
VERTEX
  8
4
  6
CONTINUOUS
 10
91.325163
 20
19.218426
  0
SEQEND
  8
4
  6
CONTINUOUS
  0
LINE
  8
4
  6
CONTINUOUS
 10
84.234135
 20
62.861349
 11
84.094380
 21
64.053183
  0
LINE
  8
4
  6
CONTINUOUS
 10
84.213563
 20
64.067159
 11
83.975197
 21
64.039208
  0
LINE
  8
4
  6
CONTINUOUS
 10
84.216358
 20
64.043322
 11
83.977992
 21
64.015371
  0
LINE
  8
4
  6
CONTINUOUS
 10
84.219154
 20
64.019485
 11
83.980787
 21
63.991534
  0
LINE
  8
4
  6
CONTINUOUS
 10
89.378501
 20
18.990159
 11
89.483317
 21
18.096283
  0
LINE
  8
4
  6
CONTINUOUS
 10
89.416276
 20
18.088422
 11
89.550358
 21
18.104145
  0
LINE
  8
4
  6
CONTINUOUS
 10
89.416276
 20
18.088422
 11
89.588134
 21
17.202408
  0
LINE
  8
4
  6
CONTINUOUS
 10
89.550358
 20
18.104145
 11
89.588134
 21
17.202408
  0
LINE
  8
4
  6
CONTINUOUS
 10
89.326525
 20
18.274235
 11
89.594688
 21
18.305680
  0
LINE
  8
4
  6
CONTINUOUS
 10
89.309056
 20
18.423214
 11
89.577219
 21
18.454659
  0
POLYLINE
  8
4
  6
CONTINUOUS
 66
     1
  0
VERTEX
  8
4
  6
CONTINUOUS
 10
84.234135
 20
62.861349
  0
VERTEX
  8
4
  6
CONTINUOUS
 10
89.378501
 20
18.990159
  0
SEQEND
  8
4
  6
CONTINUOUS
  0
LINE
  8
1
  6
CONTINUOUS
 10
6.771110
 20
73.387760
 11
26.194838
 21
73.387760
  0
LINE
  8
1
  6
CONTINUOUS
 10
6.771110
 20
73.387760
 11
6.771110
 21
72.387760
  0
LINE
  8
1
  6
CONTINUOUS
 10
6.771110
 20
72.387760
 11
23.060390
 21
72.387760
  0
LINE
  8
1
  6
CONTINUOUS
 10
6.771110
 20
72.387760
 11
6.771110
 21
71.387760
  0
LINE
  8
1
  6
CONTINUOUS
 10
9.260226
 20
72.387760
 11
9.260226
 21
71.387760
  0
LINE
  8
1
  6
CONTINUOUS
 10
11.397939
 20
72.387760
 11
11.397939
 21
71.387760
  0
LINE
  8
1
  6
CONTINUOUS
 10
12.773306
 20
72.387760
 11
12.773306
 21
71.387760
  0
LINE
  8
1
  6
CONTINUOUS
 10
16.937819
 20
71.887760
 11
16.937819
 21
71.387760
  0
LINE
  8
1
  6
CONTINUOUS
 10
19.925942
 20
72.387760
 11
19.925942
 21
71.387760
  0
LINE
  8
1
  6
CONTINUOUS
 10
20.970757
 20
71.887760
 11
20.970758
 21
71.387760
  0
LINE
  8
1
  6
CONTINUOUS
 10
22.015574
 20
71.887760
 11
22.015574
 21
71.387760
  0
LINE
  8
1
  6
CONTINUOUS
 10
23.060390
 20
72.387760
 11
23.060390
 21
71.387760
  0
LINE
  8
1
  6
CONTINUOUS
 10
6.771110
 20
71.387760
 11
26.194838
 21
71.387760
  0
LINE
  8
1
  6
CONTINUOUS
 10
12.773306
 20
71.887760
 11
16.937819
 21
71.887760
  0
LINE
  8
1
  6
CONTINUOUS
 10
16.937819
 20
71.887760
 11
19.925942
 21
71.887760
  0
LINE
  8
1
  6
CONTINUOUS
 10
19.925942
 20
71.887760
 11
20.970758
 21
71.887760
  0
LINE
  8
1
  6
CONTINUOUS
 10
20.970758
 20
71.887760
 11
22.015574
 21
71.887760
  0
LINE
  8
1
  6
CONTINUOUS
 10
22.015574
 20
71.887760
 11
26.194838
 21
71.887760
  0
LINE
  8
1
  6
CONTINUOUS
 10
26.194838
 20
71.387760
 11
26.194838
 21
73.387760
  0
LINE
  8
1
  6
CONTINUOUS
 10
24.627614
 20
71.887760
 11
24.627614
 21
71.387760
  0
LINE
  8
1
  6
CONTINUOUS
 10
23.060390
 20
72.387760
 11
26.194838
 21
72.387760
  0
LINE
  8
1
  6
CONTINUOUS
 10
6.771110
 20
71.387760
 11
6.771110
 21
70.887759
  0
LINE
  8
1
  6
CONTINUOUS
 10
6.771110
 20
70.887759
 11
26.194838
 21
70.887759
  0
LINE
  8
1
  6
CONTINUOUS
 10
9.260226
 20
71.387760
 11
9.260226
 21
70.887759
  0
LINE
  8
1
  6
CONTINUOUS
 10
11.397939
 20
71.387760
 11
11.397939
 21
70.887759
  0
LINE
  8
1
  6
CONTINUOUS
 10
12.773306
 20
71.387760
 11
12.773306
 21
70.887759
  0
LINE
  8
1
  6
CONTINUOUS
 10
16.937819
 20
71.387760
 11
16.937819
 21
70.887759
  0
LINE
  8
1
  6
CONTINUOUS
 10
19.925942
 20
71.387760
 11
19.925942
 21
70.887759
  0
LINE
  8
1
  6
CONTINUOUS
 10
20.970758
 20
71.387760
 11
20.970758
 21
70.887759
  0
LINE
  8
1
  6
CONTINUOUS
 10
22.015574
 20
71.387760
 11
22.015574
 21
70.887759
  0
LINE
  8
1
  6
CONTINUOUS
 10
23.060390
 20
71.387760
 11
23.060390
 21
70.887759
  0
LINE
  8
1
  6
CONTINUOUS
 10
23.060390
 20
70.887759
 11
23.060390
 21
71.387760
  0
LINE
  8
1
  6
CONTINUOUS
 10
23.060390
 20
71.387760
 11
23.060390
 21
70.887759
  0
LINE
  8
1
  6
CONTINUOUS
 10
24.627614
 20
71.387760
 11
24.627614
 21
70.887759
  0
LINE
  8
1
  6
CONTINUOUS
 10
26.194838
 20
71.387760
 11
26.194838
 21
70.887759
  0
LINE
  8
1
  6
CONTINUOUS
 10
6.771110
 20
70.887759
 11
6.771110
 21
70.387759
  0
LINE
  8
1
  6
CONTINUOUS
 10
6.771110
 20
70.387759
 11
26.194838
 21
70.387759
  0
LINE
  8
1
  6
CONTINUOUS
 10
9.260226
 20
70.887759
 11
9.260226
 21
70.387759
  0
LINE
  8
1
  6
CONTINUOUS
 10
11.397939
 20
70.887759
 11
11.397939
 21
70.387759
  0
LINE
  8
1
  6
CONTINUOUS
 10
12.773306
 20
70.887759
 11
12.773306
 21
70.387759
  0
LINE
  8
1
  6
CONTINUOUS
 10
16.937819
 20
70.887759
 11
16.937819
 21
70.387759
  0
LINE
  8
1
  6
CONTINUOUS
 10
19.925942
 20
70.887759
 11
19.925942
 21
70.387759
  0
LINE
  8
1
  6
CONTINUOUS
 10
20.970758
 20
70.887759
 11
20.970758
 21
70.387759
  0
LINE
  8
1
  6
CONTINUOUS
 10
22.015574
 20
70.887759
 11
22.015574
 21
70.387759
  0
LINE
  8
1
  6
CONTINUOUS
 10
23.060390
 20
70.887759
 11
23.060390
 21
70.387759
  0
LINE
  8
1
  6
CONTINUOUS
 10
23.060390
 20
70.387759
 11
23.060390
 21
70.887759
  0
LINE
  8
1
  6
CONTINUOUS
 10
23.060390
 20
70.887759
 11
23.060390
 21
70.387759
  0
LINE
  8
1
  6
CONTINUOUS
 10
24.627614
 20
70.887759
 11
24.627614
 21
70.387759
  0
LINE
  8
1
  6
CONTINUOUS
 10
26.194838
 20
70.887759
 11
26.194838
 21
70.387759
  0
LINE
  8
1
  6
CONTINUOUS
 10
6.771110
 20
70.387758
 11
6.771110
 21
69.887758
  0
LINE
  8
1
  6
CONTINUOUS
 10
6.771110
 20
69.887758
 11
26.194838
 21
69.887758
  0
LINE
  8
1
  6
CONTINUOUS
 10
9.260226
 20
70.387758
 11
9.260226
 21
69.887758
  0
LINE
  8
1
  6
CONTINUOUS
 10
11.397939
 20
70.387758
 11
11.397939
 21
69.887758
  0
LINE
  8
1
  6
CONTINUOUS
 10
12.773306
 20
70.387758
 11
12.773306
 21
69.887758
  0
LINE
  8
1
  6
CONTINUOUS
 10
16.937819
 20
70.387758
 11
16.937819
 21
69.887758
  0
LINE
  8
1
  6
CONTINUOUS
 10
19.925942
 20
70.387758
 11
19.925942
 21
69.887758
  0
LINE
  8
1
  6
CONTINUOUS
 10
20.970758
 20
70.387758
 11
20.970758
 21
69.887758
  0
LINE
  8
1
  6
CONTINUOUS
 10
22.015574
 20
70.387758
 11
22.015574
 21
69.887758
  0
LINE
  8
1
  6
CONTINUOUS
 10
23.060390
 20
70.387758
 11
23.060390
 21
69.887758
  0
LINE
  8
1
  6
CONTINUOUS
 10
23.060390
 20
69.887758
 11
23.060390
 21
70.387758
  0
LINE
  8
1
  6
CONTINUOUS
 10
23.060390
 20
70.387759
 11
23.060390
 21
69.887758
  0
LINE
  8
1
  6
CONTINUOUS
 10
24.627614
 20
70.387758
 11
24.627614
 21
69.887758
  0
LINE
  8
1
  6
CONTINUOUS
 10
26.194838
 20
70.387758
 11
26.194838
 21
69.887758
  0
LINE
  8
1
  6
CONTINUOUS
 10
6.771110
 20
69.887757
 11
6.771110
 21
69.387757
  0
LINE
  8
1
  6
CONTINUOUS
 10
6.771110
 20
69.387757
 11
26.194838
 21
69.387757
  0
LINE
  8
1
  6
CONTINUOUS
 10
9.260226
 20
69.887757
 11
9.260226
 21
69.387757
  0
LINE
  8
1
  6
CONTINUOUS
 10
11.397939
 20
69.887757
 11
11.397939
 21
69.387757
  0
LINE
  8
1
  6
CONTINUOUS
 10
12.773306
 20
69.887757
 11
12.773306
 21
69.387757
  0
LINE
  8
1
  6
CONTINUOUS
 10
16.937819
 20
69.887757
 11
16.937819
 21
69.387757
  0
LINE
  8
1
  6
CONTINUOUS
 10
19.925942
 20
69.887757
 11
19.925942
 21
69.387757
  0
LINE
  8
1
  6
CONTINUOUS
 10
20.970758
 20
69.887757
 11
20.970758
 21
69.387757
  0
LINE
  8
1
  6
CONTINUOUS
 10
22.015574
 20
69.887757
 11
22.015574
 21
69.387757
  0
LINE
  8
1
  6
CONTINUOUS
 10
23.060390
 20
69.887757
 11
23.060390
 21
69.387757
  0
LINE
  8
1
  6
CONTINUOUS
 10
23.060390
 20
69.387757
 11
23.060390
 21
69.887757
  0
LINE
  8
1
  6
CONTINUOUS
 10
23.060390
 20
69.887758
 11
23.060390
 21
69.387757
  0
LINE
  8
1
  6
CONTINUOUS
 10
24.627614
 20
69.887757
 11
24.627614
 21
69.387757
  0
LINE
  8
1
  6
CONTINUOUS
 10
26.194838
 20
69.887757
 11
26.194838
 21
69.387757
  0
LINE
  8
1
  6
CONTINUOUS
 10
6.771110
 20
69.387757
 11
6.771110
 21
68.887757
  0
LINE
  8
1
  6
CONTINUOUS
 10
6.771110
 20
68.887757
 11
26.194838
 21
68.887757
  0
LINE
  8
1
  6
CONTINUOUS
 10
9.260226
 20
69.387757
 11
9.260226
 21
68.887757
  0
LINE
  8
1
  6
CONTINUOUS
 10
11.397939
 20
69.387757
 11
11.397939
 21
68.887757
  0
LINE
  8
1
  6
CONTINUOUS
 10
12.773306
 20
69.387757
 11
12.773306
 21
68.887757
  0
LINE
  8
1
  6
CONTINUOUS
 10
16.937819
 20
69.387757
 11
16.937819
 21
68.887757
  0
LINE
  8
1
  6
CONTINUOUS
 10
19.925942
 20
69.387757
 11
19.925942
 21
68.887757
  0
LINE
  8
1
  6
CONTINUOUS
 10
20.970758
 20
69.387757
 11
20.970758
 21
68.887757
  0
LINE
  8
1
  6
CONTINUOUS
 10
22.015574
 20
69.387757
 11
22.015574
 21
68.887757
  0
LINE
  8
1
  6
CONTINUOUS
 10
23.060390
 20
69.387757
 11
23.060390
 21
68.887757
  0
LINE
  8
1
  6
CONTINUOUS
 10
23.060390
 20
68.887757
 11
23.060390
 21
69.387757
  0
LINE
  8
1
  6
CONTINUOUS
 10
23.060390
 20
69.387757
 11
23.060390
 21
68.887756
  0
LINE
  8
1
  6
CONTINUOUS
 10
24.627614
 20
69.387757
 11
24.627614
 21
68.887757
  0
LINE
  8
1
  6
CONTINUOUS
 10
26.194838
 20
69.387757
 11
26.194838
 21
68.887757
  0
LINE
  8
1
  6
CONTINUOUS
 10
6.771110
 20
68.887756
 11
6.771110
 21
68.387756
  0
LINE
  8
1
  6
CONTINUOUS
 10
6.771110
 20
68.387756
 11
26.194838
 21
68.387756
  0
LINE
  8
1
  6
CONTINUOUS
 10
9.260226
 20
68.887756
 11
9.260226
 21
68.387756
  0
LINE
  8
1
  6
CONTINUOUS
 10
11.397939
 20
68.887756
 11
11.397939
 21
68.387756
  0
LINE
  8
1
  6
CONTINUOUS
 10
12.773306
 20
68.887756
 11
12.773306
 21
68.387756
  0
LINE
  8
1
  6
CONTINUOUS
 10
16.937819
 20
68.887756
 11
16.937819
 21
68.387756
  0
LINE
  8
1
  6
CONTINUOUS
 10
19.925942
 20
68.887756
 11
19.925942
 21
68.387756
  0
LINE
  8
1
  6
CONTINUOUS
 10
20.970758
 20
68.887756
 11
20.970758
 21
68.387756
  0
LINE
  8
1
  6
CONTINUOUS
 10
22.015574
 20
68.887756
 11
22.015574
 21
68.387756
  0
LINE
  8
1
  6
CONTINUOUS
 10
23.060390
 20
68.887756
 11
23.060390
 21
68.387756
  0
LINE
  8
1
  6
CONTINUOUS
 10
23.060390
 20
68.387756
 11
23.060390
 21
68.887756
  0
LINE
  8
1
  6
CONTINUOUS
 10
23.060390
 20
68.887756
 11
23.060390
 21
68.387756
  0
LINE
  8
1
  6
CONTINUOUS
 10
24.627614
 20
68.887756
 11
24.627614
 21
68.387756
  0
LINE
  8
1
  6
CONTINUOUS
 10
26.194838
 20
68.887756
 11
26.194838
 21
68.387756
  0
LINE
  8
1
  6
CONTINUOUS
 10
6.771110
 20
67.750404
 11
20.054202
 21
67.750404
  0
LINE
  8
1
  6
CONTINUOUS
 10
6.771110
 20
66.387756
 11
20.054202
 21
66.387756
  0
LINE
  8
1
  6
CONTINUOUS
 10
6.771110
 20
65.887756
 11
15.692819
 21
65.887756
  0
LINE
  8
1
  6
CONTINUOUS
 10
15.692819
 20
65.887756
 11
17.880942
 21
65.887756
  0
LINE
  8
1
  6
CONTINUOUS
 10
17.260922
 20
65.887756
 11
18.305738
 21
65.887756
  0
LINE
  8
1
  6
CONTINUOUS
 10
18.305738
 20
65.887756
 11
19.970574
 21
65.887756
  0
LINE
  8
1
  6
CONTINUOUS
 10
19.970574
 20
65.887756
 11
20.054202
 21
65.887756
  0
LINE
  8
1
  6
CONTINUOUS
 10
6.771110
 20
67.750404
 11
6.771110
 21
64.887755
  0
LINE
  8
1
  6
CONTINUOUS
 10
6.771110
 20
64.887756
 11
20.054202
 21
64.887756
  0
LINE
  8
1
  6
CONTINUOUS
 10
8.908822
 20
65.887756
 11
8.908822
 21
64.887755
  0
LINE
  8
1
  6
CONTINUOUS
 10
11.096946
 20
64.887755
 11
11.096946
 21
65.887756
  0
LINE
  8
1
  6
CONTINUOUS
 10
17.964570
 20
65.887756
 11
17.964570
 21
64.887756
  0
LINE
  8
1
  6
CONTINUOUS
 10
19.009387
 20
65.887756
 11
19.009387
 21
64.887756
  0
LINE
  8
1
  6
CONTINUOUS
 10
12.799758
 20
64.887756
 11
12.799758
 21
65.387756
  0
LINE
  8
1
  6
CONTINUOUS
 10
20.054202
 20
64.887756
 11
20.054202
 21
67.750404
  0
LINE
  8
1
  6
CONTINUOUS
 10
11.096946
 20
65.387756
 11
16.919755
 21
65.387756
  0
LINE
  8
1
  6
CONTINUOUS
 10
16.919755
 20
64.887756
 11
16.919755
 21
66.387756
  0
LINE
  8
1
  6
CONTINUOUS
 10
14.859757
 20
64.887756
 11
14.859757
 21
65.387756
  0
LINE
  8
1
  6
CONTINUOUS
 10
6.771110
 20
64.887755
 11
6.771110
 21
64.387755
  0
LINE
  8
1
  6
CONTINUOUS
 10
8.908822
 20
64.887755
 11
8.908822
 21
64.387755
  0
LINE
  8
1
  6
CONTINUOUS
 10
11.096946
 20
64.887755
 11
11.096946
 21
64.387755
  0
LINE
  8
1
  6
CONTINUOUS
 10
6.771110
 20
64.387755
 11
20.054202
 21
64.387755
  0
LINE
  8
1
  6
CONTINUOUS
 10
16.919755
 20
64.887755
 11
16.919755
 21
64.387755
  0
LINE
  8
1
  6
CONTINUOUS
 10
17.964570
 20
64.887755
 11
17.964570
 21
64.387755
  0
LINE
  8
1
  6
CONTINUOUS
 10
19.009387
 20
64.887755
 11
19.009387
 21
64.387755
  0
LINE
  8
1
  6
CONTINUOUS
 10
12.799758
 20
64.887755
 11
12.799758
 21
64.387755
  0
LINE
  8
1
  6
CONTINUOUS
 10
14.859757
 20
64.387755
 11
14.859757
 21
64.887755
  0
LINE
  8
1
  6
CONTINUOUS
 10
16.919755
 20
64.387755
 11
16.919755
 21
64.887755
  0
LINE
  8
1
  6
CONTINUOUS
 10
20.054202
 20
64.887755
 11
20.054202
 21
64.387755
  0
LINE
  8
2
  6
CONTINUOUS
 10
101.700000
 20
23.900000
 11
101.700000
 21
23.900000
  0
LINE
  8
2
  6
CONTINUOUS
 10
118.000000
 20
23.900000
 11
118.000000
 21
23.900000
  0
LINE
  8
2
  6
CONTINUOUS
 10
118.000000
 20
23.900000
 11
101.700000
 21
23.900000
  0
LINE
  8
2
  6
CONTINUOUS
 10
118.000000
 20
22.200000
 11
101.700000
 21
22.200000
  0
LINE
  8
2
  6
CONTINUOUS
 10
101.700000
 20
23.900000
 11
101.700000
 21
22.200000
  0
LINE
  8
2
  6
CONTINUOUS
 10
118.000000
 20
22.200000
 11
118.000000
 21
23.900000
  0
LINE
  8
1
  6
CONTINUOUS
 10
118.000002
 20
29.700001
 11
119.000002
 21
29.700001
  0
LINE
  8
1
  6
CONTINUOUS
 10
118.000002
 20
59.400002
 11
119.000002
 21
59.400002
  0
LINE
  8
1
  6
CONTINUOUS
 10
0.000000
 20
29.700001
 11
2.500000
 21
29.700001
  0
LINE
  8
1
  6
CONTINUOUS
 10
0.000000
 20
59.400002
 11
2.500000
 21
59.400002
  0
LINE
  8
1
  6
CONTINUOUS
 10
100.500002
 20
82.999998
 11
100.500002
 21
83.999998
  0
LINE
  8
1
  6
CONTINUOUS
 10
82.000002
 20
82.999998
 11
82.000002
 21
83.999998
  0
LINE
  8
1
  6
CONTINUOUS
 10
63.500002
 20
82.999998
 11
63.500002
 21
83.999998
  0
LINE
  8
1
  6
CONTINUOUS
 10
45.000002
 20
82.999998
 11
45.000002
 21
83.999998
  0
LINE
  8
1
  6
CONTINUOUS
 10
33.050001
 20
82.999998
 11
33.050001
 21
83.999998
  0
LINE
  8
1
  6
CONTINUOUS
 10
21.100000
 20
82.999998
 11
21.100000
 21
83.999998
  0
LINE
  8
1
  6
CONTINUOUS
 10
100.500002
 20
0.000000
 11
100.500002
 21
1.000000
  0
LINE
  8
1
  6
CONTINUOUS
 10
82.000002
 20
0.000000
 11
82.000002
 21
1.000000
  0
LINE
  8
1
  6
CONTINUOUS
 10
63.500002
 20
0.000000
 11
63.500002
 21
1.000000
  0
LINE
  8
1
  6
CONTINUOUS
 10
45.000002
 20
0.000000
 11
45.000002
 21
1.000000
  0
LINE
  8
1
  6
CONTINUOUS
 10
33.050001
 20
0.000000
 11
33.050001
 21
1.000000
  0
LINE
  8
1
  6
CONTINUOUS
 10
21.100000
 20
0.000000
 11
21.100000
 21
1.000000
  0
LINE
  8
1
  6
CONTINUOUS
 10
0.000000
 20
0.000000
 11
119.000002
 21
0.000000
  0
LINE
  8
1
  6
CONTINUOUS
 10
119.000002
 20
0.000000
 11
119.000002
 21
83.999998
  0
LINE
  8
1
  6
CONTINUOUS
 10
0.000000
 20
0.000000
 11
0.000000
 21
83.999998
  0
LINE
  8
8
  6
CONTINUOUS
 10
2.500000
 20
1.000000
 11
118.000002
 21
1.000000
  0
LINE
  8
8
  6
CONTINUOUS
 10
118.000002
 20
1.000000
 11
118.000002
 21
82.999998
  0
LINE
  8
1
  6
CONTINUOUS
 10
0.000000
 20
83.999998
 11
119.000002
 21
83.999998
  0
LINE
  8
8
  6
CONTINUOUS
 10
2.500000
 20
82.999998
 11
118.000002
 21
82.999998
  0
LINE
  8
8
  6
CONTINUOUS
 10
2.500000
 20
82.999998
 11
2.500000
 21
1.000000
  0
LINE
  8
2
  6
CONTINUOUS
 10
102.650002
 20
17.625000
 11
102.650002
 21
18.125000
  0
LINE
  8
1
  6
CONTINUOUS
 10
101.700002
 20
18.200000
 11
118.000002
 21
18.200000
  0
LINE
  8
1
  6
CONTINUOUS
 10
101.700002
 20
17.700000
 11
118.000002
 21
17.700000
  0
LINE
  8
1
  6
CONTINUOUS
 10
102.200002
 20
17.700000
 11
118.000002
 21
17.700000
  0
LINE
  8
2
  6
CONTINUOUS
 10
102.650002
 20
17.125000
 11
102.650002
 21
17.625000
  0
LINE
  8
1
  6
CONTINUOUS
 10
102.200002
 20
17.700000
 11
118.000002
 21
17.700000
  0
LINE
  8
1
  6
CONTINUOUS
 10
101.700002
 20
17.200000
 11
118.000002
 21
17.200000
  0
LINE
  8
2
  6
CONTINUOUS
 10
102.650002
 20
16.700000
 11
102.650002
 21
17.200000
  0
LINE
  8
1
  6
CONTINUOUS
 10
116.008223
 20
16.000000
 11
116.008223
 21
22.200000
  0
LINE
  8
1
  6
CONTINUOUS
 10
104.850002
 20
16.000000
 11
104.850002
 21
22.200000
  0
LINE
  8
6
  6
CONTINUOUS
 10
101.700002
 20
16.000000
 11
118.000002
 21
16.000000
  0
LINE
  8
1
  6
CONTINUOUS
 10
102.650002
 20
16.000000
 11
102.650002
 21
16.700000
  0
LINE
  8
1
  6
CONTINUOUS
 10
102.200002
 20
17.200000
 11
118.000002
 21
17.200000
  0
LINE
  8
1
  6
CONTINUOUS
 10
101.700002
 20
16.700000
 11
118.000002
 21
16.700000
  0
LINE
  8
2
  6
CONTINUOUS
 10
102.650002
 20
18.625000
 11
102.650002
 21
22.200000
  0
LINE
  8
6
  6
CONTINUOUS
 10
101.700002
 20
22.200000
 11
118.000002
 21
22.200000
  0
LINE
  8
1
  6
CONTINUOUS
 10
101.700002
 20
18.700000
 11
118.000002
 21
18.700000
  0
LINE
  8
1
  6
CONTINUOUS
 10
102.200002
 20
18.700000
 11
118.000002
 21
18.700000
  0
LINE
  8
2
  6
CONTINUOUS
 10
102.650002
 20
18.125000
 11
102.650002
 21
18.625000
  0
LINE
  8
1
  6
CONTINUOUS
 10
102.200002
 20
18.700000
 11
118.000002
 21
18.700000
  0
LINE
  8
1
  6
CONTINUOUS
 10
102.200002
 20
18.200000
 11
118.000002
 21
18.200000
  0
LINE
  8
1
  6
CONTINUOUS
 10
102.200002
 20
18.200000
 11
118.000002
 21
18.200000
  0
LINE
  8
6
  6
CONTINUOUS
 10
101.700002
 20
6.600000
 11
118.000002
 21
6.600000
  0
LINE
  8
6
  6
CONTINUOUS
 10
101.700002
 20
8.500000
 11
118.000002
 21
8.500000
  0
LINE
  8
6
  6
CONTINUOUS
 10
101.700002
 20
1.000000
 11
101.700002
 21
8.500000
  0
LINE
  8
6
  6
CONTINUOUS
 10
101.700002
 20
16.000000
 11
101.700002
 21
22.200000
  0
LINE
  8
6
  6
CONTINUOUS
 10
101.700002
 20
15.900000
 11
118.000002
 21
15.900000
  0
LINE
  8
6
  6
CONTINUOUS
 10
101.700002
 20
11.400000
 11
101.700002
 21
15.900000
  0
LINE
  8
1
  6
CONTINUOUS
 10
101.700002
 20
14.400000
 11
118.000002
 21
14.400000
  0
LINE
  8
6
  6
CONTINUOUS
 10
101.700002
 20
3.000000
 11
118.000002
 21
3.000000
  0
LINE
  8
6
  6
CONTINUOUS
 10
105.024321
 20
3.000000
 11
105.024321
 21
1.000000
  0
LINE
  8
1
  6
CONTINUOUS
 10
101.700002
 20
12.900000
 11
118.000002
 21
12.900000
  0
POLYLINE
  8
1
  6
CONTINUOUS
 66
     1
  0
VERTEX
  8
1
  6
CONTINUOUS
 10
103.635546
 20
9.498246
  0
VERTEX
  8
1
  6
CONTINUOUS
 10
101.971546
 20
9.498246
  0
VERTEX
  8
1
  6
CONTINUOUS
 10
101.971546
 20
11.162246
  0
VERTEX
  8
1
  6
CONTINUOUS
 10
103.635546
 20
11.162246
  0
VERTEX
  8
1
  6
CONTINUOUS
 10
103.635546
 20
9.498246
  0
SEQEND
  8
1
  6
CONTINUOUS
  0
POLYLINE
  8
13
  6
CONTINUOUS
 66
     1
  0
VERTEX
  8
13
  6
CONTINUOUS
 10
102.095046
 20
10.244446
  0
VERTEX
  8
13
  6
CONTINUOUS
 10
102.095046
 20
9.498246
  0
VERTEX
  8
13
  6
CONTINUOUS
 10
101.971546
 20
9.498246
  0
VERTEX
  8
13
  6
CONTINUOUS
 10
101.971546
 20
11.162246
  0
VERTEX
  8
13
  6
CONTINUOUS
 10
102.095046
 20
11.162246
  0
VERTEX
  8
13
  6
CONTINUOUS
 10
102.095046
 20
10.244446
  0
SEQEND
  8
13
  6
CONTINUOUS
  0
POLYLINE
  8
13
  6
CONTINUOUS
 66
     1
  0
VERTEX
  8
13
  6
CONTINUOUS
 10
102.522746
 20
10.230979
  0
VERTEX
  8
13
  6
CONTINUOUS
 10
102.522746
 20
9.498246
  0
VERTEX
  8
13
  6
CONTINUOUS
 10
102.095046
 20
9.498246
  0
VERTEX
  8
13
  6
CONTINUOUS
 10
102.095046
 20
10.244446
  0
VERTEX
  8
13
  6
CONTINUOUS
 10
102.143544
 20
10.248642
  0
VERTEX
  8
13
  6
CONTINUOUS
 10
102.211078
 20
10.252071
  0
VERTEX
  8
13
  6
CONTINUOUS
 10
102.259959
 20
10.252484
  0
VERTEX
  8
13
  6
CONTINUOUS
 10
102.290321
 20
10.252141
  0
VERTEX
  8
13
  6
CONTINUOUS
 10
102.334203
 20
10.250668
  0
VERTEX
  8
13
  6
CONTINUOUS
 10
102.394518
 20
10.246747
  0
VERTEX
  8
13
  6
CONTINUOUS
 10
102.446340
 20
10.241621
  0
VERTEX
  8
13
  6
CONTINUOUS
 10
102.490083
 20
10.235974
  0
VERTEX
  8
13
  6
CONTINUOUS
 10
102.522746
 20
10.230979
  0
SEQEND
  8
13
  6
CONTINUOUS
  0
POLYLINE
  8
13
  6
CONTINUOUS
 66
     1
  0
VERTEX
  8
13
  6
CONTINUOUS
 10
102.594246
 20
10.217654
  0
VERTEX
  8
13
  6
CONTINUOUS
 10
102.594246
 20
9.498246
  0
VERTEX
  8
13
  6
CONTINUOUS
 10
103.021946
 20
9.498246
  0
VERTEX
  8
13
  6
CONTINUOUS
 10
103.021946
 20
10.064184
  0
VERTEX
  8
13
  6
CONTINUOUS
 10
103.003898
 20
10.073542
  0
VERTEX
  8
13
  6
CONTINUOUS
 10
102.981716
 20
10.084501
  0
VERTEX
  8
13
  6
CONTINUOUS
 10
102.953307
 20
10.098271
  0
VERTEX
  8
13
  6
CONTINUOUS
 10
102.912865
 20
10.116383
  0
VERTEX
  8
13
  6
CONTINUOUS
 10
102.885024
 20
10.128001
  0
VERTEX
  8
13
  6
CONTINUOUS
 10
102.844071
 20
10.144755
  0
VERTEX
  8
13
  6
CONTINUOUS
 10
102.813490
 20
10.155923
  0
VERTEX
  8
13
  6
CONTINUOUS
 10
102.778388
 20
10.168156
  0
VERTEX
  8
13
  6
CONTINUOUS
 10
102.744083
 20
10.178793
  0
VERTEX
  8
13
  6
CONTINUOUS
 10
102.703465
 20
10.191172
  0
VERTEX
  8
13
  6
CONTINUOUS
 10
102.665141
 20
10.201162
  0
VERTEX
  8
13
  6
CONTINUOUS
 10
102.624819
 20
10.210970
  0
VERTEX
  8
13
  6
CONTINUOUS
 10
102.594246
 20
10.217654
  0
SEQEND
  8
13
  6
CONTINUOUS
  0
POLYLINE
  8
13
  6
CONTINUOUS
 66
     1
  0
VERTEX
  8
13
  6
CONTINUOUS
 10
103.093446
 20
10.024343
  0
VERTEX
  8
13
  6
CONTINUOUS
 10
103.093446
 20
9.498246
  0
VERTEX
  8
13
  6
CONTINUOUS
 10
103.521146
 20
9.498246
  0
VERTEX
  8
13
  6
CONTINUOUS
 10
103.521146
 20
9.661030
  0
VERTEX
  8
13
  6
CONTINUOUS
 10
103.507797
 20
9.676793
  0
VERTEX
  8
13
  6
CONTINUOUS
 10
103.495964
 20
9.690528
  0
VERTEX
  8
13
  6
CONTINUOUS
 10
103.473877
 20
9.715277
  0
VERTEX
  8
13
  6
CONTINUOUS
 10
103.454164
 20
9.736530
  0
VERTEX
  8
13
  6
CONTINUOUS
 10
103.434048
 20
9.757502
  0
VERTEX
  8
13
  6
CONTINUOUS
 10
103.410015
 20
9.781535
  0
VERTEX
  8
13
  6
CONTINUOUS
 10
103.399294
 20
9.791943
  0
VERTEX
  8
13
  6
CONTINUOUS
 10
103.388429
 20
9.802406
  0
VERTEX
  8
13
  6
CONTINUOUS
 10
103.359952
 20
9.828752
  0
VERTEX
  8
13
  6
CONTINUOUS
 10
103.325139
 20
9.859181
  0
VERTEX
  8
13
  6
CONTINUOUS
 10
103.286846
 20
9.890826
  0
VERTEX
  8
13
  6
CONTINUOUS
 10
103.251036
 20
9.918745
  0
VERTEX
  8
13
  6
CONTINUOUS
 10
103.200839
 20
9.955427
  0
VERTEX
  8
13
  6
CONTINUOUS
 10
103.134352
 20
9.999676
  0
VERTEX
  8
13
  6
CONTINUOUS
 10
103.093446
 20
10.024343
  0
SEQEND
  8
13
  6
CONTINUOUS
  0
POLYLINE
  8
13
  6
CONTINUOUS
 66
     1
  0
VERTEX
  8
13
  6
CONTINUOUS
 10
102.522746
 20
10.635283
  0
VERTEX
  8
13
  6
CONTINUOUS
 10
102.522746
 20
11.162246
  0
VERTEX
  8
13
  6
CONTINUOUS
 10
102.095046
 20
11.162246
  0
VERTEX
  8
13
  6
CONTINUOUS
 10
102.095046
 20
10.995122
  0
VERTEX
  8
13
  6
CONTINUOUS
 10
102.153689
 20
10.929235
  0
VERTEX
  8
13
  6
CONTINUOUS
 10
102.237359
 20
10.846559
  0
VERTEX
  8
13
  6
CONTINUOUS
 10
102.308389
 20
10.784730
  0
VERTEX
  8
13
  6
CONTINUOUS
 10
102.366624
 20
10.739274
  0
VERTEX
  8
13
  6
CONTINUOUS
 10
102.406322
 20
10.710064
  0
VERTEX
  8
13
  6
CONTINUOUS
 10
102.455827
 20
10.676682
  0
VERTEX
  8
13
  6
CONTINUOUS
 10
102.493954
 20
10.652515
  0
VERTEX
  8
13
  6
CONTINUOUS
 10
102.522746
 20
10.635283
  0
SEQEND
  8
13
  6
CONTINUOUS
  0
POLYLINE
  8
13
  6
CONTINUOUS
 66
     1
  0
VERTEX
  8
13
  6
CONTINUOUS
 10
103.021946
 20
10.443678
  0
VERTEX
  8
13
  6
CONTINUOUS
 10
103.021946
 20
11.162246
  0
VERTEX
  8
13
  6
CONTINUOUS
 10
102.594246
 20
11.162246
  0
VERTEX
  8
13
  6
CONTINUOUS
 10
102.594246
 20
10.595859
  0
VERTEX
  8
13
  6
CONTINUOUS
 10
102.663800
 20
10.561766
  0
VERTEX
  8
13
  6
CONTINUOUS
 10
102.744359
 20
10.527375
  0
VERTEX
  8
13
  6
CONTINUOUS
 10
102.812197
 20
10.501464
  0
VERTEX
  8
13
  6
CONTINUOUS
 10
102.889458
 20
10.476967
  0
VERTEX
  8
13
  6
CONTINUOUS
 10
102.950702
 20
10.460007
  0
VERTEX
  8
13
  6
CONTINUOUS
 10
103.021946
 20
10.443678
  0
SEQEND
  8
13
  6
CONTINUOUS
  0
POLYLINE
  8
13
  6
CONTINUOUS
 66
     1
  0
VERTEX
  8
13
  6
CONTINUOUS
 10
103.093446
 20
10.430307
  0
VERTEX
  8
13
  6
CONTINUOUS
 10
103.093446
 20
11.162246
  0
VERTEX
  8
13
  6
CONTINUOUS
 10
103.521146
 20
11.162246
  0
VERTEX
  8
13
  6
CONTINUOUS
 10
103.521146
 20
10.417580
  0
VERTEX
  8
13
  6
CONTINUOUS
 10
103.476372
 20
10.413637
  0
VERTEX
  8
13
  6
CONTINUOUS
 10
103.416577
 20
10.410480
  0
VERTEX
  8
13
  6
CONTINUOUS
 10
103.366788
 20
10.409453
  0
VERTEX
  8
13
  6
CONTINUOUS
 10
103.336830
 20
10.409453
  0
VERTEX
  8
13
  6
CONTINUOUS
 10
103.286182
 20
10.410821
  0
VERTEX
  8
13
  6
CONTINUOUS
 10
103.241261
 20
10.413321
  0
VERTEX
  8
13
  6
CONTINUOUS
 10
103.205545
 20
10.416539
  0
VERTEX
  8
13
  6
CONTINUOUS
 10
103.155349
 20
10.421044
  0
VERTEX
  8
13
  6
CONTINUOUS
 10
103.093446
 20
10.430307
  0
SEQEND
  8
13
  6
CONTINUOUS
  0
POLYLINE
  8
13
  6
CONTINUOUS
 66
     1
  0
VERTEX
  8
13
  6
CONTINUOUS
 10
102.522746
 20
9.498246
  0
VERTEX
  8
13
  6
CONTINUOUS
 10
102.594246
 20
9.498246
  0
VERTEX
  8
13
  6
CONTINUOUS
 10
102.594246
 20
11.162246
  0
VERTEX
  8
13
  6
CONTINUOUS
 10
102.522746
 20
11.162246
  0
VERTEX
  8
13
  6
CONTINUOUS
 10
102.522746
 20
9.498246
  0
VERTEX
  8
13
  6
CONTINUOUS
 10
102.594246
 20
9.498246
  0
SEQEND
  8
13
  6
CONTINUOUS
  0
POLYLINE
  8
13
  6
CONTINUOUS
 66
     1
  0
VERTEX
  8
13
  6
CONTINUOUS
 10
103.021946
 20
11.162246
  0
VERTEX
  8
13
  6
CONTINUOUS
 10
103.093446
 20
11.162246
  0
VERTEX
  8
13
  6
CONTINUOUS
 10
103.093446
 20
9.498246
  0
VERTEX
  8
13
  6
CONTINUOUS
 10
103.021946
 20
9.498246
  0
VERTEX
  8
13
  6
CONTINUOUS
 10
103.021946
 20
11.162246
  0
SEQEND
  8
13
  6
CONTINUOUS
  0
POLYLINE
  8
13
  6
CONTINUOUS
 66
     1
  0
VERTEX
  8
13
  6
CONTINUOUS
 10
103.521146
 20
9.498246
  0
VERTEX
  8
13
  6
CONTINUOUS
 10
103.635546
 20
9.498246
  0
VERTEX
  8
13
  6
CONTINUOUS
 10
103.635546
 20
11.162246
  0
VERTEX
  8
13
  6
CONTINUOUS
 10
103.521146
 20
11.162246
  0
VERTEX
  8
13
  6
CONTINUOUS
 10
103.521146
 20
9.498246
  0
SEQEND
  8
13
  6
CONTINUOUS
  0
LINE
  8
6
  6
CONTINUOUS
 10
107.924321
 20
3.000000
 11
107.924321
 21
2.000000
  0
LINE
  8
6
  6
CONTINUOUS
 10
101.700002
 20
2.000000
 11
114.124321
 21
2.000000
  0
LINE
  8
6
  6
CONTINUOUS
 10
114.124321
 20
3.000000
 11
114.124321
 21
1.000000
  0
LINE
  8
6
  6
CONTINUOUS
 10
101.700002
 20
8.600000
 11
118.000002
 21
8.600000
  0
LINE
  8
6
  6
CONTINUOUS
 10
101.700002
 20
8.600000
 11
101.700002
 21
11.300000
  0
LINE
  8
6
  6
CONTINUOUS
 10
101.700002
 20
11.300000
 11
118.000002
 21
11.300000
  0
LINE
  8
6
  6
CONTINUOUS
 10
101.700002
 20
11.400000
 11
118.000002
 21
11.400000
  0
LINE
  8
1
  6
CONTINUOUS
 10
101.700002
 20
19.200000
 11
118.000002
 21
19.200000
  0
LINE
  8
1
  6
CONTINUOUS
 10
102.200002
 20
19.200000
 11
118.000002
 21
19.200000
  0
LINE
  8
1
  6
CONTINUOUS
 10
102.200002
 20
19.200000
 11
118.000002
 21
19.200000
  0
LINE
  8
1
  6
CONTINUOUS
 10
101.700002
 20
19.700000
 11
118.000002
 21
19.700000
  0
LINE
  8
1
  6
CONTINUOUS
 10
102.200002
 20
19.700000
 11
118.000002
 21
19.700000
  0
LINE
  8
1
  6
CONTINUOUS
 10
102.200002
 20
19.700000
 11
118.000002
 21
19.700000
  0
LINE
  8
1
  6
CONTINUOUS
 10
101.700002
 20
20.200000
 11
118.000002
 21
20.200000
  0
LINE
  8
1
  6
CONTINUOUS
 10
102.200002
 20
20.200000
 11
118.000002
 21
20.200000
  0
LINE
  8
1
  6
CONTINUOUS
 10
102.200002
 20
20.200000
 11
118.000002
 21
20.200000
  0
LINE
  8
1
  6
CONTINUOUS
 10
101.700002
 20
20.700000
 11
118.000002
 21
20.700000
  0
LINE
  8
1
  6
CONTINUOUS
 10
102.200002
 20
20.700000
 11
118.000002
 21
20.700000
  0
LINE
  8
1
  6
CONTINUOUS
 10
102.200002
 20
20.700000
 11
118.000002
 21
20.700000
  0
LINE
  8
1
  6
CONTINUOUS
 10
101.700002
 20
21.200000
 11
118.000002
 21
21.200000
  0
LINE
  8
1
  6
CONTINUOUS
 10
102.200002
 20
21.200000
 11
118.000002
 21
21.200000
  0
LINE
  8
1
  6
CONTINUOUS
 10
102.200002
 20
21.200000
 11
118.000002
 21
21.200000
  0
LINE
  8
1
  6
CONTINUOUS
 10
101.700002
 20
21.700000
 11
118.000002
 21
21.700000
  0
LINE
  8
6
  6
CONTINUOUS
 10
110.708935
 20
11.300000
 11
110.708935
 21
8.600000
  0
TEXT
  8
1
  6
CONTINUOUS
 10
82.784426
 20
41.122049
 40
0.300000
  1
L8
  7
TQS_CALIBRI
  0
TEXT
  8
1
  6
CONTINUOUS
 10
34.314095
 20
33.563085
 40
0.300000
  1
L9
  7
TQS_CALIBRI
  0
TEXT
  8
1
  6
CONTINUOUS
 10
28.107481
 20
22.262702
 40
0.300000
  1
P76
  7
TQS_CALIBRI
  0
TEXT
  8
1
  6
CONTINUOUS
 10
25.382540
 20
45.501863
 40
0.300000
  1
P40
  7
TQS_CALIBRI
  0
TEXT
  8
1
  6
CONTINUOUS
 10
45.048029
 20
47.807757
 40
0.300000
  1
P38
  7
TQS_CALIBRI
  0
TEXT
  8
1
  6
CONTINUOUS
 10
47.772971
 20
24.568596
 40
0.300000
  1
P72
  7
TQS_CALIBRI
  0
TEXT
  8
1
  6
CONTINUOUS
 10
74.678289
 20
27.723365
 40
0.300000
  1
P66
  7
TQS_CALIBRI
  0
TEXT
  8
1
  6
CONTINUOUS
 10
76.727382
 20
51.522305
 40
0.300000
  1
P34
  7
TQS_CALIBRI
  0
TEXT
  8
1
  6
CONTINUOUS
 10
11.565135
 20
20.445069
 40
0.300000
  1
P79
  7
TQS_CALIBRI
  0
TEXT
  8
1
  6
CONTINUOUS
 10
8.731638
 20
43.671500
 40
0.300000
  1
P43
  7
TQS_CALIBRI
  0
TEXT
  8
1
  6
CONTINUOUS
 10
64.367474
 20
26.647426
 40
0.300000
  1
P70
  7
TQS_CALIBRI
  0
TEXT
  8
1
  6
CONTINUOUS
 10
62.182776
 20
49.949817
 40
0.300000
  1
P36
  7
TQS_CALIBRI
  0
TEXT
  8
1
  6
CONTINUOUS
 10
7.586074
 20
54.441051
 40
0.300000
  1
P31
  7
TQS_CALIBRI
  0
TEXT
  8
1
  6
CONTINUOUS
 10
12.863771
 20
9.796767
 40
0.300000
  1
P91
  7
TQS_CALIBRI
  0
TEXT
  8
1
  6
CONTINUOUS
 10
21.491610
 20
10.665030
 40
0.300000
  1
P90
  7
TQS_CALIBRI
  0
TEXT
  8
1
  6
CONTINUOUS
 10
45.962536
 20
13.275185
 40
0.300000
  1
P88
  7
TQS_CALIBRI
  0
TEXT
  8
1
  6
CONTINUOUS
 10
65.434249
 20
15.403643
 40
0.300000
  1
P86
  7
TQS_CALIBRI
  0
TEXT
  8
1
  6
CONTINUOUS
 10
89.521162
 20
18.302145
 40
0.300000
  1
P82
  7
TQS_CALIBRI
  0
TEXT
  8
1
  6
CONTINUOUS
 10
61.208434
 20
60.426831
 40
0.300000
  1
P18
  7
TQS_CALIBRI
  0
TEXT
  8
1
  6
CONTINUOUS
 10
85.331654
 20
63.658268
 40
0.300000
  1
P12
  7
TQS_CALIBRI
  0
TEXT
  8
1
  6
CONTINUOUS
 10
43.684760
 20
58.596864
 40
0.300000
  1
P22
  7
TQS_CALIBRI
  0
TEXT
  8
1
  6
CONTINUOUS
 10
62.600261
 20
26.825581
 40
0.300000
  1
P69
  7
TQS_CALIBRI
  0
TEXT
  8
1
  6
CONTINUOUS
 10
60.447425
 20
49.737567
 40
0.300000
  1
P35
  7
TQS_CALIBRI
  0
TEXT
  8
1
  6
CONTINUOUS
 10
63.691497
 20
15.202244
 40
0.300000
  1
P85
  7
TQS_CALIBRI
  0
TEXT
  8
1
  6
CONTINUOUS
 10
59.476750
 20
60.109037
 40
0.300000
  1
P19
  7
TQS_CALIBRI
  0
TEXT
  8
1
  6
CONTINUOUS
 10
92.736101
 20
53.520657
 40
0.300000
  1
P32
  7
TQS_CALIBRI
  0
TEXT
  8
1
  6
CONTINUOUS
 10
95.512421
 20
30.186862
 40
0.300000
  1
P61
  7
TQS_CALIBRI
  0
TEXT
  8
1
  6
CONTINUOUS
 10
75.343566
 20
62.416907
 40
0.300000
  1
P15
  7
TQS_CALIBRI
  0
TEXT
  8
1
  6
CONTINUOUS
 10
80.645246
 20
17.214043
 40
0.300000
  1
P83
  7
TQS_CALIBRI
  0
TEXT
  8
1
  6
CONTINUOUS
 10
10.141869
 20
32.110481
 40
0.300000
  1
P59
  7
TQS_CALIBRI
  0
TEXT
  8
1
  6
CONTINUOUS
 10
61.539417
 20
38.139232
 40
0.300000
  1
P52
  7
TQS_CALIBRI
  0
TEXT
  8
1
  6
CONTINUOUS
 10
63.267481
 20
38.350845
 40
0.300000
  1
P49
  7
TQS_CALIBRI
  0
TEXT
  8
1
  6
CONTINUOUS
 10
94.116737
 20
41.918283
 40
0.300000
  1
P45
  7
TQS_CALIBRI
  0
TEXT
  8
1
  6
CONTINUOUS
 10
94.459522
 20
21.304019
 40
0.300000
  1
P78
  7
TQS_CALIBRI
  0
TEXT
  8
1
  6
CONTINUOUS
 10
32.130422
 20
11.801815
 40
0.300000
  1
P89
  7
TQS_CALIBRI
  0
TEXT
  8
1
  6
CONTINUOUS
 10
55.994265
 20
14.385210
 40
0.300000
  1
P87
  7
TQS_CALIBRI
  0
TEXT
  8
1
  6
CONTINUOUS
 10
73.230912
 20
16.309905
 40
0.300000
  1
P84
  7
TQS_CALIBRI
  0
TEXT
  8
1
  6
CONTINUOUS
 10
25.246681
 20
56.292883
 40
0.300000
  1
P27
  7
TQS_CALIBRI
  0
TEXT
  8
1
  6
CONTINUOUS
 10
35.244260
 20
57.574526
 40
0.300000
  1
P24
  7
TQS_CALIBRI
  0
TEXT
  8
1
  6
CONTINUOUS
 10
78.083654
 20
39.954957
 40
0.300000
  1
P48
  7
TQS_CALIBRI
  0
TEXT
  8
1
  6
CONTINUOUS
 10
26.738904
 20
33.934536
 40
0.300000
  1
P56
  7
TQS_CALIBRI
  0
TEXT
  8
1
  6
CONTINUOUS
 10
46.404325
 20
36.240422
 40
0.300000
  1
P54
  7
TQS_CALIBRI
  0
TEXT
  8
1
  6
CONTINUOUS
 10
91.640640
 20
62.720696
 40
0.300000
  1
P14
  7
TQS_CALIBRI
  0
TEXT
  8
1
  6
CONTINUOUS
 10
16.774450
 20
55.312867
 40
0.300000
  1
P28
  7
TQS_CALIBRI
  0
TEXT
  8
1
  6
CONTINUOUS
 10
85.524228
 20
28.995105
 40
0.300000
  1
P64
  7
TQS_CALIBRI
  0
TEXT
  8
4
  6
CONTINUOUS
 10
35.046967
 20
35.491713
 40
0.300000
 50
276.688000
  1
C75
  7
TQS_CALIBRI
  0
TEXT
  8
4
  6
CONTINUOUS
 10
32.782482
 20
35.226178
 40
0.300000
 50
276.688000
  1
C74
  7
TQS_CALIBRI
  0
TEXT
  8
4
  6
CONTINUOUS
 10
30.517998
 20
34.960643
 40
0.300000
 50
276.688000
  1
C73
  7
TQS_CALIBRI
  0
TEXT
  8
4
  6
CONTINUOUS
 10
28.253513
 20
34.695108
 40
0.300000
 50
276.688000
  1
C72
  7
TQS_CALIBRI
  0
TEXT
  8
4
  6
CONTINUOUS
 10
25.989028
 20
34.429573
 40
0.300000
 50
276.688000
  1
C71
  7
TQS_CALIBRI
  0
TEXT
  8
4
  6
CONTINUOUS
 10
23.724543
 20
34.164038
 40
0.300000
 50
276.688000
  1
C70
  7
TQS_CALIBRI
  0
TEXT
  8
4
  6
CONTINUOUS
 10
21.460059
 20
33.898503
 40
0.300000
 50
276.688000
  1
C69
  7
TQS_CALIBRI
  0
TEXT
  8
4
  6
CONTINUOUS
 10
19.195574
 20
33.632968
 40
0.300000
 50
276.688000
  1
C68
  7
TQS_CALIBRI
  0
TEXT
  8
4
  6
CONTINUOUS
 10
17.029714
 20
33.432757
 40
0.300000
 50
276.688000
  1
C67
  7
TQS_CALIBRI
  0
TEXT
  8
4
  6
CONTINUOUS
 10
15.043324
 20
33.199832
 40
0.300000
 50
276.688000
  1
C66
  7
TQS_CALIBRI
  0
TEXT
  8
4
  6
CONTINUOUS
 10
13.056933
 20
32.966906
 40
0.300000
 50
276.688000
  1
C65
  7
TQS_CALIBRI
  0
TEXT
  8
4
  6
CONTINUOUS
 10
11.070543
 20
32.733981
 40
0.300000
 50
276.688000
  1
C64
  7
TQS_CALIBRI
  0
TEXT
  8
4
  6
CONTINUOUS
 10
52.721058
 20
37.564189
 40
0.300000
 50
276.688000
  1
C83
  7
TQS_CALIBRI
  0
TEXT
  8
4
  6
CONTINUOUS
 10
50.516165
 20
37.305641
 40
0.300000
 50
276.688000
  1
C82
  7
TQS_CALIBRI
  0
TEXT
  8
4
  6
CONTINUOUS
 10
48.311272
 20
37.047094
 40
0.300000
 50
276.688000
  1
C81
  7
TQS_CALIBRI
  0
TEXT
  8
4
  6
CONTINUOUS
 10
46.106379
 20
36.788547
 40
0.300000
 50
276.688000
  1
C80
  7
TQS_CALIBRI
  0
TEXT
  8
4
  6
CONTINUOUS
 10
43.901486
 20
36.530000
 40
0.300000
 50
276.688000
  1
C79
  7
TQS_CALIBRI
  0
TEXT
  8
4
  6
CONTINUOUS
 10
41.696593
 20
36.271452
 40
0.300000
 50
276.688000
  1
C78
  7
TQS_CALIBRI
  0
TEXT
  8
4
  6
CONTINUOUS
 10
39.491700
 20
36.012905
 40
0.300000
 50
276.688000
  1
C77
  7
TQS_CALIBRI
  0
TEXT
  8
4
  6
CONTINUOUS
 10
37.286807
 20
35.754358
 40
0.300000
 50
276.688000
  1
C76
  7
TQS_CALIBRI
  0
TEXT
  8
4
  6
CONTINUOUS
 10
59.414670
 20
38.253184
 40
0.300000
 50
276.688000
  1
C86
  7
TQS_CALIBRI
  0
TEXT
  8
4
  6
CONTINUOUS
 10
57.189913
 20
37.992308
 40
0.300000
 50
276.688000
  1
C85
  7
TQS_CALIBRI
  0
TEXT
  8
4
  6
CONTINUOUS
 10
54.965156
 20
37.731431
 40
0.300000
 50
276.688000
  1
C84
  7
TQS_CALIBRI
  0
TEXT
  8
4
  6
CONTINUOUS
 10
84.794706
 20
41.311881
 40
0.300000
 50
276.688000
  1
C97
  7
TQS_CALIBRI
  0
TEXT
  8
4
  6
CONTINUOUS
 10
82.887772
 20
41.088272
 40
0.300000
 50
276.688000
  1
C96
  7
TQS_CALIBRI
  0
TEXT
  8
4
  6
CONTINUOUS
 10
80.980837
 20
40.864664
 40
0.300000
 50
276.688000
  1
C95
  7
TQS_CALIBRI
  0
TEXT
  8
4
  6
CONTINUOUS
 10
79.073903
 20
40.641056
 40
0.300000
 50
276.688000
  1
C94
  7
TQS_CALIBRI
  0
TEXT
  8
4
  6
CONTINUOUS
 10
77.166968
 20
40.417447
 40
0.300000
 50
276.688000
  1
C93
  7
TQS_CALIBRI
  0
TEXT
  8
4
  6
CONTINUOUS
 10
75.260034
 20
40.193839
 40
0.300000
 50
276.688000
  1
C92
  7
TQS_CALIBRI
  0
TEXT
  8
4
  6
CONTINUOUS
 10
73.353099
 20
39.970230
 40
0.300000
 50
276.688000
  1
C91
  7
TQS_CALIBRI
  0
TEXT
  8
4
  6
CONTINUOUS
 10
71.446164
 20
39.746622
 40
0.300000
 50
276.688000
  1
C90
  7
TQS_CALIBRI
  0
TEXT
  8
4
  6
CONTINUOUS
 10
69.301772
 20
39.469950
 40
0.300000
 50
276.688000
  1
C89
  7
TQS_CALIBRI
  0
TEXT
  8
4
  6
CONTINUOUS
 10
67.077015
 20
39.209073
 40
0.300000
 50
276.688000
  1
C88
  7
TQS_CALIBRI
  0
TEXT
  8
4
  6
CONTINUOUS
 10
64.852258
 20
38.948197
 40
0.300000
 50
276.688000
  1
C87
  7
TQS_CALIBRI
  0
TEXT
  8
4
  6
CONTINUOUS
 10
92.645094
 20
42.264866
 40
0.300000
 50
276.688000
  1
C101
  7
TQS_CALIBRI
  0
TEXT
  8
4
  6
CONTINUOUS
 10
90.698431
 20
42.036599
 40
0.300000
 50
276.688000
  1
C100
  7
TQS_CALIBRI
  0
TEXT
  8
4
  6
CONTINUOUS
 10
88.751769
 20
41.808332
 40
0.300000
 50
276.688000
  1
C99
  7
TQS_CALIBRI
  0
TEXT
  8
4
  6
CONTINUOUS
 10
86.805107
 20
41.580066
 40
0.300000
 50
276.688000
  1
C98
  7
TQS_CALIBRI
  0
TEXT
  8
1
  6
CONTINUOUS
 10
7.500012
 20
71.737760
 40
0.220000
  1
CABO
  7
TQS_CALIBRI
  0
TEXT
  8
1
  6
CONTINUOUS
 10
14.564493
 20
72.027760
 40
0.220000
  1
COMPRIMENTO
  7
TQS_CALIBRI
  0
TEXT
  8
1
  6
CONTINUOUS
 10
17.558799
 20
71.527760
 40
0.220000
  1
TOTAL
  7
TQS_CALIBRI
  0
TEXT
  8
1
  6
CONTINUOUS
 10
20.389153
 20
71.527760
 40
0.220000
  1
A
  7
TQS_CALIBRI
  0
TEXT
  8
1
  6
CONTINUOUS
 10
21.433969
 20
71.527760
 40
0.220000
  1
P
  7
TQS_CALIBRI
  0
TEXT
  8
1
  6
CONTINUOUS
 10
22.478785
 20
71.527760
 40
0.220000
  1
I
  7
TQS_CALIBRI
  0
TEXT
  8
1
  6
CONTINUOUS
 10
20.406466
 20
72.027760
 40
0.220000
  1
ANCORAGENS
  7
TQS_CALIBRI
  0
TEXT
  8
1
  6
CONTINUOUS
 10
11.958973
 20
71.737760
 40
0.220000
  1
Q
  7
TQS_CALIBRI
  0
TEXT
  8
1
  6
CONTINUOUS
 10
8.658634
 20
72.687760
 40
0.400000
  1
PROTENSÃO: AÇO
  7
TQS_CALIBRI
  0
TEXT
  8
1
  6
CONTINUOUS
 10
13.977363
 20
71.527760
 40
0.220000
  1
UNITÁRIO
  7
TQS_CALIBRI
  0
TEXT
  8
1
  6
CONTINUOUS
 10
23.433848
 20
71.527760
 40
0.220000
  1
INI
  7
TQS_CALIBRI
  0
TEXT
  8
1
  6
CONTINUOUS
 10
25.001072
 20
71.527760
 40
0.220000
  1
FIN
  7
TQS_CALIBRI
  0
TEXT
  8
1
  6
CONTINUOUS
 10
9.888224
 20
71.739979
 40
0.220000
  1
%%c
  7
TQS_CALIBRI
  0
TEXT
  8
1
  6
CONTINUOUS
 10
23.527614
 20
72.027760
 40
0.220000
  1
ALONG
  7
TQS_CALIBRI
  0
TEXT
  8
1
  6
CONTINUOUS
 10
14.986864
 20
72.687760
 40
0.400000
  1
CP190 RB 12.7 - 12.7
  7
TQS_CALIBRI
  0
TEXT
  8
1
  6
CONTINUOUS
 10
10.173372
 20
71.739979
 40
0.220000
  1
(mm)
  7
TQS_CALIBRI
  0
TEXT
  8
1
  6
CONTINUOUS
 10
17.224569
 20
72.027760
 40
0.220000
  1
(m)
  7
TQS_CALIBRI
  0
TEXT
  8
1
  6
CONTINUOUS
 10
24.715110
 20
72.027760
 40
0.220000
  1
(mm)
  7
TQS_CALIBRI
  0
TEXT
  8
1
  6
CONTINUOUS
 10
7.145434
 20
71.027760
 40
0.220000
  1
C64 A C67
  7
TQS_CALIBRI
  0
TEXT
  8
1
  6
CONTINUOUS
 10
9.498915
 20
71.027760
 40
0.220000
  1
2 %%c 12.7
  7
TQS_CALIBRI
  0
TEXT
  8
1
  6
CONTINUOUS
 10
11.713312
 20
71.027760
 40
0.220000
  1
4
  7
TQS_CALIBRI
  0
TEXT
  8
1
  6
CONTINUOUS
 10
13.949895
 20
71.027760
 40
0.220000
  1
23
  7
TQS_CALIBRI
  0
TEXT
  8
1
  6
CONTINUOUS
 10
17.226728
 20
71.027760
 40
0.220000
  1
183.6
  7
TQS_CALIBRI
  0
TEXT
  8
1
  6
CONTINUOUS
 10
20.204700
 20
71.027760
 40
0.220000
  1
8
  7
TQS_CALIBRI
  0
TEXT
  8
1
  6
CONTINUOUS
 10
21.249516
 20
71.027760
 40
0.220000
  1
8
  7
TQS_CALIBRI
  0
TEXT
  8
1
  6
CONTINUOUS
 10
23.286339
 20
71.027760
 40
0.220000
  1
0
  7
TQS_CALIBRI
  0
TEXT
  8
1
  6
CONTINUOUS
 10
24.853563
 20
71.027760
 40
0.220000
  1
155
  7
TQS_CALIBRI
  0
TEXT
  8
1
  6
CONTINUOUS
 10
7.145434
 20
70.527759
 40
0.220000
  1
C68 A C83
  7
TQS_CALIBRI
  0
TEXT
  8
1
  6
CONTINUOUS
 10
9.498915
 20
70.527759
 40
0.220000
  1
   "
  7
TQS_CALIBRI
  0
TEXT
  8
1
  6
CONTINUOUS
 10
11.713312
 20
70.527759
 40
0.220000
  1
16
  7
TQS_CALIBRI
  0
TEXT
  8
1
  6
CONTINUOUS
 10
13.949895
 20
70.527759
 40
0.220000
  1
23.1
  7
TQS_CALIBRI
  0
TEXT
  8
1
  6
CONTINUOUS
 10
17.226728
 20
70.527759
 40
0.220000
  1
737.8
  7
TQS_CALIBRI
  0
TEXT
  8
1
  6
CONTINUOUS
 10
20.204700
 20
70.527759
 40
0.220000
  1
32
  7
TQS_CALIBRI
  0
TEXT
  8
1
  6
CONTINUOUS
 10
21.249516
 20
70.527759
 40
0.220000
  1
32
  7
TQS_CALIBRI
  0
TEXT
  8
1
  6
CONTINUOUS
 10
23.286339
 20
70.527759
 40
0.220000
  1
0
  7
TQS_CALIBRI
  0
TEXT
  8
1
  6
CONTINUOUS
 10
24.853563
 20
70.527759
 40
0.220000
  1
154
  7
TQS_CALIBRI
  0
TEXT
  8
1
  6
CONTINUOUS
 10
7.145434
 20
70.027758
 40
0.220000
  1
C84 A C86
  7
TQS_CALIBRI
  0
TEXT
  8
1
  6
CONTINUOUS
 10
9.498915
 20
70.027758
 40
0.220000
  1
   "
  7
TQS_CALIBRI
  0
TEXT
  8
1
  6
CONTINUOUS
 10
11.713312
 20
70.027758
 40
0.220000
  1
3
  7
TQS_CALIBRI
  0
TEXT
  8
1
  6
CONTINUOUS
 10
13.949895
 20
70.027758
 40
0.220000
  1
23.3
  7
TQS_CALIBRI
  0
TEXT
  8
1
  6
CONTINUOUS
 10
17.226728
 20
70.027758
 40
0.220000
  1
139.6
  7
TQS_CALIBRI
  0
TEXT
  8
1
  6
CONTINUOUS
 10
20.204700
 20
70.027758
 40
0.220000
  1
6
  7
TQS_CALIBRI
  0
TEXT
  8
1
  6
CONTINUOUS
 10
21.249516
 20
70.027758
 40
0.220000
  1
6
  7
TQS_CALIBRI
  0
TEXT
  8
1
  6
CONTINUOUS
 10
23.286339
 20
70.027758
 40
0.220000
  1
0
  7
TQS_CALIBRI
  0
TEXT
  8
1
  6
CONTINUOUS
 10
24.853563
 20
70.027758
 40
0.220000
  1
158
  7
TQS_CALIBRI
  0
TEXT
  8
1
  6
CONTINUOUS
 10
7.145434
 20
69.527757
 40
0.220000
  1
C87 A C89
  7
TQS_CALIBRI
  0
TEXT
  8
1
  6
CONTINUOUS
 10
9.498915
 20
69.527757
 40
0.220000
  1
   "
  7
TQS_CALIBRI
  0
TEXT
  8
1
  6
CONTINUOUS
 10
11.713312
 20
69.527757
 40
0.220000
  1
3
  7
TQS_CALIBRI
  0
TEXT
  8
1
  6
CONTINUOUS
 10
13.949895
 20
69.527757
 40
0.220000
  1
23.3
  7
TQS_CALIBRI
  0
TEXT
  8
1
  6
CONTINUOUS
 10
17.226728
 20
69.527757
 40
0.220000
  1
140.1
  7
TQS_CALIBRI
  0
TEXT
  8
1
  6
CONTINUOUS
 10
20.204700
 20
69.527757
 40
0.220000
  1
6
  7
TQS_CALIBRI
  0
TEXT
  8
1
  6
CONTINUOUS
 10
21.249516
 20
69.527757
 40
0.220000
  1
6
  7
TQS_CALIBRI
  0
TEXT
  8
1
  6
CONTINUOUS
 10
23.286339
 20
69.527757
 40
0.220000
  1
0
  7
TQS_CALIBRI
  0
TEXT
  8
1
  6
CONTINUOUS
 10
24.853563
 20
69.527757
 40
0.220000
  1
158
  7
TQS_CALIBRI
  0
TEXT
  8
1
  6
CONTINUOUS
 10
7.145434
 20
69.027757
 40
0.220000
  1
C90 A C97
  7
TQS_CALIBRI
  0
TEXT
  8
1
  6
CONTINUOUS
 10
9.498915
 20
69.027757
 40
0.220000
  1
   "
  7
TQS_CALIBRI
  0
TEXT
  8
1
  6
CONTINUOUS
 10
11.713312
 20
69.027757
 40
0.220000
  1
8
  7
TQS_CALIBRI
  0
TEXT
  8
1
  6
CONTINUOUS
 10
13.949895
 20
69.027757
 40
0.220000
  1
23.3
  7
TQS_CALIBRI
  0
TEXT
  8
1
  6
CONTINUOUS
 10
17.226728
 20
69.027757
 40
0.220000
  1
373.1
  7
TQS_CALIBRI
  0
TEXT
  8
1
  6
CONTINUOUS
 10
20.204700
 20
69.027757
 40
0.220000
  1
16
  7
TQS_CALIBRI
  0
TEXT
  8
1
  6
CONTINUOUS
 10
21.249516
 20
69.027757
 40
0.220000
  1
16
  7
TQS_CALIBRI
  0
TEXT
  8
1
  6
CONTINUOUS
 10
23.286339
 20
69.027757
 40
0.220000
  1
0
  7
TQS_CALIBRI
  0
TEXT
  8
1
  6
CONTINUOUS
 10
24.853563
 20
69.027757
 40
0.220000
  1
155
  7
TQS_CALIBRI
  0
TEXT
  8
1
  6
CONTINUOUS
 10
7.145434
 20
68.527756
 40
0.220000
  1
C98 A C101
  7
TQS_CALIBRI
  0
TEXT
  8
1
  6
CONTINUOUS
 10
9.498915
 20
68.527756
 40
0.220000
  1
   "
  7
TQS_CALIBRI
  0
TEXT
  8
1
  6
CONTINUOUS
 10
11.713312
 20
68.527756
 40
0.220000
  1
4
  7
TQS_CALIBRI
  0
TEXT
  8
1
  6
CONTINUOUS
 10
13.949895
 20
68.527756
 40
0.220000
  1
23.3
  7
TQS_CALIBRI
  0
TEXT
  8
1
  6
CONTINUOUS
 10
17.226728
 20
68.527756
 40
0.220000
  1
186.3
  7
TQS_CALIBRI
  0
TEXT
  8
1
  6
CONTINUOUS
 10
20.204700
 20
68.527756
 40
0.220000
  1
8
  7
TQS_CALIBRI
  0
TEXT
  8
1
  6
CONTINUOUS
 10
21.249516
 20
68.527756
 40
0.220000
  1
8
  7
TQS_CALIBRI
  0
TEXT
  8
1
  6
CONTINUOUS
 10
23.286339
 20
68.527756
 40
0.220000
  1
0
  7
TQS_CALIBRI
  0
TEXT
  8
1
  6
CONTINUOUS
 10
24.853563
 20
68.527756
 40
0.220000
  1
157
  7
TQS_CALIBRI
  0
TEXT
  8
1
  6
CONTINUOUS
 10
7.631575
 20
65.527755
 40
0.220000
  1
%%c
  7
TQS_CALIBRI
  0
TEXT
  8
1
  6
CONTINUOUS
 10
11.205113
 20
66.027756
 40
0.220000
  1
CABO
  7
TQS_CALIBRI
  0
TEXT
  8
1
  6
CONTINUOUS
 10
17.389673
 20
65.277756
 40
0.220000
  1
A
  7
TQS_CALIBRI
  0
TEXT
  8
1
  6
CONTINUOUS
 10
18.434488
 20
65.277756
 40
0.220000
  1
P
  7
TQS_CALIBRI
  0
TEXT
  8
1
  6
CONTINUOUS
 10
19.479305
 20
65.277756
 40
0.220000
  1
I
  7
TQS_CALIBRI
  0
TEXT
  8
1
  6
CONTINUOUS
 10
13.700872
 20
65.527755
 40
0.220000
  1
PESO
  7
TQS_CALIBRI
  0
TEXT
  8
1
  6
CONTINUOUS
 10
17.459852
 20
66.027756
 40
0.220000
  1
ANCORAGENS
  7
TQS_CALIBRI
  0
TEXT
  8
1
  6
CONTINUOUS
 10
9.538632
 20
67.111088
 40
0.400000
  1
RESUMO DE PROTENSÃO
  7
TQS_CALIBRI
  0
TEXT
  8
1
  6
CONTINUOUS
 10
9.076769
 20
66.548389
 40
0.300000
  1
Monocordoalhas não aderentes
  7
TQS_CALIBRI
  0
TEXT
  8
1
  6
CONTINUOUS
 10
9.467870
 20
65.527755
 40
0.220000
  1
COMPR
  7
TQS_CALIBRI
  0
TEXT
  8
1
  6
CONTINUOUS
 10
11.317658
 20
65.027756
 40
0.220000
  1
kgf/m
  7
TQS_CALIBRI
  0
TEXT
  8
1
  6
CONTINUOUS
 10
13.469435
 20
65.027756
 40
0.220000
  1
kgf
  7
TQS_CALIBRI
  0
TEXT
  8
1
  6
CONTINUOUS
 10
15.283827
 20
65.027756
 40
0.220000
  1
kgf+4%
  7
TQS_CALIBRI
  0
TEXT
  8
1
  6
CONTINUOUS
 10
9.472416
 20
65.027756
 40
0.220000
  1
m
  7
TQS_CALIBRI
  0
TEXT
  8
1
  6
CONTINUOUS
 10
7.609955
 20
65.027756
 40
0.220000
  1
mm
  7
TQS_CALIBRI
  0
TEXT
  8
1
  6
CONTINUOUS
 10
9.197732
 20
64.527755
 40
0.220000
  1
1760
  7
TQS_CALIBRI
  0
TEXT
  8
1
  6
CONTINUOUS
 10
18.243329
 20
64.527755
 40
0.220000
  1
76
  7
TQS_CALIBRI
  0
TEXT
  8
1
  6
CONTINUOUS
 10
17.198512
 20
64.527755
 40
0.220000
  1
76
  7
TQS_CALIBRI
  0
TEXT
  8
1
  6
CONTINUOUS
 10
11.317658
 20
64.527755
 40
0.220000
  1
0.886
  7
TQS_CALIBRI
  0
TEXT
  8
1
  6
CONTINUOUS
 10
12.906987
 20
64.527755
 40
0.220000
  1
1560
  7
TQS_CALIBRI
  0
TEXT
  8
1
  6
CONTINUOUS
 10
14.966985
 20
64.527755
 40
0.220000
  1
1622
  7
TQS_CALIBRI
  0
TEXT
  8
1
  6
CONTINUOUS
 10
7.009799
 20
64.527755
 40
0.220000
  1
2 %%c 12.7
  7
TQS_CALIBRI
  0
TEXT
  8
1
  6
CONTINUOUS
 10
101.932386
 20
23.396411
 40
0.350000
  1
NOTAS:
  7
TQS_CALIBRI
  0
TEXT
  8
2
  6
CONTINUOUS
 10
101.965840
 20
22.812661
 40
0.240000
  1
1) CONFERIR INFORMAÇÕES DA TABELA ACIMA (TABELA DE FERRERAGEM) NA OBRA
  7
TQS_CALIBRI
  0
TEXT
  8
2
  6
CONTINUOUS
 10
101.965840
 20
22.343353
 40
0.240000
  1
ANTES DA COMPRA DAS ARMADURAS.
  7
TQS_CALIBRI
  0
TEXT
  8
1
  6
CONTINUOUS
 10
102.073109
 20
8.835799
 40
0.455000
  1
ENGENHARIA
  7
TQS_CALIBRI
  0
TEXT
  8
1
  6
CONTINUOUS
 10
101.876737
 20
16.222571
 40
0.250000
  1
REV
  7
TQS_CALIBRI
  0
TEXT
  8
1
  6
CONTINUOUS
 10
103.356169
 20
16.222571
 40
0.250000
  1
DATA
  7
TQS_CALIBRI
  0
TEXT
  8
1
  6
CONTINUOUS
 10
105.030516
 20
16.222571
 40
0.250000
  1
ASSUNTO
  7
TQS_CALIBRI
  0
TEXT
  8
1
  6
CONTINUOUS
 10
101.832253
 20
14.047181
 40
0.250000
  1
PROPRIETÁRIO - 
  7
TQS_CALIBRI
  0
TEXT
  8
1
  6
CONTINUOUS
 10
108.042444
 20
2.579059
 40
0.250000
  1
ENGENHEIRO:
  7
TQS_CALIBRI
  0
TEXT
  8
1
  6
CONTINUOUS
 10
108.046365
 20
2.149652
 40
0.250000
  1
CREA REG.:
  7
TQS_CALIBRI
  0
TEXT
  8
1
  6
CONTINUOUS
 10
110.430567
 20
2.160333
 40
0.250000
  1
020930945-8
  7
TQS_CALIBRI
  0
TEXT
  8
1
  6
CONTINUOUS
 10
103.739739
 20
9.759850
 40
1.000000
  1
VGF
  7
TQS_CALIBRI
  0
TEXT
  8
1
  6
CONTINUOUS
 10
101.832253
 20
12.147181
 40
0.250000
  1
PROJETO              Eng. Civil - CREA:020930945-8
  7
TQS_CALIBRI
  0
TEXT
  8
1
  6
CONTINUOUS
 10
101.800510
 20
2.752624
 40
0.150000
  1
DATA:
  7
TQS_CALIBRI
  0
TEXT
  8
1
  6
CONTINUOUS
 10
101.788178
 20
1.752624
 40
0.150000
  1
FASE:
  7
TQS_CALIBRI
  0
TEXT
  8
1
  6
CONTINUOUS
 10
105.124829
 20
2.752624
 40
0.150000
  1
ESCALA:
  7
TQS_CALIBRI
  0
TEXT
  8
1
  6
CONTINUOUS
 10
105.112497
 20
1.752624
 40
0.150000
  1
PLANTA:
  7
TQS_CALIBRI
  0
TEXT
  8
1
  6
CONTINUOUS
 10
101.800510
 20
6.352624
 40
0.150000
  1
TÍTULO:
  7
TQS_CALIBRI
  0
TEXT
  8
1
  6
CONTINUOUS
 10
101.787482
 20
5.577767
 40
0.150000
  1
ELEMENTOS DA PRANCHA:
  7
TQS_CALIBRI
  0
TEXT
  8
1
  6
CONTINUOUS
 10
101.800510
 20
8.252624
 40
0.150000
  1
EMPREENDIMENTO/LOCAL:
  7
TQS_CALIBRI
  0
TEXT
  8
1
  6
CONTINUOUS
 10
106.761120
 20
11.025301
 40
0.150000
  1
CONTATOS:
  7
TQS_CALIBRI
  0
TEXT
  8
1
  6
CONTINUOUS
 10
114.224829
 20
2.752624
 40
0.150000
  1
PLANTA-REVISÃO:
  7
TQS_CALIBRI
  0
TEXT
  8
1
  6
CONTINUOUS
 10
102.041441
 20
16.843956
 40
0.200000
  1
00
  7
TQS_CALIBRI
  0
TEXT
  8
1
  6
CONTINUOUS
 10
102.041441
 20
17.343956
 40
0.200000
  1
01
  7
TQS_CALIBRI
  0
TEXT
  8
1
  6
CONTINUOUS
 10
102.041441
 20
17.843956
 40
0.200000
  1
02
  7
TQS_CALIBRI
  0
TEXT
  8
1
  6
CONTINUOUS
 10
102.041441
 20
18.343956
 40
0.200000
  1
03
  7
TQS_CALIBRI
  0
TEXT
  8
1
  6
CONTINUOUS
 10
102.041441
 20
18.843956
 40
0.200000
  1
04
  7
TQS_CALIBRI
  0
TEXT
  8
1
  6
CONTINUOUS
 10
102.041441
 20
19.343956
 40
0.200000
  1
05
  7
TQS_CALIBRI
  0
TEXT
  8
1
  6
CONTINUOUS
 10
102.041441
 20
19.843956
 40
0.200000
  1
06
  7
TQS_CALIBRI
  0
TEXT
  8
1
  6
CONTINUOUS
 10
102.041441
 20
20.343956
 40
0.200000
  1
07
  7
TQS_CALIBRI
  0
TEXT
  8
1
  6
CONTINUOUS
 10
102.041441
 20
20.843956
 40
0.200000
  1
08
  7
TQS_CALIBRI
  0
TEXT
  8
1
  6
CONTINUOUS
 10
102.041441
 20
21.343956
 40
0.200000
  1
09
  7
TQS_CALIBRI
  0
TEXT
  8
1
  6
CONTINUOUS
 10
102.041441
 20
21.843956
 40
0.200000
  1
10
  7
TQS_CALIBRI
  0
TEXT
  8
1
  6
CONTINUOUS
 10
116.437973
 20
16.222571
 40
0.250000
  1
AUTOR
  7
TQS_CALIBRI
  0
TEXT
  8
1
  6
CONTINUOUS
 10
106.749019
 20
10.335784
 40
0.195000
  1
Tel: 99928-2128
  7
TQS_CALIBRI
  0
TEXT
  8
1
  6
CONTINUOUS
 10
106.749019
 20
10.012284
 40
0.195000
  1
franciscogonca@hotmail.com 
  7
TQS_CALIBRI
  0
TEXT
  8
1
  6
CONTINUOUS
 10
106.749019
 20
9.680784
 40
0.195000
  1
Tel: 99981-6458
  7
TQS_CALIBRI
  0
TEXT
  8
1
  6
CONTINUOUS
 10
106.749019
 20
9.357284
 40
0.195000
  1
tiago@vgfengenharia.com.br 
  7
TQS_CALIBRI
  0
TEXT
  8
1
  6
CONTINUOUS
 10
106.749019
 20
9.025784
 40
0.195000
  1
Tel: 99912-8379
  7
TQS_CALIBRI
  0
TEXT
  8
1
  6
CONTINUOUS
 10
110.809443
 20
11.052624
 40
0.150000
  1
CLIENTE:
  7
TQS_CALIBRI
  0
TEXT
  8
1
  6
CONTINUOUS
 10
116.009770
 20
1.647683
 40
0.500000
  1
-R
  7
TQS_CALIBRI
  0
TEXT
  8
1
  6
CONTINUOUS
 10
101.832253
 20
12.547181
 40
0.250000
  1
RESPONSÁVEL -  Diego de Vasconcelos Gonçalves Ferreira
  7
TQS_CALIBRI
  0
TEXT
  8
1
  6
CONTINUOUS
 10
110.422141
 20
2.578345
 40
0.250000
  1
Diego Vasconcelos
  7
TQS_CALIBRI
  0
TEXT
  8
1
  6
CONTINUOUS
 10
106.749019
 20
10.667284
 40
0.195000
  1
diego@vgfengenharia.com.br 
  7
TQS_CALIBRI
  0
TEXT
  8
1
  6
CONTINUOUS
 10
104.982892
 20
16.853163
 40
0.200000
  1
Emissão inicial.
  7
TQS_CALIBRI
  0
TEXT
  8
1
  6
CONTINUOUS
 10
101.795719
 20
7.825700
 40
0.250000
  1
Assembléia Legislativa de Alagoas
  7
TQS_CALIBRI
  0
TEXT
  8
1
  6
CONTINUOUS
 10
104.517953
 20
14.045361
 40
0.250000
  1
ALA
  7
TQS_CALIBRI
  0
TEXT
  8
1
  6
CONTINUOUS
 10
101.789281
 20
2.263237
 40
0.250000
  1
26/02/2024
  7
TQS_CALIBRI
  0
TEXT
  8
1
  6
CONTINUOUS
 10
102.992347
 20
16.854551
 40
0.200000
  1
26/02/24
  7
TQS_CALIBRI
  0
TEXT
  8
1
  6
CONTINUOUS
 10
101.787954
 20
7.415393
 40
0.200000
  1
RUA SÁ E ALBUQUERQUE, NÚMERO 807, JARAGUÁ - MACEIÓ-AL
  7
TQS_CALIBRI
  0
TEXT
  8
1
  6
CONTINUOUS
 10
101.789859
 20
1.251887
 40
0.250000
  1
PE
  7
TQS_CALIBRI
  0
TEXT
  8
1
  6
CONTINUOUS
 10
105.114178
 20
1.251887
 40
0.250000
  1
CLA-EEM-EST-PE-0333-ARM-R00
  7
TQS_CALIBRI
  0
TEXT
  8
1
  6
CONTINUOUS
 10
116.547332
 20
16.842370
 40
0.200000
  1
DIEGO
  7
TQS_CALIBRI
  0
TEXT
  8
1
  6
CONTINUOUS
 10
114.396264
 20
1.644018
 40
0.500000
  1
0333
  7
TQS_CALIBRI
  0
TEXT
  8
1
  6
CONTINUOUS
 10
116.689770
 20
1.647683
 40
0.500000
  1
00
  7
TQS_CALIBRI
  0
TEXT
  8
1
  6
CONTINUOUS
 10
110.802729
 20
10.513659
 40
0.400000
  1
ALA
  7
TQS_CALIBRI
  0
TEXT
  8
1
  6
CONTINUOUS
 10
101.762319
 20
5.951739
 40
0.250000
  1
ARM. PROTENSÃO VERTICAL (02-1Pavto) - 01 - A e B
  7
TQS_CALIBRI
  0
ENDSEC
  0
EOF
