  0
SECTION
  2
HEADER
  9
$ACADVER
  1
AC1002
  9
$USERI1
 70
0
  9
$INSBASE
 10
0.000000
 20
0.000000
  9
$EXTMIN
 10
0.000000
 20
0.000000
  9
$EXTMAX
 10
7.761771
 20
4.436620
  9
$LIMMIN
 10
0.000000
 20
0.000000
  9
$LIMMAX
 10
12.000000
 20
9.000000
  9
$VIEWCTR
 10
78.887138
 20
59.361758
  9
$VIEWSIZE
 40
127.522840
  9
$TEXTSIZE
 40
0.100000
  9
$TRACEWID
 40
0.010000
  9
$LTSCALE
 40
1.000000
  0
ENDSEC
  0
SECTION
  2
TABLES
  0
TABLE
  2
LTYPE
 70
     3
  0
LTYPE
  2
CONTINUOUS
 70
    64
  3
Solid line
 72
    65
 73
     0
 40
0.000000
  0
LTYPE
  2
ESTILO_TQS_0001
 70
    64
  3
-  -  -  -  -  -
 72
    65
 73
     2
 40
1.000000
 49
0.700000
 49
-0.300000
  0
LTYPE
  2
ESTILO_TQS_0002
 70
    64
  3
. . . . . . . .
 72
    65
 73
     2
 40
0.400000
 49
0.100000
 49
-0.300000
  0
LTYPE
  2
ESTILO_TQS_0003
 70
    64
  3
- . - . - . - .
 72
    65
 73
     4
 40
0.910000
 49
0.500000
 49
-0.200000
 49
0.010000
 49
-0.200000
  0
LTYPE
  2
ESTILO_TQS_0004
 70
    64
  3
- .. - .. - ..
 72
    65
 73
     6
 40
1.120000
 49
0.500000
 49
-0.200000
 49
0.010000
 49
-0.200000
 49
0.010000
 49
-0.200000
  0
LTYPE
  2
CONTINUOUS
 70
    64
  3
- - - - - - - -
 72
    65
 73
     2
 40
0.400000
 49
0.300000
 49
-0.100000
  0
ENDTAB
  0
TABLE
  2
LAYER
 70
    89
  0
LAYER
  2
0
 70
     0
 62
     7
  6
CONTINUOUS
  0
LAYER
  2
1
 70
     0
 62
     1
  6
CONTINUOUS
  0
LAYER
  2
2
 70
     0
 62
     2
  6
CONTINUOUS
  0
LAYER
  2
3
 70
     0
 62
     3
  6
CONTINUOUS
  0
LAYER
  2
4
 70
     0
 62
     4
  6
CONTINUOUS
  0
LAYER
  2
5
 70
     0
 62
     5
  6
CONTINUOUS
  0
LAYER
  2
6
 70
     0
 62
     6
  6
CONTINUOUS
  0
LAYER
  2
7
 70
     0
 62
     7
  6
CONTINUOUS
  0
LAYER
  2
8
 70
     0
 62
     8
  6
CONTINUOUS
  0
LAYER
  2
9
 70
     0
 62
     9
  6
CONTINUOUS
  0
LAYER
  2
10
 70
     0
 62
    10
  6
CONTINUOUS
  0
LAYER
  2
11
 70
     0
 62
    11
  6
CONTINUOUS
  0
LAYER
  2
12
 70
     0
 62
    12
  6
CONTINUOUS
  0
LAYER
  2
13
 70
     0
 62
    13
  6
CONTINUOUS
  0
LAYER
  2
14
 70
     0
 62
    14
  6
CONTINUOUS
  0
LAYER
  2
15
 70
     0
 62
    15
  6
CONTINUOUS
  0
LAYER
  2
16
 70
     0
 62
     7
  6
CONTINUOUS
  0
LAYER
  2
17
 70
     0
 62
     2
  6
CONTINUOUS
  0
LAYER
  2
18
 70
     0
 62
     4
  6
CONTINUOUS
  0
LAYER
  2
19
 70
     0
 62
     5
  6
CONTINUOUS
  0
LAYER
  2
20
 70
     0
 62
     4
  6
CONTINUOUS
  0
LAYER
  2
21
 70
     0
 62
     2
  6
CONTINUOUS
  0
LAYER
  2
22
 70
     0
 62
     1
  6
CONTINUOUS
  0
LAYER
  2
23
 70
     0
 62
     7
  6
CONTINUOUS
  0
LAYER
  2
24
 70
     0
 62
     6
  6
CONTINUOUS
  0
LAYER
  2
25
 70
     0
 62
     1
  6
CONTINUOUS
  0
LAYER
  2
26
 70
     0
 62
     3
  6
CONTINUOUS
  0
LAYER
  2
27
 70
     0
 62
     4
  6
CONTINUOUS
  0
LAYER
  2
28
 70
     0
 62
     4
  6
CONTINUOUS
  0
LAYER
  2
30
 70
     0
 62
     4
  6
CONTINUOUS
  0
LAYER
  2
100
 70
     0
 62
     1
  6
CONTINUOUS
  0
LAYER
  2
101
 70
     0
 62
     9
  6
CONTINUOUS
  0
LAYER
  2
102
 70
     0
 62
     7
  6
CONTINUOUS
  0
LAYER
  2
103
 70
     0
 62
     2
  6
CONTINUOUS
  0
LAYER
  2
104
 70
     0
 62
    11
  6
CONTINUOUS
  0
LAYER
  2
105
 70
     0
 62
     3
  6
CONTINUOUS
  0
LAYER
  2
106
 70
     0
 62
     5
  6
CONTINUOUS
  0
LAYER
  2
107
 70
     0
 62
     3
  6
CONTINUOUS
  0
LAYER
  2
108
 70
     0
 62
     5
  6
CONTINUOUS
  0
LAYER
  2
109
 70
     0
 62
     3
  6
CONTINUOUS
  0
LAYER
  2
197
 70
     0
 62
     3
  6
CONTINUOUS
  0
LAYER
  2
198
 70
     0
 62
     2
  6
CONTINUOUS
  0
LAYER
  2
199
 70
     0
 62
     6
  6
CONTINUOUS
  0
LAYER
  2
200
 70
     0
 62
     7
  6
ESTILO_TQS_0002
  0
LAYER
  2
201
 70
     0
 62
     7
  6
ESTILO_TQS_0001
  0
LAYER
  2
202
 70
     0
 62
     7
  6
CONTINUOUS
  0
LAYER
  2
203
 70
     0
 62
     7
  6
ESTILO_TQS_0001
  0
LAYER
  2
204
 70
     0
 62
     7
  6
ESTILO_TQS_0003
  0
LAYER
  2
205
 70
     0
 62
     5
  6
ESTILO_TQS_0004
  0
LAYER
  2
206
 70
     0
 62
    15
  6
CONTINUOUS
  0
LAYER
  2
207
 70
     0
 62
     2
  6
CONTINUOUS
  0
LAYER
  2
208
 70
     0
 62
     5
  6
CONTINUOUS
  0
LAYER
  2
210
 70
     0
 62
    15
  6
ESTILO_TQS_0002
  0
LAYER
  2
211
 70
     0
 62
     7
  6
ESTILO_TQS_0001
  0
LAYER
  2
214
 70
     0
 62
    15
  6
CONTINUOUS
  0
LAYER
  2
215
 70
     0
 62
     2
  6
CONTINUOUS
  0
LAYER
  2
216
 70
     0
 62
     3
  6
CONTINUOUS
  0
LAYER
  2
217
 70
     0
 62
     3
  6
CONTINUOUS
  0
LAYER
  2
218
 70
     0
 62
     2
  6
CONTINUOUS
  0
LAYER
  2
219
 70
     0
 62
    15
  6
CONTINUOUS
  0
LAYER
  2
220
 70
     0
 62
    10
  6
CONTINUOUS
  0
LAYER
  2
221
 70
     0
 62
    11
  6
CONTINUOUS
  0
LAYER
  2
222
 70
     0
 62
    12
  6
CONTINUOUS
  0
LAYER
  2
223
 70
     0
 62
     6
  6
CONTINUOUS
  0
LAYER
  2
224
 70
     0
 62
     1
  6
CONTINUOUS
  0
LAYER
  2
225
 70
     0
 62
    15
  6
CONTINUOUS
  0
LAYER
  2
226
 70
     0
 62
     2
  6
CONTINUOUS
  0
LAYER
  2
227
 70
     0
 62
    10
  6
CONTINUOUS
  0
LAYER
  2
228
 70
     0
 62
    11
  6
CONTINUOUS
  0
LAYER
  2
229
 70
     0
 62
    12
  6
CONTINUOUS
  0
LAYER
  2
230
 70
     0
 62
     6
  6
CONTINUOUS
  0
LAYER
  2
231
 70
     0
 62
     3
  6
CONTINUOUS
  0
LAYER
  2
232
 70
     0
 62
    12
  6
CONTINUOUS
  0
LAYER
  2
233
 70
     0
 62
     4
  6
CONTINUOUS
  0
LAYER
  2
234
 70
     0
 62
    13
  6
CONTINUOUS
  0
LAYER
  2
235
 70
     0
 62
     5
  6
CONTINUOUS
  0
LAYER
  2
236
 70
     0
 62
     2
  6
CONTINUOUS
  0
LAYER
  2
237
 70
     0
 62
     6
  6
CONTINUOUS
  0
LAYER
  2
238
 70
     0
 62
    12
  6
CONTINUOUS
  0
LAYER
  2
239
 70
     0
 62
    11
  6
CONTINUOUS
  0
LAYER
  2
240
 70
     0
 62
    11
  6
CONTINUOUS
  0
LAYER
  2
241
 70
     0
 62
    12
  6
CONTINUOUS
  0
ENDTAB
  0
TABLE
  2
STYLE
 70
     1
  0
STYLE
  2
STANDARD
 70
    64
 40
0.000000
 41
1.000000
 50
0.000000
 71
     0
 42
0.200000
  3
ROMANS.SHX
  4

  0
STYLE
  2
TQS_CALIBRI
 70
     0
 40
0.000000
 41
1.000000
 50
0.000000
 71
     0
 42
0.200000
  3
calibri.ttf
  0
STYLE
  2
TQS_CALIBRI_U
 70
     0
 40
0.000000
 41
1.000000
 50
0.000000
 71
     0
 42
0.200000
  3
calibri.ttf
  0
STYLE
  2
TQS_CALIBRI_I
 70
     0
 40
0.000000
 41
1.000000
 50
0.000000
 71
     0
 42
0.200000
  3
calibri.ttf
  0
STYLE
  2
TQS_CALIBRI_I_U
 70
     0
 40
0.000000
 41
1.000000
 50
0.000000
 71
     0
 42
0.200000
  3
calibri.ttf
  0
STYLE
  2
TQS_CALIBRI_B
 70
     0
 40
0.000000
 41
1.000000
 50
0.000000
 71
     0
 42
0.200000
  3
calibri.ttf
  0
STYLE
  2
TQS_CALIBRI_B_U
 70
     0
 40
0.000000
 41
1.000000
 50
0.000000
 71
     0
 42
0.200000
  3
calibri.ttf
  0
STYLE
  2
TQS_CALIBRI_B_I
 70
     0
 40
0.000000
 41
1.000000
 50
0.000000
 71
     0
 42
0.200000
  3
calibri.ttf
  0
STYLE
  2
TQS_CALIBRI_B_I_U
 70
     0
 40
0.000000
 41
1.000000
 50
0.000000
 71
     0
 42
0.200000
  3
calibri.ttf
  0
ENDTAB
  0
TABLE
  2
VIEW
 70
     0
  0
ENDTAB
  0
ENDSEC
  0
SECTION
  2
BLOCKS
  0
BLOCK
  8
0
  2
_PLWTQS
 70
    64
 10
0.000000
 20
0.000000
  0
TEXT
  8
0
  6
CONTINUOUS
 10
0.000000
 20
0.000000
 40
0.200000
  1
$PLWDWGGlBMVwAAAAAAAChABAAAAMHC82deG7a4TWoBHUHqWtfMIX5fqikCFFLNPRbfDmTeB8YS7EpnABq/8pRYq2kJDZexuoa829TuHmKLkINnQXby30xkbjV6ionwdyC59egqhn9/VfIVdjyV2sP+s0n13h4DkmiSyfvjPpEhFDQIxGA=
  7
TQS_CALIBRI
  0
TEXT
  8
0
  6
CONTINUOUS
 10
0.000000
 20
-0.250000
 40
0.200000
  1
$PLWDWGgkYA/VYPiOqK4robeslSTJmC8i6CBva8YqAzT80D5dX7In+LjhjKk/A8Nhcuz7X+HBAF2qm1W7IBZ+XQLvoOCRJaN2Cdqs8fbOLPjMwcLcQOEv73eNtWSXAay279xTFugt+/OzfqH1ZjlER4/0tLZt8A8KZyOiTjxo+y6OIpm3s=
  7
TQS_CALIBRI
  0
TEXT
  8
0
  6
CONTINUOUS
 10
0.000000
 20
-0.500000
 40
0.200000
  1
$PLWDWGmy5i2zfDeRSVIiXj8wqHZLUwHiHjCMyDZ6L31QXQHxikOZW26TbGYCWJsTACMXTPmIys2ArJ/hZNW6XX0a/YmCx/1kRTuJNu+Lox5wKMZ/txyM8l/+sVCGRPBMbSwW9VBwunIQQM002GXXv3Wx/iUdlPp1Dz/GK0WJ0ANJk8D1g=
  7
TQS_CALIBRI
  0
TEXT
  8
0
  6
CONTINUOUS
 10
0.000000
 20
-0.750000
 40
0.200000
  1
$PLWDWGc1BXBK+0zDBHV6rX06C+Tf6q4h/1mZMQqGWAwl45zlGzQQTUcYEQif9QnTJVQMHl5ZJepBZ2yihr6xcqA6Vr7JutOWNKvbrR6WIi0drLlUiUkoaaLhCxESYeMlN9R25CUVYksSXMAPa97M/AZ33Gl2NqfSxac/WcbWt4egBAjN4=
  7
TQS_CALIBRI
  0
TEXT
  8
0
  6
CONTINUOUS
 10
0.000000
 20
-1.000000
 40
0.200000
  1
$PLWDWG1iIaE9snI0yYoH+oXxgLs3S40s1+LYFPV8y+y7ak/0clgxjeLBWqttR0RcnvN7jjZVeAuoCi4jt+S2zpJnkLS/DDtD8CCmMnoLg7n67GM48BDU7B1ru7kfdBZYRxmCnAA9AwPQBpO+yQO1zDrtC1HkppilzBpWK1qSiece73eN8=
  7
TQS_CALIBRI
  0
TEXT
  8
0
  6
CONTINUOUS
 10
0.000000
 20
-1.250000
 40
0.200000
  1
$PLWDWG6hDkk+8aa2pq5X83s9SO4AVQwsDrL5/B1jvE/XxrylUtwXMv2HMcb+hU0qhb/vC1nazXLhhIZc0Z1SOT3QkmB6TWB9od9N8PPZ1ZfblbnqLVSdhhIlZkmkm7ST9/USWyX4kw5toqXKzMUTjThnDI/LW7id85V45BnCoknODZEco=
  7
TQS_CALIBRI
  0
TEXT
  8
0
  6
CONTINUOUS
 10
0.000000
 20
-1.500000
 40
0.200000
  1
$PLWDWGBsRk68h63uIDCELzWXYCaGBmLTLxKOuMsz3TjKQdX3FbX3df0OmEMgrPV4aY8+h5m3xkGFvzxEnIXM4uWGfYhvoRqU/uZk3T3x+m06mmQPJWhkro9gJv+fkwXZZ4QkThr2V3I4DhqHyea3twU6TcxX6dPirddAyZKUMoTfFSs3Q=
  7
TQS_CALIBRI
  0
TEXT
  8
0
  6
CONTINUOUS
 10
0.000000
 20
-1.750000
 40
0.200000
  1
$PLWDWG/9twb2Gmjl0AXwp3zCgqZb/wYs/TaeYnWo4z8iNCMLLXMRseYBsQqVO8wGz/DRyamsHNUkysCTcAAAAA6YU0DIxggfrn/tpbQo2ErZrBzVJMrAk3AAAAAA==
  7
TQS_CALIBRI
  0
ENDBLK
  8
0
  0
ENDSEC
  0
SECTION
  2
ENTITIES
  0
SOLID
  8
13
  6
CONTINUOUS
 10
102.095046
 20
10.244446
 11
102.095046
 21
9.498246
 12
101.971546
 22
9.498246
 13
101.971546
 23
9.498246
  0
SOLID
  8
13
  6
CONTINUOUS
 10
102.095046
 20
10.244446
 11
101.971546
 21
9.498246
 12
101.971546
 22
11.162246
 13
101.971546
 23
11.162246
  0
SOLID
  8
13
  6
CONTINUOUS
 10
102.095046
 20
10.244446
 11
101.971546
 21
11.162246
 12
102.095046
 22
11.162246
 13
102.095046
 23
11.162246
  0
SOLID
  8
13
  6
CONTINUOUS
 10
102.095046
 20
10.244446
 11
102.095046
 21
11.162246
 12
102.095046
 22
10.244446
 13
102.095046
 23
10.244446
  0
SOLID
  8
13
  6
CONTINUOUS
 10
102.522746
 20
10.230979
 11
102.522746
 21
9.498246
 12
102.095046
 22
9.498246
 13
102.095046
 23
9.498246
  0
SOLID
  8
13
  6
CONTINUOUS
 10
102.522746
 20
10.230979
 11
102.095046
 21
9.498246
 12
102.095046
 22
10.244446
 13
102.095046
 23
10.244446
  0
SOLID
  8
13
  6
CONTINUOUS
 10
102.522746
 20
10.230979
 11
102.095046
 21
10.244446
 12
102.143544
 22
10.248642
 13
102.143544
 23
10.248642
  0
SOLID
  8
13
  6
CONTINUOUS
 10
102.522746
 20
10.230979
 11
102.143544
 21
10.248642
 12
102.211078
 22
10.252071
 13
102.211078
 23
10.252071
  0
SOLID
  8
13
  6
CONTINUOUS
 10
102.522746
 20
10.230979
 11
102.211078
 21
10.252071
 12
102.259959
 22
10.252484
 13
102.259959
 23
10.252484
  0
SOLID
  8
13
  6
CONTINUOUS
 10
102.522746
 20
10.230979
 11
102.259959
 21
10.252484
 12
102.290321
 22
10.252141
 13
102.290321
 23
10.252141
  0
SOLID
  8
13
  6
CONTINUOUS
 10
102.522746
 20
10.230979
 11
102.290321
 21
10.252141
 12
102.334203
 22
10.250668
 13
102.334203
 23
10.250668
  0
SOLID
  8
13
  6
CONTINUOUS
 10
102.522746
 20
10.230979
 11
102.334203
 21
10.250668
 12
102.394518
 22
10.246747
 13
102.394518
 23
10.246747
  0
SOLID
  8
13
  6
CONTINUOUS
 10
102.522746
 20
10.230979
 11
102.394518
 21
10.246747
 12
102.446340
 22
10.241621
 13
102.446340
 23
10.241621
  0
SOLID
  8
13
  6
CONTINUOUS
 10
102.522746
 20
10.230979
 11
102.446340
 21
10.241621
 12
102.490083
 22
10.235974
 13
102.490083
 23
10.235974
  0
SOLID
  8
13
  6
CONTINUOUS
 10
102.522746
 20
10.230979
 11
102.490083
 21
10.235974
 12
102.522746
 22
10.230979
 13
102.522746
 23
10.230979
  0
SOLID
  8
13
  6
CONTINUOUS
 10
102.594246
 20
10.217654
 11
102.594246
 21
9.498246
 12
103.021946
 22
9.498246
 13
103.021946
 23
9.498246
  0
SOLID
  8
13
  6
CONTINUOUS
 10
102.594246
 20
10.217654
 11
103.021946
 21
9.498246
 12
103.021946
 22
10.064184
 13
103.021946
 23
10.064184
  0
SOLID
  8
13
  6
CONTINUOUS
 10
102.594246
 20
10.217654
 11
103.021946
 21
10.064184
 12
103.003898
 22
10.073542
 13
103.003898
 23
10.073542
  0
SOLID
  8
13
  6
CONTINUOUS
 10
102.594246
 20
10.217654
 11
103.003898
 21
10.073542
 12
102.981716
 22
10.084501
 13
102.981716
 23
10.084501
  0
SOLID
  8
13
  6
CONTINUOUS
 10
102.594246
 20
10.217654
 11
102.981716
 21
10.084501
 12
102.953307
 22
10.098271
 13
102.953307
 23
10.098271
  0
SOLID
  8
13
  6
CONTINUOUS
 10
102.594246
 20
10.217654
 11
102.953307
 21
10.098271
 12
102.912865
 22
10.116383
 13
102.912865
 23
10.116383
  0
SOLID
  8
13
  6
CONTINUOUS
 10
102.594246
 20
10.217654
 11
102.912865
 21
10.116383
 12
102.885024
 22
10.128001
 13
102.885024
 23
10.128001
  0
SOLID
  8
13
  6
CONTINUOUS
 10
102.594246
 20
10.217654
 11
102.885024
 21
10.128001
 12
102.844071
 22
10.144755
 13
102.844071
 23
10.144755
  0
SOLID
  8
13
  6
CONTINUOUS
 10
102.594246
 20
10.217654
 11
102.844071
 21
10.144755
 12
102.813490
 22
10.155923
 13
102.813490
 23
10.155923
  0
SOLID
  8
13
  6
CONTINUOUS
 10
102.594246
 20
10.217654
 11
102.813490
 21
10.155923
 12
102.778388
 22
10.168156
 13
102.778388
 23
10.168156
  0
SOLID
  8
13
  6
CONTINUOUS
 10
102.594246
 20
10.217654
 11
102.778388
 21
10.168156
 12
102.744083
 22
10.178793
 13
102.744083
 23
10.178793
  0
SOLID
  8
13
  6
CONTINUOUS
 10
102.594246
 20
10.217654
 11
102.744083
 21
10.178793
 12
102.703465
 22
10.191172
 13
102.703465
 23
10.191172
  0
SOLID
  8
13
  6
CONTINUOUS
 10
102.594246
 20
10.217654
 11
102.703465
 21
10.191172
 12
102.665141
 22
10.201162
 13
102.665141
 23
10.201162
  0
SOLID
  8
13
  6
CONTINUOUS
 10
102.594246
 20
10.217654
 11
102.665141
 21
10.201162
 12
102.624819
 22
10.210970
 13
102.624819
 23
10.210970
  0
SOLID
  8
13
  6
CONTINUOUS
 10
102.594246
 20
10.217654
 11
102.624819
 21
10.210970
 12
102.594246
 22
10.217654
 13
102.594246
 23
10.217654
  0
SOLID
  8
13
  6
CONTINUOUS
 10
103.093446
 20
10.024343
 11
103.093446
 21
9.498246
 12
103.521146
 22
9.498246
 13
103.521146
 23
9.498246
  0
SOLID
  8
13
  6
CONTINUOUS
 10
103.093446
 20
10.024343
 11
103.521146
 21
9.498246
 12
103.521146
 22
9.661030
 13
103.521146
 23
9.661030
  0
SOLID
  8
13
  6
CONTINUOUS
 10
103.093446
 20
10.024343
 11
103.521146
 21
9.661030
 12
103.507797
 22
9.676793
 13
103.507797
 23
9.676793
  0
SOLID
  8
13
  6
CONTINUOUS
 10
103.093446
 20
10.024343
 11
103.507797
 21
9.676793
 12
103.495964
 22
9.690528
 13
103.495964
 23
9.690528
  0
SOLID
  8
13
  6
CONTINUOUS
 10
103.093446
 20
10.024343
 11
103.495964
 21
9.690528
 12
103.473877
 22
9.715277
 13
103.473877
 23
9.715277
  0
SOLID
  8
13
  6
CONTINUOUS
 10
103.093446
 20
10.024343
 11
103.473877
 21
9.715277
 12
103.454164
 22
9.736530
 13
103.454164
 23
9.736530
  0
SOLID
  8
13
  6
CONTINUOUS
 10
103.093446
 20
10.024343
 11
103.454164
 21
9.736530
 12
103.434048
 22
9.757502
 13
103.434048
 23
9.757502
  0
SOLID
  8
13
  6
CONTINUOUS
 10
103.093446
 20
10.024343
 11
103.434048
 21
9.757502
 12
103.410015
 22
9.781535
 13
103.410015
 23
9.781535
  0
SOLID
  8
13
  6
CONTINUOUS
 10
103.093446
 20
10.024343
 11
103.410015
 21
9.781535
 12
103.399294
 22
9.791943
 13
103.399294
 23
9.791943
  0
SOLID
  8
13
  6
CONTINUOUS
 10
103.093446
 20
10.024343
 11
103.399294
 21
9.791943
 12
103.388429
 22
9.802406
 13
103.388429
 23
9.802406
  0
SOLID
  8
13
  6
CONTINUOUS
 10
103.093446
 20
10.024343
 11
103.388429
 21
9.802406
 12
103.359952
 22
9.828752
 13
103.359952
 23
9.828752
  0
SOLID
  8
13
  6
CONTINUOUS
 10
103.093446
 20
10.024343
 11
103.359952
 21
9.828752
 12
103.325139
 22
9.859181
 13
103.325139
 23
9.859181
  0
SOLID
  8
13
  6
CONTINUOUS
 10
103.093446
 20
10.024343
 11
103.325139
 21
9.859181
 12
103.286846
 22
9.890826
 13
103.286846
 23
9.890826
  0
SOLID
  8
13
  6
CONTINUOUS
 10
103.093446
 20
10.024343
 11
103.286846
 21
9.890826
 12
103.251036
 22
9.918745
 13
103.251036
 23
9.918745
  0
SOLID
  8
13
  6
CONTINUOUS
 10
103.093446
 20
10.024343
 11
103.251036
 21
9.918745
 12
103.200839
 22
9.955427
 13
103.200839
 23
9.955427
  0
SOLID
  8
13
  6
CONTINUOUS
 10
103.093446
 20
10.024343
 11
103.200839
 21
9.955427
 12
103.134352
 22
9.999676
 13
103.134352
 23
9.999676
  0
SOLID
  8
13
  6
CONTINUOUS
 10
103.093446
 20
10.024343
 11
103.134352
 21
9.999676
 12
103.093446
 22
10.024343
 13
103.093446
 23
10.024343
  0
SOLID
  8
13
  6
CONTINUOUS
 10
102.522746
 20
10.635283
 11
102.522746
 21
11.162246
 12
102.095046
 22
11.162246
 13
102.095046
 23
11.162246
  0
SOLID
  8
13
  6
CONTINUOUS
 10
102.522746
 20
10.635283
 11
102.095046
 21
11.162246
 12
102.095046
 22
10.995122
 13
102.095046
 23
10.995122
  0
SOLID
  8
13
  6
CONTINUOUS
 10
102.522746
 20
10.635283
 11
102.095046
 21
10.995122
 12
102.153689
 22
10.929235
 13
102.153689
 23
10.929235
  0
SOLID
  8
13
  6
CONTINUOUS
 10
102.522746
 20
10.635283
 11
102.153689
 21
10.929235
 12
102.237359
 22
10.846559
 13
102.237359
 23
10.846559
  0
SOLID
  8
13
  6
CONTINUOUS
 10
102.522746
 20
10.635283
 11
102.237359
 21
10.846559
 12
102.308389
 22
10.784730
 13
102.308389
 23
10.784730
  0
SOLID
  8
13
  6
CONTINUOUS
 10
102.522746
 20
10.635283
 11
102.308389
 21
10.784730
 12
102.366624
 22
10.739274
 13
102.366624
 23
10.739274
  0
SOLID
  8
13
  6
CONTINUOUS
 10
102.522746
 20
10.635283
 11
102.366624
 21
10.739274
 12
102.406322
 22
10.710064
 13
102.406322
 23
10.710064
  0
SOLID
  8
13
  6
CONTINUOUS
 10
102.522746
 20
10.635283
 11
102.406322
 21
10.710064
 12
102.455827
 22
10.676682
 13
102.455827
 23
10.676682
  0
SOLID
  8
13
  6
CONTINUOUS
 10
102.522746
 20
10.635283
 11
102.455827
 21
10.676682
 12
102.493954
 22
10.652515
 13
102.493954
 23
10.652515
  0
SOLID
  8
13
  6
CONTINUOUS
 10
102.522746
 20
10.635283
 11
102.493954
 21
10.652515
 12
102.522746
 22
10.635283
 13
102.522746
 23
10.635283
  0
SOLID
  8
13
  6
CONTINUOUS
 10
103.021946
 20
10.443678
 11
103.021946
 21
11.162246
 12
102.594246
 22
11.162246
 13
102.594246
 23
11.162246
  0
SOLID
  8
13
  6
CONTINUOUS
 10
103.021946
 20
10.443678
 11
102.594246
 21
11.162246
 12
102.594246
 22
10.595859
 13
102.594246
 23
10.595859
  0
SOLID
  8
13
  6
CONTINUOUS
 10
103.021946
 20
10.443678
 11
102.594246
 21
10.595859
 12
102.663800
 22
10.561766
 13
102.663800
 23
10.561766
  0
SOLID
  8
13
  6
CONTINUOUS
 10
103.021946
 20
10.443678
 11
102.663800
 21
10.561766
 12
102.744359
 22
10.527375
 13
102.744359
 23
10.527375
  0
SOLID
  8
13
  6
CONTINUOUS
 10
103.021946
 20
10.443678
 11
102.744359
 21
10.527375
 12
102.812197
 22
10.501464
 13
102.812197
 23
10.501464
  0
SOLID
  8
13
  6
CONTINUOUS
 10
103.021946
 20
10.443678
 11
102.812197
 21
10.501464
 12
102.889458
 22
10.476967
 13
102.889458
 23
10.476967
  0
SOLID
  8
13
  6
CONTINUOUS
 10
103.021946
 20
10.443678
 11
102.889458
 21
10.476967
 12
102.950702
 22
10.460007
 13
102.950702
 23
10.460007
  0
SOLID
  8
13
  6
CONTINUOUS
 10
103.021946
 20
10.443678
 11
102.950702
 21
10.460007
 12
103.021946
 22
10.443678
 13
103.021946
 23
10.443678
  0
SOLID
  8
13
  6
CONTINUOUS
 10
103.093446
 20
10.430307
 11
103.093446
 21
11.162246
 12
103.521146
 22
11.162246
 13
103.521146
 23
11.162246
  0
SOLID
  8
13
  6
CONTINUOUS
 10
103.093446
 20
10.430307
 11
103.521146
 21
11.162246
 12
103.521146
 22
10.417580
 13
103.521146
 23
10.417580
  0
SOLID
  8
13
  6
CONTINUOUS
 10
103.093446
 20
10.430307
 11
103.521146
 21
10.417580
 12
103.476372
 22
10.413637
 13
103.476372
 23
10.413637
  0
SOLID
  8
13
  6
CONTINUOUS
 10
103.093446
 20
10.430307
 11
103.476372
 21
10.413637
 12
103.416577
 22
10.410480
 13
103.416577
 23
10.410480
  0
SOLID
  8
13
  6
CONTINUOUS
 10
103.093446
 20
10.430307
 11
103.416577
 21
10.410480
 12
103.366788
 22
10.409453
 13
103.366788
 23
10.409453
  0
SOLID
  8
13
  6
CONTINUOUS
 10
103.093446
 20
10.430307
 11
103.366788
 21
10.409453
 12
103.336830
 22
10.409453
 13
103.336830
 23
10.409453
  0
SOLID
  8
13
  6
CONTINUOUS
 10
103.093446
 20
10.430307
 11
103.336830
 21
10.409453
 12
103.286182
 22
10.410821
 13
103.286182
 23
10.410821
  0
SOLID
  8
13
  6
CONTINUOUS
 10
103.093446
 20
10.430307
 11
103.286182
 21
10.410821
 12
103.241261
 22
10.413321
 13
103.241261
 23
10.413321
  0
SOLID
  8
13
  6
CONTINUOUS
 10
103.093446
 20
10.430307
 11
103.241261
 21
10.413321
 12
103.205545
 22
10.416539
 13
103.205545
 23
10.416539
  0
SOLID
  8
13
  6
CONTINUOUS
 10
103.093446
 20
10.430307
 11
103.205545
 21
10.416539
 12
103.155349
 22
10.421044
 13
103.155349
 23
10.421044
  0
SOLID
  8
13
  6
CONTINUOUS
 10
103.093446
 20
10.430307
 11
103.155349
 21
10.421044
 12
103.093446
 22
10.430307
 13
103.093446
 23
10.430307
  0
SOLID
  8
13
  6
CONTINUOUS
 10
102.594246
 20
9.498246
 11
102.594246
 21
11.162246
 12
102.522746
 22
11.162246
 13
102.522746
 23
11.162246
  0
SOLID
  8
13
  6
CONTINUOUS
 10
102.594246
 20
9.498246
 11
102.522746
 21
11.162246
 12
102.522746
 22
9.498246
 13
102.522746
 23
9.498246
  0
SOLID
  8
13
  6
CONTINUOUS
 10
102.594246
 20
9.498246
 11
102.522746
 21
9.498246
 12
102.522746
 22
9.498246
 13
102.522746
 23
9.498246
  0
SOLID
  8
13
  6
CONTINUOUS
 10
103.021946
 20
11.162246
 11
103.093446
 21
11.162246
 12
103.093446
 22
9.498246
 13
103.093446
 23
9.498246
  0
SOLID
  8
13
  6
CONTINUOUS
 10
103.021946
 20
11.162246
 11
103.093446
 21
9.498246
 12
103.021946
 22
9.498246
 13
103.021946
 23
9.498246
  0
SOLID
  8
13
  6
CONTINUOUS
 10
103.021946
 20
11.162246
 11
103.021946
 21
9.498246
 12
103.021946
 22
11.162246
 13
103.021946
 23
11.162246
  0
SOLID
  8
13
  6
CONTINUOUS
 10
103.521146
 20
9.498246
 11
103.635546
 21
9.498246
 12
103.635546
 22
11.162246
 13
103.635546
 23
11.162246
  0
SOLID
  8
13
  6
CONTINUOUS
 10
103.521146
 20
9.498246
 11
103.635546
 21
11.162246
 12
103.521146
 22
11.162246
 13
103.521146
 23
11.162246
  0
SOLID
  8
13
  6
CONTINUOUS
 10
103.521146
 20
9.498246
 11
103.521146
 21
11.162246
 12
103.521146
 22
9.498246
 13
103.521146
 23
9.498246
  0
POLYLINE
  8
1
  6
CONTINUOUS
 66
     1
  0
VERTEX
  8
1
  6
CONTINUOUS
 10
73.401650
 20
34.423625
  0
VERTEX
  8
1
  6
CONTINUOUS
 10
72.954577
 20
23.974637
  0
SEQEND
  8
1
  6
CONTINUOUS
  0
POLYLINE
  8
1
  6
CONTINUOUS
 66
     1
  0
VERTEX
  8
1
  6
CONTINUOUS
 10
73.354283
 20
23.959198
  0
VERTEX
  8
1
  6
CONTINUOUS
 10
73.801355
 20
34.408186
  0
SEQEND
  8
1
  6
CONTINUOUS
  0
POLYLINE
  8
1
  6
CONTINUOUS
 66
     1
  0
VERTEX
  8
1
  6
CONTINUOUS
 10
75.235213
 20
50.326755
  0
VERTEX
  8
1
  6
CONTINUOUS
 10
73.432769
 20
34.822722
  0
SEQEND
  8
1
  6
CONTINUOUS
  0
POLYLINE
  8
1
  6
CONTINUOUS
 66
     1
  0
VERTEX
  8
1
  6
CONTINUOUS
 10
73.810023
 20
34.603891
  0
VERTEX
  8
1
  6
CONTINUOUS
 10
75.638803
 20
50.334462
  0
SEQEND
  8
1
  6
CONTINUOUS
  0
POLYLINE
  8
1
  6
CONTINUOUS
 66
     1
  0
VERTEX
  8
1
  6
CONTINUOUS
 10
75.067200
 20
59.086378
  0
VERTEX
  8
1
  6
CONTINUOUS
 10
75.217658
 20
51.326602
  0
SEQEND
  8
1
  6
CONTINUOUS
  0
POLYLINE
  8
1
  6
CONTINUOUS
 66
     1
  0
VERTEX
  8
1
  6
CONTINUOUS
 10
75.617585
 20
51.334239
  0
VERTEX
  8
1
  6
CONTINUOUS
 10
75.467127
 20
59.094015
  0
SEQEND
  8
1
  6
CONTINUOUS
  0
POLYLINE
  8
1
  6
CONTINUOUS
 66
     1
  0
VERTEX
  8
1
  6
CONTINUOUS
 10
74.886088
 20
68.427070
  0
VERTEX
  8
1
  6
CONTINUOUS
 10
75.047814
 20
60.086190
  0
SEQEND
  8
1
  6
CONTINUOUS
  0
POLYLINE
  8
1
  6
CONTINUOUS
 66
     1
  0
VERTEX
  8
1
  6
CONTINUOUS
 10
75.447741
 20
60.093827
  0
VERTEX
  8
1
  6
CONTINUOUS
 10
75.285253
 20
68.474003
  0
SEQEND
  8
1
  6
CONTINUOUS
  0
POLYLINE
  8
1
  6
CONTINUOUS
 66
     1
  0
VERTEX
  8
1
  6
CONTINUOUS
 10
14.565257
 20
61.995340
  0
VERTEX
  8
1
  6
CONTINUOUS
 10
4.881881
 20
60.835279
  0
SEQEND
  8
1
  6
CONTINUOUS
  0
POLYLINE
  8
1
  6
CONTINUOUS
 66
     1
  0
VERTEX
  8
1
  6
CONTINUOUS
 10
4.928591
 20
60.438014
  0
VERTEX
  8
1
  6
CONTINUOUS
 10
14.611967
 20
61.598076
  0
SEQEND
  8
1
  6
CONTINUOUS
  0
POLYLINE
  8
1
  6
CONTINUOUS
 66
     1
  0
VERTEX
  8
1
  6
CONTINUOUS
 10
23.998309
 20
63.124764
  0
VERTEX
  8
1
  6
CONTINUOUS
 10
15.558164
 20
62.114253
  0
SEQEND
  8
1
  6
CONTINUOUS
  0
POLYLINE
  8
1
  6
CONTINUOUS
 66
     1
  0
VERTEX
  8
1
  6
CONTINUOUS
 10
15.604874
 20
61.716989
  0
VERTEX
  8
1
  6
CONTINUOUS
 10
24.045019
 20
62.727499
  0
SEQEND
  8
1
  6
CONTINUOUS
  0
POLYLINE
  8
1
  6
CONTINUOUS
 66
     1
  0
VERTEX
  8
1
  6
CONTINUOUS
 10
30.474389
 20
63.900744
  0
VERTEX
  8
1
  6
CONTINUOUS
 10
24.395471
 20
63.172334
  0
SEQEND
  8
1
  6
CONTINUOUS
  0
POLYLINE
  8
1
  6
CONTINUOUS
 66
     1
  0
VERTEX
  8
1
  6
CONTINUOUS
 10
24.442181
 20
62.775070
  0
VERTEX
  8
1
  6
CONTINUOUS
 10
30.124051
 20
63.455903
  0
SEQEND
  8
1
  6
CONTINUOUS
  0
POLYLINE
  8
1
  6
CONTINUOUS
 66
     1
  0
VERTEX
  8
1
  6
CONTINUOUS
 10
19.346785
 20
16.587055
  0
VERTEX
  8
1
  6
CONTINUOUS
 10
10.637364
 20
15.607003
  0
SEQEND
  8
1
  6
CONTINUOUS
  0
POLYLINE
  8
1
  6
CONTINUOUS
 66
     1
  0
VERTEX
  8
1
  6
CONTINUOUS
 10
10.684075
 20
15.209735
  0
VERTEX
  8
1
  6
CONTINUOUS
 10
19.393496
 20
16.189787
  0
SEQEND
  8
1
  6
CONTINUOUS
  0
POLYLINE
  8
1
  6
CONTINUOUS
 66
     1
  0
VERTEX
  8
1
  6
CONTINUOUS
 10
28.257888
 20
17.582096
  0
VERTEX
  8
1
  6
CONTINUOUS
 10
20.141820
 20
16.676160
  0
SEQEND
  8
1
  6
CONTINUOUS
  0
POLYLINE
  8
1
  6
CONTINUOUS
 66
     1
  0
VERTEX
  8
1
  6
CONTINUOUS
 10
20.188530
 20
16.278890
  0
VERTEX
  8
1
  6
CONTINUOUS
 10
28.304599
 20
17.184825
  0
SEQEND
  8
1
  6
CONTINUOUS
  0
POLYLINE
  8
1
  6
CONTINUOUS
 66
     1
  0
VERTEX
  8
1
  6
CONTINUOUS
 10
35.503395
 20
18.390857
  0
VERTEX
  8
1
  6
CONTINUOUS
 10
29.052964
 20
17.670844
  0
SEQEND
  8
1
  6
CONTINUOUS
  0
POLYLINE
  8
1
  6
CONTINUOUS
 66
     1
  0
VERTEX
  8
1
  6
CONTINUOUS
 10
29.099675
 20
17.273574
  0
VERTEX
  8
1
  6
CONTINUOUS
 10
35.948536
 20
18.038061
  0
SEQEND
  8
1
  6
CONTINUOUS
  0
POLYLINE
  8
1
  6
CONTINUOUS
 66
     1
  0
VERTEX
  8
1
  6
CONTINUOUS
 10
8.597074
 20
26.035398
  0
VERTEX
  8
1
  6
CONTINUOUS
 10
9.842543
 20
15.517186
  0
SEQEND
  8
1
  6
CONTINUOUS
  0
POLYLINE
  8
1
  6
CONTINUOUS
 66
     1
  0
VERTEX
  8
1
  6
CONTINUOUS
 10
10.239806
 20
15.563896
  0
VERTEX
  8
1
  6
CONTINUOUS
 10
8.994353
 20
26.081984
  0
SEQEND
  8
1
  6
CONTINUOUS
  0
POLYLINE
  8
1
  6
CONTINUOUS
 66
     1
  0
VERTEX
  8
1
  6
CONTINUOUS
 10
7.185240
 20
37.965762
  0
VERTEX
  8
1
  6
CONTINUOUS
 10
8.479522
 20
27.028466
  0
SEQEND
  8
1
  6
CONTINUOUS
  0
POLYLINE
  8
1
  6
CONTINUOUS
 66
     1
  0
VERTEX
  8
1
  6
CONTINUOUS
 10
8.876800
 20
27.075051
  0
VERTEX
  8
1
  6
CONTINUOUS
 10
7.582519
 20
38.012347
  0
SEQEND
  8
1
  6
CONTINUOUS
  0
POLYLINE
  8
1
  6
CONTINUOUS
 66
     1
  0
VERTEX
  8
1
  6
CONTINUOUS
 10
5.812086
 20
49.569574
  0
VERTEX
  8
1
  6
CONTINUOUS
 10
7.067724
 20
38.958833
  0
SEQEND
  8
1
  6
CONTINUOUS
  0
POLYLINE
  8
1
  6
CONTINUOUS
 66
     1
  0
VERTEX
  8
1
  6
CONTINUOUS
 10
7.465002
 20
39.005418
  0
VERTEX
  8
1
  6
CONTINUOUS
 10
6.209364
 20
49.616159
  0
SEQEND
  8
1
  6
CONTINUOUS
  0
POLYLINE
  8
1
  6
CONTINUOUS
 66
     1
  0
VERTEX
  8
1
  6
CONTINUOUS
 10
4.578613
 20
59.994093
  0
VERTEX
  8
1
  6
CONTINUOUS
 10
5.765082
 20
49.966803
  0
SEQEND
  8
1
  6
CONTINUOUS
  0
POLYLINE
  8
1
  6
CONTINUOUS
 66
     1
  0
VERTEX
  8
1
  6
CONTINUOUS
 10
6.162360
 20
50.013388
  0
VERTEX
  8
1
  6
CONTINUOUS
 10
4.975876
 20
60.040803
  0
SEQEND
  8
1
  6
CONTINUOUS
  0
POLYLINE
  8
1
  6
CONTINUOUS
 66
     1
  0
VERTEX
  8
1
  6
CONTINUOUS
 10
47.886559
 20
65.619867
  0
VERTEX
  8
1
  6
CONTINUOUS
 10
33.303475
 20
63.879724
  0
SEQEND
  8
1
  6
CONTINUOUS
  0
POLYLINE
  8
1
  6
CONTINUOUS
 66
     1
  0
VERTEX
  8
1
  6
CONTINUOUS
 10
33.350185
 20
63.482460
  0
VERTEX
  8
1
  6
CONTINUOUS
 10
47.933269
 20
65.222603
  0
SEQEND
  8
1
  6
CONTINUOUS
  0
POLYLINE
  8
1
  6
CONTINUOUS
 66
     1
  0
VERTEX
  8
1
  6
CONTINUOUS
 10
59.850123
 20
67.039728
  0
VERTEX
  8
1
  6
CONTINUOUS
 10
48.879555
 20
65.738023
  0
SEQEND
  8
1
  6
CONTINUOUS
  0
POLYLINE
  8
1
  6
CONTINUOUS
 66
     1
  0
VERTEX
  8
1
  6
CONTINUOUS
 10
48.926265
 20
65.340760
  0
VERTEX
  8
1
  6
CONTINUOUS
 10
59.896833
 20
66.642465
  0
SEQEND
  8
1
  6
CONTINUOUS
  0
POLYLINE
  8
1
  6
CONTINUOUS
 66
     1
  0
VERTEX
  8
1
  6
CONTINUOUS
 10
74.444078
 20
68.777284
  0
VERTEX
  8
1
  6
CONTINUOUS
 10
60.247327
 20
67.086940
  0
SEQEND
  8
1
  6
CONTINUOUS
  0
POLYLINE
  8
1
  6
CONTINUOUS
 66
     1
  0
VERTEX
  8
1
  6
CONTINUOUS
 10
60.294037
 20
66.689676
  0
VERTEX
  8
1
  6
CONTINUOUS
 10
74.490788
 20
68.380020
  0
SEQEND
  8
1
  6
CONTINUOUS
  0
POLYLINE
  8
1
  6
CONTINUOUS
 66
     1
  0
VERTEX
  8
1
  6
CONTINUOUS
 10
35.334610
 20
19.799274
  0
VERTEX
  8
1
  6
CONTINUOUS
 10
35.503395
 20
18.390857
  0
SEQEND
  8
1
  6
CONTINUOUS
  0
POLYLINE
  8
1
  6
CONTINUOUS
 66
     1
  0
VERTEX
  8
1
  6
CONTINUOUS
 10
35.948536
 20
18.038061
  0
VERTEX
  8
1
  6
CONTINUOUS
 10
35.731890
 20
19.845859
  0
SEQEND
  8
1
  6
CONTINUOUS
  0
POLYLINE
  8
1
  6
CONTINUOUS
 66
     1
  0
VERTEX
  8
1
  6
CONTINUOUS
 10
34.228018
 20
29.033203
  0
VERTEX
  8
1
  6
CONTINUOUS
 10
35.239419
 20
20.593593
  0
SEQEND
  8
1
  6
CONTINUOUS
  0
POLYLINE
  8
1
  6
CONTINUOUS
 66
     1
  0
VERTEX
  8
1
  6
CONTINUOUS
 10
35.636699
 20
20.640178
  0
VERTEX
  8
1
  6
CONTINUOUS
 10
34.625298
 20
29.079788
  0
SEQEND
  8
1
  6
CONTINUOUS
  0
POLYLINE
  8
1
  6
CONTINUOUS
 66
     1
  0
VERTEX
  8
1
  6
CONTINUOUS
 10
32.798674
 20
40.960795
  0
VERTEX
  8
1
  6
CONTINUOUS
 10
34.109032
 20
30.026102
  0
SEQEND
  8
1
  6
CONTINUOUS
  0
POLYLINE
  8
1
  6
CONTINUOUS
 66
     1
  0
VERTEX
  8
1
  6
CONTINUOUS
 10
34.506311
 20
30.072687
  0
VERTEX
  8
1
  6
CONTINUOUS
 10
33.195954
 20
41.007381
  0
SEQEND
  8
1
  6
CONTINUOUS
  0
POLYLINE
  8
1
  6
CONTINUOUS
 66
     1
  0
VERTEX
  8
1
  6
CONTINUOUS
 10
31.408289
 20
52.563304
  0
VERTEX
  8
1
  6
CONTINUOUS
 10
32.679690
 20
41.953695
  0
SEQEND
  8
1
  6
CONTINUOUS
  0
POLYLINE
  8
1
  6
CONTINUOUS
 66
     1
  0
VERTEX
  8
1
  6
CONTINUOUS
 10
33.076970
 20
42.000280
  0
VERTEX
  8
1
  6
CONTINUOUS
 10
31.805568
 20
52.609890
  0
SEQEND
  8
1
  6
CONTINUOUS
  0
POLYLINE
  8
1
  6
CONTINUOUS
 66
     1
  0
VERTEX
  8
1
  6
CONTINUOUS
 10
30.355106
 20
61.495547
  0
VERTEX
  8
1
  6
CONTINUOUS
 10
31.361082
 20
52.960510
  0
SEQEND
  8
1
  6
CONTINUOUS
  0
POLYLINE
  8
1
  6
CONTINUOUS
 66
     1
  0
VERTEX
  8
1
  6
CONTINUOUS
 10
31.758360
 20
53.007095
  0
VERTEX
  8
1
  6
CONTINUOUS
 10
30.752385
 20
61.542132
  0
SEQEND
  8
1
  6
CONTINUOUS
  0
POLYLINE
  8
1
  6
CONTINUOUS
 66
     1
  0
VERTEX
  8
1
  6
CONTINUOUS
 10
30.124051
 20
63.455903
  0
VERTEX
  8
1
  6
CONTINUOUS
 10
30.261463
 20
62.290048
  0
SEQEND
  8
1
  6
CONTINUOUS
  0
POLYLINE
  8
1
  6
CONTINUOUS
 66
     1
  0
VERTEX
  8
1
  6
CONTINUOUS
 10
30.658741
 20
62.336633
  0
VERTEX
  8
1
  6
CONTINUOUS
 10
30.474389
 20
63.900744
  0
SEQEND
  8
1
  6
CONTINUOUS
  0
POLYLINE
  8
1
  6
CONTINUOUS
 66
     1
  0
VERTEX
  8
1
  6
CONTINUOUS
 10
50.165748
 20
20.640965
  0
VERTEX
  8
1
  6
CONTINUOUS
 10
38.574849
 20
19.179339
  0
SEQEND
  8
1
  6
CONTINUOUS
  0
POLYLINE
  8
1
  6
CONTINUOUS
 66
     1
  0
VERTEX
  8
1
  6
CONTINUOUS
 10
38.621561
 20
18.782062
  0
VERTEX
  8
1
  6
CONTINUOUS
 10
50.212459
 20
20.243688
  0
SEQEND
  8
1
  6
CONTINUOUS
  0
POLYLINE
  8
1
  6
CONTINUOUS
 66
     1
  0
VERTEX
  8
1
  6
CONTINUOUS
 10
62.391757
 20
22.182680
  0
VERTEX
  8
1
  6
CONTINUOUS
 10
50.562619
 20
20.691011
  0
SEQEND
  8
1
  6
CONTINUOUS
  0
POLYLINE
  8
1
  6
CONTINUOUS
 66
     1
  0
VERTEX
  8
1
  6
CONTINUOUS
 10
50.609330
 20
20.293734
  0
VERTEX
  8
1
  6
CONTINUOUS
 10
62.438468
 20
21.785402
  0
SEQEND
  8
1
  6
CONTINUOUS
  0
POLYLINE
  8
1
  6
CONTINUOUS
 66
     1
  0
VERTEX
  8
1
  6
CONTINUOUS
 10
72.936293
 20
23.544103
  0
VERTEX
  8
1
  6
CONTINUOUS
 10
63.383752
 20
22.309344
  0
SEQEND
  8
1
  6
CONTINUOUS
  0
POLYLINE
  8
1
  6
CONTINUOUS
 66
     1
  0
VERTEX
  8
1
  6
CONTINUOUS
 10
63.430465
 20
21.912055
  0
VERTEX
  8
1
  6
CONTINUOUS
 10
73.138641
 20
23.166931
  0
SEQEND
  8
1
  6
CONTINUOUS
  0
POLYLINE
  8
1
  6
CONTINUOUS
 66
     1
  0
VERTEX
  8
1
  6
CONTINUOUS
 10
36.935229
 20
29.660246
  0
VERTEX
  8
1
  6
CONTINUOUS
 10
38.130894
 20
19.528196
  0
SEQEND
  8
1
  6
CONTINUOUS
  0
POLYLINE
  8
1
  6
CONTINUOUS
 66
     1
  0
VERTEX
  8
1
  6
CONTINUOUS
 10
38.528157
 20
19.574906
  0
VERTEX
  8
1
  6
CONTINUOUS
 10
37.332507
 20
29.706831
  0
SEQEND
  8
1
  6
CONTINUOUS
  0
POLYLINE
  8
1
  6
CONTINUOUS
 66
     1
  0
VERTEX
  8
1
  6
CONTINUOUS
 10
35.564296
 20
41.291790
  0
VERTEX
  8
1
  6
CONTINUOUS
 10
36.888380
 20
30.057493
  0
SEQEND
  8
1
  6
CONTINUOUS
  0
POLYLINE
  8
1
  6
CONTINUOUS
 66
     1
  0
VERTEX
  8
1
  6
CONTINUOUS
 10
37.285658
 20
30.104078
  0
VERTEX
  8
1
  6
CONTINUOUS
 10
35.961574
 20
41.338375
  0
SEQEND
  8
1
  6
CONTINUOUS
  0
POLYLINE
  8
1
  6
CONTINUOUS
 66
     1
  0
VERTEX
  8
1
  6
CONTINUOUS
 10
34.196405
 20
52.897779
  0
VERTEX
  8
1
  6
CONTINUOUS
 10
35.517476
 20
41.689040
  0
SEQEND
  8
1
  6
CONTINUOUS
  0
POLYLINE
  8
1
  6
CONTINUOUS
 66
     1
  0
VERTEX
  8
1
  6
CONTINUOUS
 10
35.914754
 20
41.735625
  0
VERTEX
  8
1
  6
CONTINUOUS
 10
34.593683
 20
52.944364
  0
SEQEND
  8
1
  6
CONTINUOUS
  0
POLYLINE
  8
1
  6
CONTINUOUS
 66
     1
  0
VERTEX
  8
1
  6
CONTINUOUS
 10
33.001195
 20
63.038354
  0
VERTEX
  8
1
  6
CONTINUOUS
 10
34.149584
 20
53.295030
  0
SEQEND
  8
1
  6
CONTINUOUS
  0
POLYLINE
  8
1
  6
CONTINUOUS
 66
     1
  0
VERTEX
  8
1
  6
CONTINUOUS
 10
34.546862
 20
53.341615
  0
VERTEX
  8
1
  6
CONTINUOUS
 10
33.398458
 20
63.085064
  0
SEQEND
  8
1
  6
CONTINUOUS
  0
POLYLINE
  8
1
  6
CONTINUOUS
 66
     1
  0
VERTEX
  8
1
  6
CONTINUOUS
 10
91.772323
 20
32.295601
  0
VERTEX
  8
1
  6
CONTINUOUS
 10
87.884283
 20
31.881882
  0
SEQEND
  8
1
  6
CONTINUOUS
  0
POLYLINE
  8
1
  6
CONTINUOUS
 66
     1
  0
VERTEX
  8
1
  6
CONTINUOUS
 10
87.926608
 20
31.484128
  0
VERTEX
  8
1
  6
CONTINUOUS
 10
91.953861
 20
31.912660
  0
SEQEND
  8
1
  6
CONTINUOUS
  0
POLYLINE
  8
1
  6
CONTINUOUS
 66
     1
  0
VERTEX
  8
1
  6
CONTINUOUS
 10
95.938811
 20
32.738949
  0
VERTEX
  8
1
  6
CONTINUOUS
 10
92.050751
 20
32.325228
  0
SEQEND
  8
1
  6
CONTINUOUS
  0
POLYLINE
  8
1
  6
CONTINUOUS
 66
     1
  0
VERTEX
  8
1
  6
CONTINUOUS
 10
91.953861
 20
31.912660
  0
VERTEX
  8
1
  6
CONTINUOUS
 10
95.981137
 20
32.341194
  0
SEQEND
  8
1
  6
CONTINUOUS
  0
POLYLINE
  8
1
  6
CONTINUOUS
 66
     1
  0
VERTEX
  8
1
  6
CONTINUOUS
 10
87.084448
 20
35.618225
  0
VERTEX
  8
1
  6
CONTINUOUS
 10
87.486528
 20
31.839557
  0
SEQEND
  8
1
  6
CONTINUOUS
  0
POLYLINE
  8
1
  6
CONTINUOUS
 66
     1
  0
VERTEX
  8
1
  6
CONTINUOUS
 10
87.884283
 20
31.881882
  0
VERTEX
  8
1
  6
CONTINUOUS
 10
87.482203
 20
35.660550
  0
SEQEND
  8
1
  6
CONTINUOUS
  0
POLYLINE
  8
1
  6
CONTINUOUS
 66
     1
  0
VERTEX
  8
1
  6
CONTINUOUS
 10
91.467132
 20
36.486838
  0
VERTEX
  8
1
  6
CONTINUOUS
 10
87.439878
 20
36.058305
  0
SEQEND
  8
1
  6
CONTINUOUS
  0
POLYLINE
  8
1
  6
CONTINUOUS
 66
     1
  0
VERTEX
  8
1
  6
CONTINUOUS
 10
87.482203
 20
35.660550
  0
VERTEX
  8
1
  6
CONTINUOUS
 10
91.370242
 20
36.074270
  0
SEQEND
  8
1
  6
CONTINUOUS
  0
POLYLINE
  8
1
  6
CONTINUOUS
 66
     1
  0
VERTEX
  8
1
  6
CONTINUOUS
 10
93.738856
 20
36.728568
  0
VERTEX
  8
1
  6
CONTINUOUS
 10
91.467132
 20
36.486838
  0
SEQEND
  8
1
  6
CONTINUOUS
  0
POLYLINE
  8
1
  6
CONTINUOUS
 66
     1
  0
VERTEX
  8
1
  6
CONTINUOUS
 10
91.648670
 20
36.103897
  0
VERTEX
  8
1
  6
CONTINUOUS
 10
94.460018
 20
36.403048
  0
SEQEND
  8
1
  6
CONTINUOUS
  0
POLYLINE
  8
1
  6
CONTINUOUS
 66
     1
  0
VERTEX
  8
1
  6
CONTINUOUS
 10
95.494407
 20
36.915374
  0
VERTEX
  8
1
  6
CONTINUOUS
 10
95.138856
 20
36.877540
  0
SEQEND
  8
1
  6
CONTINUOUS
  0
POLYLINE
  8
1
  6
CONTINUOUS
 66
     1
  0
VERTEX
  8
1
  6
CONTINUOUS
 10
94.460018
 20
36.403048
  0
VERTEX
  8
1
  6
CONTINUOUS
 10
95.536732
 20
36.517619
  0
SEQEND
  8
1
  6
CONTINUOUS
  0
POLYLINE
  8
1
  6
CONTINUOUS
 66
     1
  0
VERTEX
  8
1
  6
CONTINUOUS
 10
102.043140
 20
37.612213
  0
VERTEX
  8
1
  6
CONTINUOUS
 10
95.892162
 20
36.957698
  0
SEQEND
  8
1
  6
CONTINUOUS
  0
POLYLINE
  8
1
  6
CONTINUOUS
 66
     1
  0
VERTEX
  8
1
  6
CONTINUOUS
 10
95.934487
 20
36.559943
  0
VERTEX
  8
1
  6
CONTINUOUS
 10
102.039029
 20
37.209518
  0
SEQEND
  8
1
  6
CONTINUOUS
  0
POLYLINE
  8
1
  6
CONTINUOUS
 66
     1
  0
VERTEX
  8
1
  6
CONTINUOUS
 10
95.536732
 20
36.517619
  0
VERTEX
  8
1
  6
CONTINUOUS
 10
95.938812
 20
32.738949
  0
SEQEND
  8
1
  6
CONTINUOUS
  0
POLYLINE
  8
1
  6
CONTINUOUS
 66
     1
  0
VERTEX
  8
1
  6
CONTINUOUS
 10
96.336566
 20
32.781273
  0
VERTEX
  8
1
  6
CONTINUOUS
 10
95.934487
 20
36.559943
  0
SEQEND
  8
1
  6
CONTINUOUS
  0
POLYLINE
  8
1
  6
CONTINUOUS
 66
     1
  0
VERTEX
  8
1
  6
CONTINUOUS
 10
90.910068
 20
25.096901
  0
VERTEX
  8
1
  6
CONTINUOUS
 10
77.500358
 20
23.521998
  0
SEQEND
  8
1
  6
CONTINUOUS
  0
POLYLINE
  8
1
  6
CONTINUOUS
 66
     1
  0
VERTEX
  8
1
  6
CONTINUOUS
 10
77.547019
 20
23.124729
  0
VERTEX
  8
1
  6
CONTINUOUS
 10
90.956729
 20
24.699632
  0
SEQEND
  8
1
  6
CONTINUOUS
  0
POLYLINE
  8
1
  6
CONTINUOUS
 66
     1
  0
VERTEX
  8
1
  6
CONTINUOUS
 10
101.873164
 20
26.384462
  0
VERTEX
  8
1
  6
CONTINUOUS
 10
91.307337
 20
25.143559
  0
SEQEND
  8
1
  6
CONTINUOUS
  0
POLYLINE
  8
1
  6
CONTINUOUS
 66
     1
  0
VERTEX
  8
1
  6
CONTINUOUS
 10
91.353999
 20
24.746290
  0
VERTEX
  8
1
  6
CONTINUOUS
 10
101.919825
 20
25.987193
  0
SEQEND
  8
1
  6
CONTINUOUS
  0
POLYLINE
  8
1
  6
CONTINUOUS
 66
     1
  0
VERTEX
  8
1
  6
CONTINUOUS
 10
77.009174
 20
34.649883
  0
VERTEX
  8
1
  6
CONTINUOUS
 10
76.881125
 20
23.650651
  0
SEQEND
  8
1
  6
CONTINUOUS
  0
POLYLINE
  8
1
  6
CONTINUOUS
 66
     1
  0
VERTEX
  8
1
  6
CONTINUOUS
 10
77.481534
 20
23.682262
  0
VERTEX
  8
1
  6
CONTINUOUS
 10
77.605644
 20
34.343170
  0
SEQEND
  8
1
  6
CONTINUOUS
  0
POLYLINE
  8
1
  6
CONTINUOUS
 66
     1
  0
VERTEX
  8
1
  6
CONTINUOUS
 10
77.129734
 20
45.005897
  0
VERTEX
  8
1
  6
CONTINUOUS
 10
77.009174
 20
34.649883
  0
SEQEND
  8
1
  6
CONTINUOUS
  0
POLYLINE
  8
1
  6
CONTINUOUS
 66
     1
  0
VERTEX
  8
1
  6
CONTINUOUS
 10
77.612628
 20
34.943129
  0
VERTEX
  8
1
  6
CONTINUOUS
 10
77.723913
 20
44.502404
  0
SEQEND
  8
1
  6
CONTINUOUS
  0
POLYLINE
  8
1
  6
CONTINUOUS
 66
     1
  0
VERTEX
  8
1
  6
CONTINUOUS
 10
77.247090
 20
55.086642
  0
VERTEX
  8
1
  6
CONTINUOUS
 10
77.129734
 20
45.005897
  0
SEQEND
  8
1
  6
CONTINUOUS
  0
POLYLINE
  8
1
  6
CONTINUOUS
 66
     1
  0
VERTEX
  8
1
  6
CONTINUOUS
 10
77.735555
 20
45.502404
  0
VERTEX
  8
1
  6
CONTINUOUS
 10
77.844764
 20
54.883339
  0
SEQEND
  8
1
  6
CONTINUOUS
  0
POLYLINE
  8
1
  6
CONTINUOUS
 66
     1
  0
VERTEX
  8
1
  6
CONTINUOUS
 10
77.414126
 20
69.305959
  0
VERTEX
  8
1
  6
CONTINUOUS
 10
77.254106
 20
55.686601
  0
SEQEND
  8
1
  6
CONTINUOUS
  0
POLYLINE
  8
1
  6
CONTINUOUS
 66
     1
  0
VERTEX
  8
1
  6
CONTINUOUS
 10
77.856459
 20
55.883339
  0
VERTEX
  8
1
  6
CONTINUOUS
 10
78.007953
 20
68.777035
  0
SEQEND
  8
1
  6
CONTINUOUS
  0
POLYLINE
  8
1
  6
CONTINUOUS
 66
     1
  0
VERTEX
  8
1
  6
CONTINUOUS
 10
89.233188
 20
70.817939
  0
VERTEX
  8
1
  6
CONTINUOUS
 10
78.009264
 20
69.380486
  0
SEQEND
  8
1
  6
CONTINUOUS
  0
POLYLINE
  8
1
  6
CONTINUOUS
 66
     1
  0
VERTEX
  8
1
  6
CONTINUOUS
 10
78.072709
 20
68.884528
  0
VERTEX
  8
1
  6
CONTINUOUS
 10
89.296634
 20
70.321980
  0
SEQEND
  8
1
  6
CONTINUOUS
  0
POLYLINE
  8
1
  6
CONTINUOUS
 66
     1
  0
VERTEX
  8
1
  6
CONTINUOUS
 10
94.407130
 20
71.479900
  0
VERTEX
  8
1
  6
CONTINUOUS
 10
89.629951
 20
70.868725
  0
SEQEND
  8
1
  6
CONTINUOUS
  0
POLYLINE
  8
1
  6
CONTINUOUS
 66
     1
  0
VERTEX
  8
1
  6
CONTINUOUS
 10
89.693396
 20
70.372767
  0
VERTEX
  8
1
  6
CONTINUOUS
 10
93.738856
 20
70.890328
  0
SEQEND
  8
1
  6
CONTINUOUS
  0
POLYLINE
  8
1
  6
CONTINUOUS
 66
     1
  0
VERTEX
  8
1
  6
CONTINUOUS
 10
102.338647
 20
72.494628
  0
VERTEX
  8
1
  6
CONTINUOUS
 10
94.407130
 20
71.479900
  0
SEQEND
  8
1
  6
CONTINUOUS
  0
POLYLINE
  8
1
  6
CONTINUOUS
 66
     1
  0
VERTEX
  8
1
  6
CONTINUOUS
 10
95.138856
 20
71.069439
  0
VERTEX
  8
1
  6
CONTINUOUS
 10
102.398366
 20
71.998193
  0
SEQEND
  8
1
  6
CONTINUOUS
  0
POLYLINE
  8
1
  6
CONTINUOUS
 66
     1
  0
VERTEX
  8
1
  6
CONTINUOUS
 10
102.398366
 20
71.998193
  0
VERTEX
  8
1
  6
CONTINUOUS
 10
102.269777
 20
58.151491
  0
SEQEND
  8
1
  6
CONTINUOUS
  0
POLYLINE
  8
1
  6
CONTINUOUS
 66
     1
  0
VERTEX
  8
1
  6
CONTINUOUS
 10
102.666450
 20
57.791443
  0
VERTEX
  8
1
  6
CONTINUOUS
 10
102.798859
 20
72.049428
  0
SEQEND
  8
1
  6
CONTINUOUS
  0
POLYLINE
  8
1
  6
CONTINUOUS
 66
     1
  0
VERTEX
  8
1
  6
CONTINUOUS
 10
102.225113
 20
58.146739
  0
VERTEX
  8
1
  6
CONTINUOUS
 10
95.155937
 20
57.394526
  0
SEQEND
  8
1
  6
CONTINUOUS
  0
POLYLINE
  8
1
  6
CONTINUOUS
 66
     1
  0
VERTEX
  8
1
  6
CONTINUOUS
 10
95.198262
 20
56.996772
  0
VERTEX
  8
1
  6
CONTINUOUS
 10
102.267438
 20
57.748985
  0
SEQEND
  8
1
  6
CONTINUOUS
  0
POLYLINE
  8
1
  6
CONTINUOUS
 66
     1
  0
VERTEX
  8
1
  6
CONTINUOUS
 10
102.039284
 20
37.212231
  0
VERTEX
  8
1
  6
CONTINUOUS
 10
101.918959
 20
26.389846
  0
SEQEND
  8
1
  6
CONTINUOUS
  0
POLYLINE
  8
1
  6
CONTINUOUS
 66
     1
  0
VERTEX
  8
1
  6
CONTINUOUS
 10
102.315205
 20
26.049942
  0
VERTEX
  8
1
  6
CONTINUOUS
 10
102.439260
 20
37.207854
  0
SEQEND
  8
1
  6
CONTINUOUS
  0
POLYLINE
  8
1
  6
CONTINUOUS
 66
     1
  0
VERTEX
  8
1
  6
CONTINUOUS
 10
91.370242
 20
36.074270
  0
VERTEX
  8
1
  6
CONTINUOUS
 10
91.772323
 20
32.295601
  0
SEQEND
  8
1
  6
CONTINUOUS
  0
POLYLINE
  8
1
  6
CONTINUOUS
 66
     1
  0
VERTEX
  8
1
  6
CONTINUOUS
 10
92.050751
 20
32.325228
  0
VERTEX
  8
1
  6
CONTINUOUS
 10
91.648670
 20
36.103897
  0
SEQEND
  8
1
  6
CONTINUOUS
  0
POLYLINE
  8
1
  6
CONTINUOUS
 66
     1
  0
VERTEX
  8
1
  6
CONTINUOUS
 10
93.738856
 20
44.502404
  0
VERTEX
  8
1
  6
CONTINUOUS
 10
93.738856
 20
36.728568
  0
SEQEND
  8
1
  6
CONTINUOUS
  0
POLYLINE
  8
1
  6
CONTINUOUS
 66
     1
  0
VERTEX
  8
1
  6
CONTINUOUS
 10
95.138856
 20
36.877540
  0
VERTEX
  8
1
  6
CONTINUOUS
 10
95.138856
 20
44.502404
  0
SEQEND
  8
1
  6
CONTINUOUS
  0
POLYLINE
  8
1
  6
CONTINUOUS
 66
     1
  0
VERTEX
  8
1
  6
CONTINUOUS
 10
93.738856
 20
54.883339
  0
VERTEX
  8
1
  6
CONTINUOUS
 10
93.738856
 20
45.502404
  0
SEQEND
  8
1
  6
CONTINUOUS
  0
POLYLINE
  8
1
  6
CONTINUOUS
 66
     1
  0
VERTEX
  8
1
  6
CONTINUOUS
 10
95.138856
 20
45.502404
  0
VERTEX
  8
1
  6
CONTINUOUS
 10
95.138856
 20
55.383339
  0
SEQEND
  8
1
  6
CONTINUOUS
  0
POLYLINE
  8
1
  6
CONTINUOUS
 66
     1
  0
VERTEX
  8
1
  6
CONTINUOUS
 10
93.738856
 20
56.841477
  0
VERTEX
  8
1
  6
CONTINUOUS
 10
93.738856
 20
55.883339
  0
SEQEND
  8
1
  6
CONTINUOUS
  0
POLYLINE
  8
1
  6
CONTINUOUS
 66
     1
  0
VERTEX
  8
1
  6
CONTINUOUS
 10
95.138856
 20
55.383339
  0
VERTEX
  8
1
  6
CONTINUOUS
 10
95.138856
 20
56.990452
  0
SEQEND
  8
1
  6
CONTINUOUS
  0
POLYLINE
  8
1
  6
CONTINUOUS
 66
     1
  0
VERTEX
  8
1
  6
CONTINUOUS
 10
93.738856
 20
70.890328
  0
VERTEX
  8
1
  6
CONTINUOUS
 10
93.738856
 20
57.243736
  0
SEQEND
  8
1
  6
CONTINUOUS
  0
POLYLINE
  8
1
  6
CONTINUOUS
 66
     1
  0
VERTEX
  8
1
  6
CONTINUOUS
 10
95.138856
 20
57.392710
  0
VERTEX
  8
1
  6
CONTINUOUS
 10
95.138856
 20
71.069439
  0
SEQEND
  8
1
  6
CONTINUOUS
  0
POLYLINE
  8
1
  6
CONTINUOUS
 66
     1
  0
VERTEX
  8
1
  6
CONTINUOUS
 10
93.738856
 20
55.883339
  0
VERTEX
  8
1
  6
CONTINUOUS
 10
77.856459
 20
55.883339
  0
SEQEND
  8
1
  6
CONTINUOUS
  0
POLYLINE
  8
1
  6
CONTINUOUS
 66
     1
  0
VERTEX
  8
1
  6
CONTINUOUS
 10
77.844764
 20
54.883339
  0
VERTEX
  8
1
  6
CONTINUOUS
 10
93.738856
 20
54.883339
  0
SEQEND
  8
1
  6
CONTINUOUS
  0
POLYLINE
  8
1
  6
CONTINUOUS
 66
     1
  0
VERTEX
  8
1
  6
CONTINUOUS
 10
77.856459
 20
55.883339
  0
VERTEX
  8
1
  6
CONTINUOUS
 10
77.856459
 20
55.680009
  0
SEQEND
  8
1
  6
CONTINUOUS
  0
POLYLINE
  8
1
  6
CONTINUOUS
 66
     1
  0
VERTEX
  8
1
  6
CONTINUOUS
 10
77.844764
 20
54.883339
  0
VERTEX
  8
1
  6
CONTINUOUS
 10
77.844764
 20
55.080101
  0
SEQEND
  8
1
  6
CONTINUOUS
  0
POLYLINE
  8
1
  6
CONTINUOUS
 66
     1
  0
VERTEX
  8
1
  6
CONTINUOUS
 10
93.738856
 20
45.502404
  0
VERTEX
  8
1
  6
CONTINUOUS
 10
77.735555
 20
45.502404
  0
SEQEND
  8
1
  6
CONTINUOUS
  0
POLYLINE
  8
1
  6
CONTINUOUS
 66
     1
  0
VERTEX
  8
1
  6
CONTINUOUS
 10
77.723913
 20
44.502404
  0
VERTEX
  8
1
  6
CONTINUOUS
 10
93.738856
 20
44.502404
  0
SEQEND
  8
1
  6
CONTINUOUS
  0
POLYLINE
  8
1
  6
CONTINUOUS
 66
     1
  0
VERTEX
  8
1
  6
CONTINUOUS
 10
98.947440
 20
45.502404
  0
VERTEX
  8
1
  6
CONTINUOUS
 10
95.138856
 20
45.502404
  0
SEQEND
  8
1
  6
CONTINUOUS
  0
POLYLINE
  8
1
  6
CONTINUOUS
 66
     1
  0
VERTEX
  8
1
  6
CONTINUOUS
 10
95.138856
 20
44.502404
  0
VERTEX
  8
1
  6
CONTINUOUS
 10
98.947440
 20
44.502404
  0
SEQEND
  8
1
  6
CONTINUOUS
  0
POLYLINE
  8
1
  6
CONTINUOUS
 66
     1
  0
VERTEX
  8
1
  6
CONTINUOUS
 10
98.947440
 20
45.502404
  0
VERTEX
  8
1
  6
CONTINUOUS
 10
98.947440
 20
44.502404
  0
SEQEND
  8
1
  6
CONTINUOUS
  0
POLYLINE
  8
1
  6
CONTINUOUS
 66
     1
  0
VERTEX
  8
1
  6
CONTINUOUS
 10
98.895588
 20
45.502404
  0
VERTEX
  8
1
  6
CONTINUOUS
 10
95.695700
 20
45.502329
  0
VERTEX
  8
1
  6
CONTINUOUS
 10
95.695689
 20
45.982329
  0
VERTEX
  8
1
  6
CONTINUOUS
 10
98.895577
 20
45.982404
  0
VERTEX
  8
1
  6
CONTINUOUS
 10
98.895588
 20
45.502404
  0
SEQEND
  8
1
  6
CONTINUOUS
  0
POLYLINE
  8
1
  6
CONTINUOUS
 66
     1
  0
VERTEX
  8
1
  6
CONTINUOUS
 10
98.895588
 20
45.982404
  0
VERTEX
  8
1
  6
CONTINUOUS
 10
95.695700
 20
45.982329
  0
VERTEX
  8
1
  6
CONTINUOUS
 10
95.695689
 20
46.462329
  0
VERTEX
  8
1
  6
CONTINUOUS
 10
98.895577
 20
46.462404
  0
VERTEX
  8
1
  6
CONTINUOUS
 10
98.895588
 20
45.982404
  0
SEQEND
  8
1
  6
CONTINUOUS
  0
POLYLINE
  8
1
  6
CONTINUOUS
 66
     1
  0
VERTEX
  8
1
  6
CONTINUOUS
 10
98.895588
 20
46.462404
  0
VERTEX
  8
1
  6
CONTINUOUS
 10
95.695700
 20
46.462329
  0
VERTEX
  8
1
  6
CONTINUOUS
 10
95.695689
 20
46.942329
  0
VERTEX
  8
1
  6
CONTINUOUS
 10
98.895577
 20
46.942404
  0
VERTEX
  8
1
  6
CONTINUOUS
 10
98.895588
 20
46.462404
  0
SEQEND
  8
1
  6
CONTINUOUS
  0
POLYLINE
  8
1
  6
CONTINUOUS
 66
     1
  0
VERTEX
  8
1
  6
CONTINUOUS
 10
98.895588
 20
46.942404
  0
VERTEX
  8
1
  6
CONTINUOUS
 10
95.695700
 20
46.942329
  0
VERTEX
  8
1
  6
CONTINUOUS
 10
95.695689
 20
47.422329
  0
VERTEX
  8
1
  6
CONTINUOUS
 10
98.895577
 20
47.422404
  0
VERTEX
  8
1
  6
CONTINUOUS
 10
98.895588
 20
46.942404
  0
SEQEND
  8
1
  6
CONTINUOUS
  0
POLYLINE
  8
1
  6
CONTINUOUS
 66
     1
  0
VERTEX
  8
1
  6
CONTINUOUS
 10
98.895588
 20
47.422404
  0
VERTEX
  8
1
  6
CONTINUOUS
 10
95.695700
 20
47.422329
  0
VERTEX
  8
1
  6
CONTINUOUS
 10
95.695689
 20
47.902329
  0
VERTEX
  8
1
  6
CONTINUOUS
 10
98.895577
 20
47.902404
  0
VERTEX
  8
1
  6
CONTINUOUS
 10
98.895588
 20
47.422404
  0
SEQEND
  8
1
  6
CONTINUOUS
  0
LINE
  8
1
  6
CONTINUOUS
 10
96.932183
 20
44.035692
 11
96.932160
 21
45.035692
  0
LINE
  8
1
  6
CONTINUOUS
 10
97.295678
 20
44.035700
 11
97.295655
 21
45.035700
  0
LINE
  8
1
  6
CONTINUOUS
 10
96.932183
 20
44.035692
 11
97.295678
 21
44.035700
  0
LINE
  8
1
  6
CONTINUOUS
 10
97.110488
 20
45.502363
 11
96.777166
 21
45.035688
  0
LINE
  8
1
  6
CONTINUOUS
 10
97.110488
 20
45.502363
 11
97.443832
 21
45.035704
  0
LINE
  8
1
  6
CONTINUOUS
 10
96.932160
 20
45.035692
 11
96.777166
 21
45.035688
  0
LINE
  8
1
  6
CONTINUOUS
 10
97.295655
 20
45.035700
 11
97.443832
 21
45.035704
  0
LINE
  8
1
  6
CONTINUOUS
 10
98.947440
 20
45.002404
 11
98.947440
 21
43.881285
  0
LINE
  8
1
  6
CONTINUOUS
 10
98.947440
 20
43.881285
 11
98.922952
 21
43.594854
  0
LINE
  8
1
  6
CONTINUOUS
 10
98.895087
 20
43.411110
 11
98.768043
 21
42.955457
  0
LINE
  8
1
  6
CONTINUOUS
 10
98.768043
 20
42.955457
 11
98.569188
 21
42.526254
  0
LINE
  8
1
  6
CONTINUOUS
 10
98.569188
 20
42.526254
 11
98.303726
 21
42.134732
  0
LINE
  8
1
  6
CONTINUOUS
 10
98.303726
 20
42.134732
 11
97.978604
 21
41.791141
  0
LINE
  8
1
  6
CONTINUOUS
 10
97.978604
 20
41.791141
 11
97.602332
 21
41.504473
  0
LINE
  8
1
  6
CONTINUOUS
 10
97.602332
 20
41.504473
 11
97.184759
 21
41.282230
  0
LINE
  8
1
  6
CONTINUOUS
 10
97.184759
 20
41.282230
 11
96.736813
 21
41.130230
  0
LINE
  8
1
  6
CONTINUOUS
 10
96.736813
 20
41.130230
 11
96.270220
 21
41.052452
  0
LINE
  8
1
  6
CONTINUOUS
 10
98.895087
 20
43.411110
 11
98.922952
 21
43.594854
  0
LINE
  8
1
  6
CONTINUOUS
 10
96.270220
 20
41.052452
 11
96.270220
 21
36.997927
  0
LINE
  8
1
  6
CONTINUOUS
 10
95.695700
 20
45.502329
 11
95.695700
 21
47.902329
  0
LINE
  8
1
  6
CONTINUOUS
 10
98.895588
 20
45.502404
 11
98.895588
 21
47.902367
  0
LINE
  8
1
  6
CONTINUOUS
 10
74.897679
 20
67.927387
 11
74.397773
 21
67.917694
  0
LINE
  8
1
  6
CONTINUOUS
 10
74.397773
 20
67.917694
 11
74.389080
 21
68.365992
  0
LINE
  8
1
  6
CONTINUOUS
 10
72.440417
 20
23.480015
 11
72.376329
 21
23.975891
  0
LINE
  8
1
  6
CONTINUOUS
 10
72.376329
 20
23.975891
 11
72.959368
 21
24.051244
  0
LINE
  8
1
  6
CONTINUOUS
 10
77.996944
 20
23.580321
 11
77.938622
 21
24.076908
  0
LINE
  8
1
  6
CONTINUOUS
 10
77.938622
 20
24.076908
 11
77.485414
 21
24.023680
  0
LINE
  8
1
  6
CONTINUOUS
 10
19.828254
 20
51.414431
 11
19.828254
 21
51.414431
  0
POLYLINE
  8
1
  6
CONTINUOUS
 66
     1
  0
VERTEX
  8
1
  6
CONTINUOUS
 10
19.565235
 20
51.081533
  0
VERTEX
  8
1
  6
CONTINUOUS
 10
20.161152
 20
51.151411
  0
VERTEX
  8
1
  6
CONTINUOUS
 10
20.091274
 20
51.747328
  0
VERTEX
  8
1
  6
CONTINUOUS
 10
19.495357
 20
51.677450
  0
VERTEX
  8
1
  6
CONTINUOUS
 10
19.565235
 20
51.081533
  0
SEQEND
  8
1
  6
CONTINUOUS
  0
LINE
  8
1
  6
CONTINUOUS
 10
22.551779
 20
28.175104
 11
22.551779
 21
28.175104
  0
POLYLINE
  8
1
  6
CONTINUOUS
 66
     1
  0
VERTEX
  8
1
  6
CONTINUOUS
 10
22.288759
 20
27.842206
  0
VERTEX
  8
1
  6
CONTINUOUS
 10
22.884676
 20
27.912084
  0
VERTEX
  8
1
  6
CONTINUOUS
 10
22.814799
 20
28.508001
  0
VERTEX
  8
1
  6
CONTINUOUS
 10
22.218882
 20
28.438123
  0
VERTEX
  8
1
  6
CONTINUOUS
 10
22.288759
 20
27.842206
  0
SEQEND
  8
1
  6
CONTINUOUS
  0
LINE
  8
1
  6
CONTINUOUS
 10
46.395833
 20
54.529612
 11
46.395833
 21
54.529612
  0
POLYLINE
  8
1
  6
CONTINUOUS
 66
     1
  0
VERTEX
  8
1
  6
CONTINUOUS
 10
46.132813
 20
54.196714
  0
VERTEX
  8
1
  6
CONTINUOUS
 10
46.728730
 20
54.266592
  0
VERTEX
  8
1
  6
CONTINUOUS
 10
46.658853
 20
54.862509
  0
VERTEX
  8
1
  6
CONTINUOUS
 10
46.062936
 20
54.792631
  0
VERTEX
  8
1
  6
CONTINUOUS
 10
46.132813
 20
54.196714
  0
SEQEND
  8
1
  6
CONTINUOUS
  0
LINE
  8
1
  6
CONTINUOUS
 10
61.313259
 20
56.278754
 11
61.313259
 21
56.278754
  0
POLYLINE
  8
1
  6
CONTINUOUS
 66
     1
  0
VERTEX
  8
1
  6
CONTINUOUS
 10
61.050239
 20
55.945857
  0
VERTEX
  8
1
  6
CONTINUOUS
 10
61.646156
 20
56.015734
  0
VERTEX
  8
1
  6
CONTINUOUS
 10
61.576279
 20
56.611652
  0
VERTEX
  8
1
  6
CONTINUOUS
 10
60.980362
 20
56.541774
  0
VERTEX
  8
1
  6
CONTINUOUS
 10
61.050239
 20
55.945857
  0
SEQEND
  8
1
  6
CONTINUOUS
  0
LINE
  8
1
  6
CONTINUOUS
 10
49.121917
 20
31.290585
 11
49.121917
 21
31.290585
  0
POLYLINE
  8
1
  6
CONTINUOUS
 66
     1
  0
VERTEX
  8
1
  6
CONTINUOUS
 10
48.858897
 20
30.957687
  0
VERTEX
  8
1
  6
CONTINUOUS
 10
49.454814
 20
31.027565
  0
VERTEX
  8
1
  6
CONTINUOUS
 10
49.384937
 20
31.623482
  0
VERTEX
  8
1
  6
CONTINUOUS
 10
48.789020
 20
31.553604
  0
VERTEX
  8
1
  6
CONTINUOUS
 10
48.858897
 20
30.957687
  0
SEQEND
  8
1
  6
CONTINUOUS
  0
LINE
  8
1
  6
CONTINUOUS
 10
64.039343
 20
33.039727
 11
64.039343
 21
33.039727
  0
POLYLINE
  8
1
  6
CONTINUOUS
 66
     1
  0
VERTEX
  8
1
  6
CONTINUOUS
 10
63.776323
 20
32.706830
  0
VERTEX
  8
1
  6
CONTINUOUS
 10
64.372240
 20
32.776707
  0
VERTEX
  8
1
  6
CONTINUOUS
 10
64.302362
 20
33.372625
  0
VERTEX
  8
1
  6
CONTINUOUS
 10
63.706445
 20
33.302747
  0
VERTEX
  8
1
  6
CONTINUOUS
 10
63.776323
 20
32.706830
  0
SEQEND
  8
1
  6
CONTINUOUS
  0
LINE
  8
1
  6
CONTINUOUS
 10
5.987013
 20
49.791456
 11
5.987013
 21
49.791456
  0
POLYLINE
  8
1
  6
CONTINUOUS
 66
     1
  0
VERTEX
  8
1
  6
CONTINUOUS
 10
5.811667
 20
49.569525
  0
VERTEX
  8
1
  6
CONTINUOUS
 10
6.208945
 20
49.616110
  0
VERTEX
  8
1
  6
CONTINUOUS
 10
6.162360
 20
50.013388
  0
VERTEX
  8
1
  6
CONTINUOUS
 10
5.765082
 20
49.966803
  0
VERTEX
  8
1
  6
CONTINUOUS
 10
5.811667
 20
49.569525
  0
SEQEND
  8
1
  6
CONTINUOUS
  0
LINE
  8
1
  6
CONTINUOUS
 10
8.736710
 20
26.555198
 11
8.736710
 21
26.555198
  0
POLYLINE
  8
1
  6
CONTINUOUS
 66
     1
  0
VERTEX
  8
1
  6
CONTINUOUS
 10
8.596303
 20
26.035308
  0
VERTEX
  8
1
  6
CONTINUOUS
 10
8.993581
 20
26.081893
  0
VERTEX
  8
1
  6
CONTINUOUS
 10
8.877118
 20
27.075088
  0
VERTEX
  8
1
  6
CONTINUOUS
 10
8.479840
 20
27.028503
  0
VERTEX
  8
1
  6
CONTINUOUS
 10
8.596303
 20
26.035308
  0
SEQEND
  8
1
  6
CONTINUOUS
  0
LINE
  8
1
  6
CONTINUOUS
 10
34.371591
 20
53.119692
 11
34.371591
 21
53.119692
  0
POLYLINE
  8
1
  6
CONTINUOUS
 66
     1
  0
VERTEX
  8
1
  6
CONTINUOUS
 10
34.196245
 20
52.897760
  0
VERTEX
  8
1
  6
CONTINUOUS
 10
34.593523
 20
52.944346
  0
VERTEX
  8
1
  6
CONTINUOUS
 10
34.546938
 20
53.341624
  0
VERTEX
  8
1
  6
CONTINUOUS
 10
34.149660
 20
53.295038
  0
VERTEX
  8
1
  6
CONTINUOUS
 10
34.196245
 20
52.897760
  0
SEQEND
  8
1
  6
CONTINUOUS
  0
LINE
  8
1
  6
CONTINUOUS
 10
37.110387
 20
29.882156
 11
37.110387
 21
29.882156
  0
POLYLINE
  8
1
  6
CONTINUOUS
 66
     1
  0
VERTEX
  8
1
  6
CONTINUOUS
 10
36.935041
 20
29.660224
  0
VERTEX
  8
1
  6
CONTINUOUS
 10
37.332319
 20
29.706809
  0
VERTEX
  8
1
  6
CONTINUOUS
 10
37.285734
 20
30.104087
  0
VERTEX
  8
1
  6
CONTINUOUS
 10
36.888456
 20
30.057502
  0
VERTEX
  8
1
  6
CONTINUOUS
 10
36.935041
 20
29.660224
  0
SEQEND
  8
1
  6
CONTINUOUS
  0
LINE
  8
1
  6
CONTINUOUS
 10
10.263034
 20
15.365249
 11
10.263034
 21
15.365249
  0
POLYLINE
  8
1
  6
CONTINUOUS
 66
     1
  0
VERTEX
  8
1
  6
CONTINUOUS
 10
9.889126
 20
15.119907
  0
VERTEX
  8
1
  6
CONTINUOUS
 10
10.683652
 20
15.213327
  0
VERTEX
  8
1
  6
CONTINUOUS
 10
10.636942
 20
15.610591
  0
VERTEX
  8
1
  6
CONTINUOUS
 10
9.842416
 20
15.517171
  0
VERTEX
  8
1
  6
CONTINUOUS
 10
9.889126
 20
15.119907
  0
SEQEND
  8
1
  6
CONTINUOUS
  0
LINE
  8
1
  6
CONTINUOUS
 10
28.678900
 20
17.426826
 11
28.678900
 21
17.426826
  0
POLYLINE
  8
1
  6
CONTINUOUS
 66
     1
  0
VERTEX
  8
1
  6
CONTINUOUS
 10
28.304992
 20
17.181485
  0
VERTEX
  8
1
  6
CONTINUOUS
 10
29.099519
 20
17.274905
  0
VERTEX
  8
1
  6
CONTINUOUS
 10
29.052809
 20
17.672168
  0
VERTEX
  8
1
  6
CONTINUOUS
 10
28.258282
 20
17.578748
  0
VERTEX
  8
1
  6
CONTINUOUS
 10
28.304992
 20
17.181485
  0
SEQEND
  8
1
  6
CONTINUOUS
  0
LINE
  8
1
  6
CONTINUOUS
 10
38.376415
 20
19.154309
 11
38.376415
 21
19.154309
  0
POLYLINE
  8
1
  6
CONTINUOUS
 66
     1
  0
VERTEX
  8
1
  6
CONTINUOUS
 10
38.224493
 20
18.733691
  0
VERTEX
  8
1
  6
CONTINUOUS
 10
38.621756
 20
18.780401
  0
VERTEX
  8
1
  6
CONTINUOUS
 10
38.528337
 20
19.574927
  0
VERTEX
  8
1
  6
CONTINUOUS
 10
38.131073
 20
19.528217
  0
VERTEX
  8
1
  6
CONTINUOUS
 10
38.224493
 20
18.733691
  0
SEQEND
  8
1
  6
CONTINUOUS
  0
LINE
  8
1
  6
CONTINUOUS
 10
50.387539
 20
20.467350
 11
50.387539
 21
20.467350
  0
POLYLINE
  8
1
  6
CONTINUOUS
 66
     1
  0
VERTEX
  8
1
  6
CONTINUOUS
 10
50.212262
 20
20.245363
  0
VERTEX
  8
1
  6
CONTINUOUS
 10
50.609525
 20
20.292073
  0
VERTEX
  8
1
  6
CONTINUOUS
 10
50.562816
 20
20.689336
  0
VERTEX
  8
1
  6
CONTINUOUS
 10
50.165552
 20
20.642626
  0
VERTEX
  8
1
  6
CONTINUOUS
 10
50.212262
 20
20.245363
  0
SEQEND
  8
1
  6
CONTINUOUS
  0
LINE
  8
1
  6
CONTINUOUS
 10
62.911201
 20
22.046599
 11
62.911201
 21
22.046599
  0
POLYLINE
  8
1
  6
CONTINUOUS
 66
     1
  0
VERTEX
  8
1
  6
CONTINUOUS
 10
62.437977
 20
21.789579
  0
VERTEX
  8
1
  6
CONTINUOUS
 10
63.431136
 20
21.906354
  0
VERTEX
  8
1
  6
CONTINUOUS
 10
63.384426
 20
22.303618
  0
VERTEX
  8
1
  6
CONTINUOUS
 10
62.391267
 20
22.186843
  0
VERTEX
  8
1
  6
CONTINUOUS
 10
62.437977
 20
21.789579
  0
SEQEND
  8
1
  6
CONTINUOUS
  0
LINE
  8
1
  6
CONTINUOUS
 10
24.220221
 20
62.950117
 11
24.220221
 21
62.950117
  0
POLYLINE
  8
1
  6
CONTINUOUS
 66
     1
  0
VERTEX
  8
1
  6
CONTINUOUS
 10
24.044944
 20
62.728130
  0
VERTEX
  8
1
  6
CONTINUOUS
 10
24.442208
 20
62.774840
  0
VERTEX
  8
1
  6
CONTINUOUS
 10
24.395498
 20
63.172103
  0
VERTEX
  8
1
  6
CONTINUOUS
 10
23.998235
 20
63.125394
  0
VERTEX
  8
1
  6
CONTINUOUS
 10
24.044944
 20
62.728130
  0
SEQEND
  8
1
  6
CONTINUOUS
  0
LINE
  8
1
  6
CONTINUOUS
 10
33.151590
 20
63.458793
 11
33.151590
 21
63.458793
  0
POLYLINE
  8
1
  6
CONTINUOUS
 66
     1
  0
VERTEX
  8
1
  6
CONTINUOUS
 10
32.999668
 20
63.038175
  0
VERTEX
  8
1
  6
CONTINUOUS
 10
33.396932
 20
63.084885
  0
VERTEX
  8
1
  6
CONTINUOUS
 10
33.303512
 20
63.879411
  0
VERTEX
  8
1
  6
CONTINUOUS
 10
32.906249
 20
63.832702
  0
VERTEX
  8
1
  6
CONTINUOUS
 10
32.999668
 20
63.038175
  0
SEQEND
  8
1
  6
CONTINUOUS
  0
LINE
  8
1
  6
CONTINUOUS
 10
48.406393
 20
65.480477
 11
48.406393
 21
65.480477
  0
POLYLINE
  8
1
  6
CONTINUOUS
 66
     1
  0
VERTEX
  8
1
  6
CONTINUOUS
 10
47.933168
 20
65.223458
  0
VERTEX
  8
1
  6
CONTINUOUS
 10
48.926327
 20
65.340233
  0
VERTEX
  8
1
  6
CONTINUOUS
 10
48.879617
 20
65.737496
  0
VERTEX
  8
1
  6
CONTINUOUS
 10
47.886458
 20
65.620722
  0
VERTEX
  8
1
  6
CONTINUOUS
 10
47.933168
 20
65.223458
  0
SEQEND
  8
1
  6
CONTINUOUS
  0
LINE
  8
1
  6
CONTINUOUS
 10
60.072102
 20
66.864517
 11
60.072102
 21
66.864517
  0
POLYLINE
  8
1
  6
CONTINUOUS
 66
     1
  0
VERTEX
  8
1
  6
CONTINUOUS
 10
59.896825
 20
66.642530
  0
VERTEX
  8
1
  6
CONTINUOUS
 10
60.294088
 20
66.689240
  0
VERTEX
  8
1
  6
CONTINUOUS
 10
60.247378
 20
67.086504
  0
VERTEX
  8
1
  6
CONTINUOUS
 10
59.850115
 20
67.039794
  0
VERTEX
  8
1
  6
CONTINUOUS
 10
59.896825
 20
66.642530
  0
SEQEND
  8
1
  6
CONTINUOUS
  0
LINE
  8
1
  6
CONTINUOUS
 10
4.729961
 20
60.414644
 11
4.729961
 21
60.414644
  0
POLYLINE
  8
1
  6
CONTINUOUS
 66
     1
  0
VERTEX
  8
1
  6
CONTINUOUS
 10
4.578039
 20
59.994026
  0
VERTEX
  8
1
  6
CONTINUOUS
 10
4.975303
 20
60.040736
  0
VERTEX
  8
1
  6
CONTINUOUS
 10
4.881883
 20
60.835263
  0
VERTEX
  8
1
  6
CONTINUOUS
 10
4.484620
 20
60.788553
  0
VERTEX
  8
1
  6
CONTINUOUS
 10
4.578039
 20
59.994026
  0
SEQEND
  8
1
  6
CONTINUOUS
  0
LINE
  8
1
  6
CONTINUOUS
 10
74.864631
 20
68.625925
 11
74.864631
 21
68.625925
  0
POLYLINE
  8
1
  6
CONTINUOUS
 66
     1
  0
VERTEX
  8
1
  6
CONTINUOUS
 10
74.490722
 20
68.380583
  0
VERTEX
  8
1
  6
CONTINUOUS
 10
75.285249
 20
68.474003
  0
VERTEX
  8
1
  6
CONTINUOUS
 10
75.238539
 20
68.871266
  0
VERTEX
  8
1
  6
CONTINUOUS
 10
74.444012
 20
68.777846
  0
VERTEX
  8
1
  6
CONTINUOUS
 10
74.490722
 20
68.380583
  0
SEQEND
  8
1
  6
CONTINUOUS
  0
LINE
  8
1
  6
CONTINUOUS
 10
75.427461
 20
50.830517
 11
75.427461
 21
50.830517
  0
POLYLINE
  8
1
  6
CONTINUOUS
 66
     1
  0
VERTEX
  8
1
  6
CONTINUOUS
 10
75.636971
 20
50.334427
  0
VERTEX
  8
1
  6
CONTINUOUS
 10
75.617878
 20
51.334245
  0
VERTEX
  8
1
  6
CONTINUOUS
 10
75.217951
 20
51.326608
  0
VERTEX
  8
1
  6
CONTINUOUS
 10
75.237044
 20
50.326790
  0
VERTEX
  8
1
  6
CONTINUOUS
 10
75.636971
 20
50.334427
  0
SEQEND
  8
1
  6
CONTINUOUS
  0
LINE
  8
1
  6
CONTINUOUS
 10
73.137337
 20
23.567280
 11
73.137337
 21
23.567280
  0
POLYLINE
  8
1
  6
CONTINUOUS
 66
     1
  0
VERTEX
  8
1
  6
CONTINUOUS
 10
73.321750
 20
23.159858
  0
VERTEX
  8
1
  6
CONTINUOUS
 10
73.352627
 20
23.959262
  0
VERTEX
  8
1
  6
CONTINUOUS
 10
72.952925
 20
23.974701
  0
VERTEX
  8
1
  6
CONTINUOUS
 10
72.922048
 20
23.175297
  0
VERTEX
  8
1
  6
CONTINUOUS
 10
73.321750
 20
23.159858
  0
SEQEND
  8
1
  6
CONTINUOUS
  0
LINE
  8
1
  6
CONTINUOUS
 10
73.610331
 20
34.615714
 11
73.610331
 21
34.615714
  0
POLYLINE
  8
1
  6
CONTINUOUS
 66
     1
  0
VERTEX
  8
1
  6
CONTINUOUS
 10
73.802462
 20
34.408144
  0
VERTEX
  8
1
  6
CONTINUOUS
 10
73.817901
 20
34.807846
  0
VERTEX
  8
1
  6
CONTINUOUS
 10
73.418199
 20
34.823284
  0
VERTEX
  8
1
  6
CONTINUOUS
 10
73.402760
 20
34.423583
  0
VERTEX
  8
1
  6
CONTINUOUS
 10
73.802462
 20
34.408144
  0
SEQEND
  8
1
  6
CONTINUOUS
  0
LINE
  8
1
  6
CONTINUOUS
 10
31.583013
 20
52.785163
 11
31.583013
 21
52.785163
  0
POLYLINE
  8
1
  6
CONTINUOUS
 66
     1
  0
VERTEX
  8
1
  6
CONTINUOUS
 10
31.407667
 20
52.563232
  0
VERTEX
  8
1
  6
CONTINUOUS
 10
31.804945
 20
52.609817
  0
VERTEX
  8
1
  6
CONTINUOUS
 10
31.758360
 20
53.007095
  0
VERTEX
  8
1
  6
CONTINUOUS
 10
31.361082
 20
52.960510
  0
VERTEX
  8
1
  6
CONTINUOUS
 10
31.407667
 20
52.563232
  0
SEQEND
  8
1
  6
CONTINUOUS
  0
LINE
  8
1
  6
CONTINUOUS
 10
34.367164
 20
29.552945
 11
34.367164
 21
29.552945
  0
POLYLINE
  8
1
  6
CONTINUOUS
 66
     1
  0
VERTEX
  8
1
  6
CONTINUOUS
 10
34.226756
 20
29.033055
  0
VERTEX
  8
1
  6
CONTINUOUS
 10
34.624034
 20
29.079640
  0
VERTEX
  8
1
  6
CONTINUOUS
 10
34.507571
 20
30.072835
  0
VERTEX
  8
1
  6
CONTINUOUS
 10
34.110293
 20
30.026250
  0
VERTEX
  8
1
  6
CONTINUOUS
 10
34.226756
 20
29.033055
  0
SEQEND
  8
1
  6
CONTINUOUS
  0
LINE
  8
1
  6
CONTINUOUS
 10
19.767637
 20
16.433150
 11
19.767637
 21
16.433150
  0
POLYLINE
  8
1
  6
CONTINUOUS
 66
     1
  0
VERTEX
  8
1
  6
CONTINUOUS
 10
19.393729
 20
16.187809
  0
VERTEX
  8
1
  6
CONTINUOUS
 10
20.188255
 20
16.281229
  0
VERTEX
  8
1
  6
CONTINUOUS
 10
20.141545
 20
16.678492
  0
VERTEX
  8
1
  6
CONTINUOUS
 10
19.347019
 20
16.585072
  0
VERTEX
  8
1
  6
CONTINUOUS
 10
19.393729
 20
16.187809
  0
SEQEND
  8
1
  6
CONTINUOUS
  0
LINE
  8
1
  6
CONTINUOUS
 10
15.085063
 20
61.856182
 11
15.085063
 21
61.856182
  0
POLYLINE
  8
1
  6
CONTINUOUS
 66
     1
  0
VERTEX
  8
1
  6
CONTINUOUS
 10
14.611839
 20
61.599163
  0
VERTEX
  8
1
  6
CONTINUOUS
 10
15.604998
 20
61.715938
  0
VERTEX
  8
1
  6
CONTINUOUS
 10
15.558288
 20
62.113201
  0
VERTEX
  8
1
  6
CONTINUOUS
 10
14.565129
 20
61.996427
  0
VERTEX
  8
1
  6
CONTINUOUS
 10
14.611839
 20
61.599163
  0
SEQEND
  8
1
  6
CONTINUOUS
  0
LINE
  8
1
  6
CONTINUOUS
 10
77.749554
 20
69.046424
 11
77.749554
 21
69.046424
  0
POLYLINE
  8
1
  6
CONTINUOUS
 66
     1
  0
VERTEX
  8
1
  6
CONTINUOUS
 10
77.490046
 20
68.710782
  0
VERTEX
  8
1
  6
CONTINUOUS
 10
78.085196
 20
68.786917
  0
VERTEX
  8
1
  6
CONTINUOUS
 10
78.009061
 20
69.382067
  0
VERTEX
  8
1
  6
CONTINUOUS
 10
77.413912
 20
69.305932
  0
VERTEX
  8
1
  6
CONTINUOUS
 10
77.490046
 20
68.710782
  0
SEQEND
  8
1
  6
CONTINUOUS
  0
LINE
  8
1
  6
CONTINUOUS
 10
89.463294
 20
70.595338
 11
89.463294
 21
70.595338
  0
POLYLINE
  8
1
  6
CONTINUOUS
 66
     1
  0
VERTEX
  8
1
  6
CONTINUOUS
 10
89.296634
 20
70.321980
  0
VERTEX
  8
1
  6
CONTINUOUS
 10
89.693400
 20
70.372737
  0
VERTEX
  8
1
  6
CONTINUOUS
 10
89.629955
 20
70.868695
  0
VERTEX
  8
1
  6
CONTINUOUS
 10
89.233188
 20
70.817939
  0
VERTEX
  8
1
  6
CONTINUOUS
 10
89.296634
 20
70.321980
  0
SEQEND
  8
1
  6
CONTINUOUS
  0
LINE
  8
1
  6
CONTINUOUS
 10
77.550564
 20
55.383339
 11
77.550564
 21
55.383339
  0
POLYLINE
  8
1
  6
CONTINUOUS
 66
     1
  0
VERTEX
  8
1
  6
CONTINUOUS
 10
77.847263
 20
55.080074
  0
VERTEX
  8
1
  6
CONTINUOUS
 10
77.853829
 20
55.680038
  0
VERTEX
  8
1
  6
CONTINUOUS
 10
77.253865
 20
55.686604
  0
VERTEX
  8
1
  6
CONTINUOUS
 10
77.247299
 20
55.086640
  0
VERTEX
  8
1
  6
CONTINUOUS
 10
77.847263
 20
55.080074
  0
SEQEND
  8
1
  6
CONTINUOUS
  0
LINE
  8
1
  6
CONTINUOUS
 10
94.441254
 20
57.117349
 11
94.441254
 21
57.117349
  0
POLYLINE
  8
1
  6
CONTINUOUS
 66
     1
  0
VERTEX
  8
1
  6
CONTINUOUS
 10
93.726570
 20
56.840170
  0
VERTEX
  8
1
  6
CONTINUOUS
 10
95.198262
 20
56.996773
  0
VERTEX
  8
1
  6
CONTINUOUS
 10
95.155937
 20
57.394528
  0
VERTEX
  8
1
  6
CONTINUOUS
 10
93.684245
 20
57.237925
  0
VERTEX
  8
1
  6
CONTINUOUS
 10
93.726570
 20
56.840170
  0
SEQEND
  8
1
  6
CONTINUOUS
  0
LINE
  8
1
  6
CONTINUOUS
 10
77.316631
 20
34.646310
 11
77.316631
 21
34.646310
  0
POLYLINE
  8
1
  6
CONTINUOUS
 66
     1
  0
VERTEX
  8
1
  6
CONTINUOUS
 10
77.613372
 20
34.343086
  0
VERTEX
  8
1
  6
CONTINUOUS
 10
77.619854
 20
34.943051
  0
VERTEX
  8
1
  6
CONTINUOUS
 10
77.019889
 20
34.949533
  0
VERTEX
  8
1
  6
CONTINUOUS
 10
77.013407
 20
34.349568
  0
VERTEX
  8
1
  6
CONTINUOUS
 10
77.613372
 20
34.343086
  0
SEQEND
  8
1
  6
CONTINUOUS
  0
LINE
  8
1
  6
CONTINUOUS
 10
87.262163
 20
35.838265
 11
87.262163
 21
35.838265
  0
POLYLINE
  8
1
  6
CONTINUOUS
 66
     1
  0
VERTEX
  8
1
  6
CONTINUOUS
 10
87.084449
 20
35.618225
  0
VERTEX
  8
1
  6
CONTINUOUS
 10
87.482203
 20
35.660550
  0
VERTEX
  8
1
  6
CONTINUOUS
 10
87.439878
 20
36.058305
  0
VERTEX
  8
1
  6
CONTINUOUS
 10
87.042124
 20
36.015980
  0
VERTEX
  8
1
  6
CONTINUOUS
 10
87.084449
 20
35.618225
  0
SEQEND
  8
1
  6
CONTINUOUS
  0
LINE
  8
1
  6
CONTINUOUS
 10
87.706568
 20
31.661843
 11
87.706568
 21
31.661843
  0
POLYLINE
  8
1
  6
CONTINUOUS
 66
     1
  0
VERTEX
  8
1
  6
CONTINUOUS
 10
87.528853
 20
31.441803
  0
VERTEX
  8
1
  6
CONTINUOUS
 10
87.926608
 20
31.484128
  0
VERTEX
  8
1
  6
CONTINUOUS
 10
87.884282
 20
31.881882
  0
VERTEX
  8
1
  6
CONTINUOUS
 10
87.486528
 20
31.839557
  0
VERTEX
  8
1
  6
CONTINUOUS
 10
87.528853
 20
31.441803
  0
SEQEND
  8
1
  6
CONTINUOUS
  0
LINE
  8
1
  6
CONTINUOUS
 10
95.714447
 20
36.737659
 11
95.714447
 21
36.737659
  0
POLYLINE
  8
1
  6
CONTINUOUS
 66
     1
  0
VERTEX
  8
1
  6
CONTINUOUS
 10
95.536733
 20
36.517619
  0
VERTEX
  8
1
  6
CONTINUOUS
 10
95.934487
 20
36.559944
  0
VERTEX
  8
1
  6
CONTINUOUS
 10
95.892162
 20
36.957698
  0
VERTEX
  8
1
  6
CONTINUOUS
 10
95.494407
 20
36.915373
  0
VERTEX
  8
1
  6
CONTINUOUS
 10
95.536733
 20
36.517619
  0
SEQEND
  8
1
  6
CONTINUOUS
  0
LINE
  8
1
  6
CONTINUOUS
 10
96.158851
 20
32.561233
 11
96.158851
 21
32.561233
  0
POLYLINE
  8
1
  6
CONTINUOUS
 66
     1
  0
VERTEX
  8
1
  6
CONTINUOUS
 10
95.981137
 20
32.341194
  0
VERTEX
  8
1
  6
CONTINUOUS
 10
96.378891
 20
32.383519
  0
VERTEX
  8
1
  6
CONTINUOUS
 10
96.336566
 20
32.781273
  0
VERTEX
  8
1
  6
CONTINUOUS
 10
95.938811
 20
32.738948
  0
VERTEX
  8
1
  6
CONTINUOUS
 10
95.981137
 20
32.341194
  0
SEQEND
  8
1
  6
CONTINUOUS
  0
LINE
  8
1
  6
CONTINUOUS
 10
102.241235
 20
37.410033
 11
102.241235
 21
37.410033
  0
POLYLINE
  8
1
  6
CONTINUOUS
 66
     1
  0
VERTEX
  8
1
  6
CONTINUOUS
 10
102.439035
 20
37.207857
  0
VERTEX
  8
1
  6
CONTINUOUS
 10
102.443412
 20
37.607833
  0
VERTEX
  8
1
  6
CONTINUOUS
 10
102.043436
 20
37.612210
  0
VERTEX
  8
1
  6
CONTINUOUS
 10
102.039059
 20
37.212234
  0
VERTEX
  8
1
  6
CONTINUOUS
 10
102.439035
 20
37.207857
  0
SEQEND
  8
1
  6
CONTINUOUS
  0
LINE
  8
1
  6
CONTINUOUS
 10
77.214070
 20
23.387694
 11
77.214070
 21
23.387694
  0
POLYLINE
  8
1
  6
CONTINUOUS
 66
     1
  0
VERTEX
  8
1
  6
CONTINUOUS
 10
76.951114
 20
23.054747
  0
VERTEX
  8
1
  6
CONTINUOUS
 10
77.547018
 20
23.124739
  0
VERTEX
  8
1
  6
CONTINUOUS
 10
77.477026
 20
23.720642
  0
VERTEX
  8
1
  6
CONTINUOUS
 10
76.881122
 20
23.650650
  0
VERTEX
  8
1
  6
CONTINUOUS
 10
76.951114
 20
23.054747
  0
SEQEND
  8
1
  6
CONTINUOUS
  0
LINE
  8
1
  6
CONTINUOUS
 10
102.095128
 20
26.209163
 11
102.095128
 21
26.209163
  0
POLYLINE
  8
1
  6
CONTINUOUS
 66
     1
  0
VERTEX
  8
1
  6
CONTINUOUS
 10
101.919824
 20
25.987198
  0
VERTEX
  8
1
  6
CONTINUOUS
 10
102.317094
 20
26.033860
  0
VERTEX
  8
1
  6
CONTINUOUS
 10
102.270432
 20
26.431129
  0
VERTEX
  8
1
  6
CONTINUOUS
 10
101.873163
 20
26.384467
  0
VERTEX
  8
1
  6
CONTINUOUS
 10
101.919824
 20
25.987198
  0
SEQEND
  8
1
  6
CONTINUOUS
  0
LINE
  8
1
  6
CONTINUOUS
 10
102.445153
 20
57.969024
 11
102.445153
 21
57.969024
  0
POLYLINE
  8
1
  6
CONTINUOUS
 66
     1
  0
VERTEX
  8
1
  6
CONTINUOUS
 10
102.267438
 20
57.748984
  0
VERTEX
  8
1
  6
CONTINUOUS
 10
102.665192
 20
57.791309
  0
VERTEX
  8
1
  6
CONTINUOUS
 10
102.622867
 20
58.189064
  0
VERTEX
  8
1
  6
CONTINUOUS
 10
102.225113
 20
58.146739
  0
VERTEX
  8
1
  6
CONTINUOUS
 10
102.267438
 20
57.748984
  0
SEQEND
  8
1
  6
CONTINUOUS
  0
LINE
  8
1
  6
CONTINUOUS
 10
7.325826
 20
38.485673
 11
7.325826
 21
38.485673
  0
POLYLINE
  8
1
  6
CONTINUOUS
 66
     1
  0
VERTEX
  8
1
  6
CONTINUOUS
 10
7.185418
 20
37.965782
  0
VERTEX
  8
1
  6
CONTINUOUS
 10
7.582696
 20
38.012368
  0
VERTEX
  8
1
  6
CONTINUOUS
 10
7.466233
 20
39.005563
  0
VERTEX
  8
1
  6
CONTINUOUS
 10
7.068955
 20
38.958978
  0
VERTEX
  8
1
  6
CONTINUOUS
 10
7.185418
 20
37.965782
  0
SEQEND
  8
1
  6
CONTINUOUS
  0
LINE
  8
1
  6
CONTINUOUS
 10
32.938260
 20
41.480589
 11
32.938260
 21
41.480589
  0
POLYLINE
  8
1
  6
CONTINUOUS
 66
     1
  0
VERTEX
  8
1
  6
CONTINUOUS
 10
32.797852
 20
40.960699
  0
VERTEX
  8
1
  6
CONTINUOUS
 10
33.195130
 20
41.007284
  0
VERTEX
  8
1
  6
CONTINUOUS
 10
33.078668
 20
42.000479
  0
VERTEX
  8
1
  6
CONTINUOUS
 10
32.681389
 20
41.953894
  0
VERTEX
  8
1
  6
CONTINUOUS
 10
32.797852
 20
40.960699
  0
SEQEND
  8
1
  6
CONTINUOUS
  0
LINE
  8
1
  6
CONTINUOUS
 10
35.736535
 20
41.513357
 11
35.736535
 21
41.513357
  0
POLYLINE
  8
1
  6
CONTINUOUS
 66
     1
  0
VERTEX
  8
1
  6
CONTINUOUS
 10
35.561189
 20
41.291425
  0
VERTEX
  8
1
  6
CONTINUOUS
 10
35.958467
 20
41.338010
  0
VERTEX
  8
1
  6
CONTINUOUS
 10
35.911882
 20
41.735288
  0
VERTEX
  8
1
  6
CONTINUOUS
 10
35.514604
 20
41.688703
  0
VERTEX
  8
1
  6
CONTINUOUS
 10
35.561189
 20
41.291425
  0
SEQEND
  8
1
  6
CONTINUOUS
  0
LINE
  8
1
  6
CONTINUOUS
 10
91.132030
 20
24.921625
 11
91.132030
 21
24.921625
  0
POLYLINE
  8
1
  6
CONTINUOUS
 66
     1
  0
VERTEX
  8
1
  6
CONTINUOUS
 10
90.956726
 20
24.699660
  0
VERTEX
  8
1
  6
CONTINUOUS
 10
91.353995
 20
24.746321
  0
VERTEX
  8
1
  6
CONTINUOUS
 10
91.307334
 20
25.143590
  0
VERTEX
  8
1
  6
CONTINUOUS
 10
90.910064
 20
25.096929
  0
VERTEX
  8
1
  6
CONTINUOUS
 10
90.956726
 20
24.699660
  0
SEQEND
  8
1
  6
CONTINUOUS
  0
LINE
  8
1
  6
CONTINUOUS
 10
35.486004
 20
20.219767
 11
35.486004
 21
20.219767
  0
POLYLINE
  8
1
  6
CONTINUOUS
 66
     1
  0
VERTEX
  8
1
  6
CONTINUOUS
 10
35.333950
 20
19.799197
  0
VERTEX
  8
1
  6
CONTINUOUS
 10
35.731228
 20
19.845782
  0
VERTEX
  8
1
  6
CONTINUOUS
 10
35.638058
 20
20.640338
  0
VERTEX
  8
1
  6
CONTINUOUS
 10
35.240780
 20
20.593753
  0
VERTEX
  8
1
  6
CONTINUOUS
 10
35.333950
 20
19.799197
  0
SEQEND
  8
1
  6
CONTINUOUS
  0
LINE
  8
1
  6
CONTINUOUS
 10
21.183143
 20
39.846925
 11
21.183143
 21
39.846925
  0
POLYLINE
  8
1
  6
CONTINUOUS
 66
     1
  0
VERTEX
  8
1
  6
CONTINUOUS
 10
20.920123
 20
39.514027
  0
VERTEX
  8
1
  6
CONTINUOUS
 10
21.516040
 20
39.583905
  0
VERTEX
  8
1
  6
CONTINUOUS
 10
21.446163
 20
40.179822
  0
VERTEX
  8
1
  6
CONTINUOUS
 10
20.850246
 20
40.109944
  0
VERTEX
  8
1
  6
CONTINUOUS
 10
20.920123
 20
39.514027
  0
SEQEND
  8
1
  6
CONTINUOUS
  0
LINE
  8
1
  6
CONTINUOUS
 10
47.753280
 20
42.962409
 11
47.753280
 21
42.962409
  0
POLYLINE
  8
1
  6
CONTINUOUS
 66
     1
  0
VERTEX
  8
1
  6
CONTINUOUS
 10
47.490261
 20
42.629511
  0
VERTEX
  8
1
  6
CONTINUOUS
 10
48.086178
 20
42.699389
  0
VERTEX
  8
1
  6
CONTINUOUS
 10
48.016300
 20
43.295306
  0
VERTEX
  8
1
  6
CONTINUOUS
 10
47.420383
 20
43.225428
  0
VERTEX
  8
1
  6
CONTINUOUS
 10
47.490261
 20
42.629511
  0
SEQEND
  8
1
  6
CONTINUOUS
  0
LINE
  8
1
  6
CONTINUOUS
 10
62.670706
 20
44.711552
 11
62.670706
 21
44.711552
  0
POLYLINE
  8
1
  6
CONTINUOUS
 66
     1
  0
VERTEX
  8
1
  6
CONTINUOUS
 10
62.407686
 20
44.378655
  0
VERTEX
  8
1
  6
CONTINUOUS
 10
63.003603
 20
44.448532
  0
VERTEX
  8
1
  6
CONTINUOUS
 10
62.933726
 20
45.044449
  0
VERTEX
  8
1
  6
CONTINUOUS
 10
62.337809
 20
44.974572
  0
VERTEX
  8
1
  6
CONTINUOUS
 10
62.407686
 20
44.378655
  0
SEQEND
  8
1
  6
CONTINUOUS
  0
LINE
  8
1
  6
CONTINUOUS
 10
75.260211
 20
59.590155
 11
75.260211
 21
59.590155
  0
POLYLINE
  8
1
  6
CONTINUOUS
 66
     1
  0
VERTEX
  8
1
  6
CONTINUOUS
 10
75.469721
 20
59.094065
  0
VERTEX
  8
1
  6
CONTINUOUS
 10
75.450628
 20
60.093882
  0
VERTEX
  8
1
  6
CONTINUOUS
 10
75.050701
 20
60.086245
  0
VERTEX
  8
1
  6
CONTINUOUS
 10
75.069794
 20
59.086428
  0
VERTEX
  8
1
  6
CONTINUOUS
 10
75.469721
 20
59.094065
  0
SEQEND
  8
1
  6
CONTINUOUS
  0
LINE
  8
1
  6
CONTINUOUS
 10
30.506804
 20
61.916076
 11
30.506804
 21
61.916076
  0
POLYLINE
  8
1
  6
CONTINUOUS
 66
     1
  0
VERTEX
  8
1
  6
CONTINUOUS
 10
30.354750
 20
61.495505
  0
VERTEX
  8
1
  6
CONTINUOUS
 10
30.752028
 20
61.542090
  0
VERTEX
  8
1
  6
CONTINUOUS
 10
30.658857
 20
62.336646
  0
VERTEX
  8
1
  6
CONTINUOUS
 10
30.261579
 20
62.290061
  0
VERTEX
  8
1
  6
CONTINUOUS
 10
30.354750
 20
61.495505
  0
SEQEND
  8
1
  6
CONTINUOUS
  0
LINE
  8
1
  6
CONTINUOUS
 10
102.568753
 20
72.272029
 11
102.568753
 21
72.272029
  0
POLYLINE
  8
1
  6
CONTINUOUS
 66
     1
  0
VERTEX
  8
1
  6
CONTINUOUS
 10
102.402092
 20
71.998672
  0
VERTEX
  8
1
  6
CONTINUOUS
 10
102.798859
 20
72.049428
  0
VERTEX
  8
1
  6
CONTINUOUS
 10
102.735413
 20
72.545387
  0
VERTEX
  8
1
  6
CONTINUOUS
 10
102.338646
 20
72.494630
  0
VERTEX
  8
1
  6
CONTINUOUS
 10
102.402092
 20
71.998672
  0
SEQEND
  8
1
  6
CONTINUOUS
  0
LINE
  8
1
  6
CONTINUOUS
 10
74.397607
 20
67.926234
 11
74.886351
 21
68.415725
  0
LINE
  8
1
  6
CONTINUOUS
 10
74.442683
 20
68.373385
 11
74.888184
 21
67.927203
  0
LINE
  8
1
  6
CONTINUOUS
 10
77.497759
 20
23.544126
 11
77.945118
 21
24.021593
  0
LINE
  8
1
  6
CONTINUOUS
 10
77.522785
 20
24.028069
 11
77.947716
 21
23.574539
  0
LINE
  8
1
  6
CONTINUOUS
 10
72.433214
 20
23.535748
 11
72.959368
 21
24.051244
  0
LINE
  8
1
  6
CONTINUOUS
 10
72.444277
 20
23.984673
 11
72.898889
 21
23.539269
  0
LINE
  8
1
  6
CONTINUOUS
 10
87.846411
 20
32.237794
 11
91.408114
 21
35.718358
  0
LINE
  8
1
  6
CONTINUOUS
 10
87.863994
 20
35.701176
 11
91.390532
 21
32.254975
  0
LINE
  8
1
  6
CONTINUOUS
 10
92.012879
 20
32.681138
 11
95.574604
 21
36.161709
  0
LINE
  8
1
  6
CONTINUOUS
 10
92.030466
 20
36.144523
 11
95.557017
 21
32.698323
  0
LINE
  8
4
  6
CONTINUOUS
 10
23.557882
 20
61.548102
 11
23.418127
 21
62.739937
  0
LINE
  8
4
  6
CONTINUOUS
 10
23.537310
 20
62.753912
 11
23.298944
 21
62.725961
  0
LINE
  8
4
  6
CONTINUOUS
 10
23.540105
 20
62.730075
 11
23.301739
 21
62.702124
  0
LINE
  8
4
  6
CONTINUOUS
 10
23.542901
 20
62.706239
 11
23.304534
 21
62.678288
  0
LINE
  8
4
  6
CONTINUOUS
 10
28.727273
 20
17.463494
 11
28.832090
 21
16.569619
  0
LINE
  8
4
  6
CONTINUOUS
 10
28.765049
 20
16.561758
 11
28.899130
 21
16.577480
  0
LINE
  8
4
  6
CONTINUOUS
 10
28.765049
 20
16.561758
 11
28.936906
 21
15.675743
  0
LINE
  8
4
  6
CONTINUOUS
 10
28.899130
 20
16.577480
 11
28.936906
 21
15.675743
  0
LINE
  8
4
  6
CONTINUOUS
 10
28.675298
 20
16.747571
 11
28.943461
 21
16.779015
  0
LINE
  8
4
  6
CONTINUOUS
 10
28.657829
 20
16.896549
 11
28.925991
 21
16.927994
  0
POLYLINE
  8
4
  6
CONTINUOUS
 66
     1
  0
VERTEX
  8
4
  6
CONTINUOUS
 10
23.557882
 20
61.548102
  0
VERTEX
  8
4
  6
CONTINUOUS
 10
28.727273
 20
17.463494
  0
SEQEND
  8
4
  6
CONTINUOUS
  0
LINE
  8
4
  6
CONTINUOUS
 10
21.412581
 20
61.296543
 11
21.272826
 21
62.488377
  0
LINE
  8
4
  6
CONTINUOUS
 10
21.392009
 20
62.502353
 11
21.153642
 21
62.474402
  0
LINE
  8
4
  6
CONTINUOUS
 10
21.394804
 20
62.478516
 11
21.156437
 21
62.450565
  0
LINE
  8
4
  6
CONTINUOUS
 10
21.397599
 20
62.454679
 11
21.159232
 21
62.426728
  0
LINE
  8
4
  6
CONTINUOUS
 10
26.581972
 20
17.211935
 11
26.686788
 21
16.318059
  0
LINE
  8
4
  6
CONTINUOUS
 10
26.619748
 20
16.310198
 11
26.753829
 21
16.325920
  0
LINE
  8
4
  6
CONTINUOUS
 10
26.619748
 20
16.310198
 11
26.791605
 21
15.424184
  0
LINE
  8
4
  6
CONTINUOUS
 10
26.753829
 20
16.325920
 11
26.791605
 21
15.424184
  0
LINE
  8
4
  6
CONTINUOUS
 10
26.529997
 20
16.496011
 11
26.798159
 21
16.527456
  0
LINE
  8
4
  6
CONTINUOUS
 10
26.512527
 20
16.644990
 11
26.780690
 21
16.676435
  0
POLYLINE
  8
4
  6
CONTINUOUS
 66
     1
  0
VERTEX
  8
4
  6
CONTINUOUS
 10
21.412581
 20
61.296543
  0
VERTEX
  8
4
  6
CONTINUOUS
 10
26.581972
 20
17.211935
  0
SEQEND
  8
4
  6
CONTINUOUS
  0
LINE
  8
4
  6
CONTINUOUS
 10
19.267280
 20
61.044983
 11
19.127524
 21
62.236818
  0
LINE
  8
4
  6
CONTINUOUS
 10
19.246708
 20
62.250793
 11
19.008341
 21
62.222842
  0
LINE
  8
4
  6
CONTINUOUS
 10
19.249503
 20
62.226956
 11
19.011136
 21
62.199005
  0
LINE
  8
4
  6
CONTINUOUS
 10
19.252298
 20
62.203120
 11
19.013931
 21
62.175169
  0
LINE
  8
4
  6
CONTINUOUS
 10
24.436671
 20
16.960375
 11
24.541487
 21
16.066500
  0
LINE
  8
4
  6
CONTINUOUS
 10
24.474446
 20
16.058639
 11
24.608528
 21
16.074361
  0
LINE
  8
4
  6
CONTINUOUS
 10
24.474446
 20
16.058639
 11
24.646303
 21
15.172624
  0
LINE
  8
4
  6
CONTINUOUS
 10
24.608528
 20
16.074361
 11
24.646303
 21
15.172624
  0
LINE
  8
4
  6
CONTINUOUS
 10
24.384695
 20
16.244452
 11
24.652858
 21
16.275896
  0
LINE
  8
4
  6
CONTINUOUS
 10
24.367226
 20
16.393430
 11
24.635389
 21
16.424875
  0
POLYLINE
  8
4
  6
CONTINUOUS
 66
     1
  0
VERTEX
  8
4
  6
CONTINUOUS
 10
19.267280
 20
61.044983
  0
VERTEX
  8
4
  6
CONTINUOUS
 10
24.436671
 20
16.960375
  0
SEQEND
  8
4
  6
CONTINUOUS
  0
LINE
  8
4
  6
CONTINUOUS
 10
17.121978
 20
60.793424
 11
16.982223
 21
61.985258
  0
LINE
  8
4
  6
CONTINUOUS
 10
17.101406
 20
61.999234
 11
16.863040
 21
61.971283
  0
LINE
  8
4
  6
CONTINUOUS
 10
17.104201
 20
61.975397
 11
16.865835
 21
61.947446
  0
LINE
  8
4
  6
CONTINUOUS
 10
17.106997
 20
61.951560
 11
16.868630
 21
61.923609
  0
LINE
  8
4
  6
CONTINUOUS
 10
22.291369
 20
16.708816
 11
22.396186
 21
15.814940
  0
LINE
  8
4
  6
CONTINUOUS
 10
22.329145
 20
15.807079
 11
22.463226
 21
15.822802
  0
LINE
  8
4
  6
CONTINUOUS
 10
22.329145
 20
15.807079
 11
22.501002
 21
14.921065
  0
LINE
  8
4
  6
CONTINUOUS
 10
22.463226
 20
15.822802
 11
22.501002
 21
14.921065
  0
LINE
  8
4
  6
CONTINUOUS
 10
22.239394
 20
15.992892
 11
22.507557
 21
16.024337
  0
LINE
  8
4
  6
CONTINUOUS
 10
22.221925
 20
16.141871
 11
22.490087
 21
16.173316
  0
POLYLINE
  8
4
  6
CONTINUOUS
 66
     1
  0
VERTEX
  8
4
  6
CONTINUOUS
 10
17.121978
 20
60.793424
  0
VERTEX
  8
4
  6
CONTINUOUS
 10
22.291369
 20
16.708816
  0
SEQEND
  8
4
  6
CONTINUOUS
  0
LINE
  8
4
  6
CONTINUOUS
 10
14.976677
 20
60.541865
 11
14.836922
 21
61.733699
  0
LINE
  8
4
  6
CONTINUOUS
 10
14.956105
 20
61.747674
 11
14.717738
 21
61.719723
  0
LINE
  8
4
  6
CONTINUOUS
 10
14.958900
 20
61.723837
 11
14.720533
 21
61.695886
  0
LINE
  8
4
  6
CONTINUOUS
 10
14.961695
 20
61.700001
 11
14.723328
 21
61.672050
  0
LINE
  8
4
  6
CONTINUOUS
 10
20.146068
 20
16.457256
 11
20.250884
 21
15.563381
  0
LINE
  8
4
  6
CONTINUOUS
 10
20.183844
 20
15.555520
 11
20.317925
 21
15.571242
  0
LINE
  8
4
  6
CONTINUOUS
 10
20.183844
 20
15.555520
 11
20.355701
 21
14.669505
  0
LINE
  8
4
  6
CONTINUOUS
 10
20.317925
 20
15.571242
 11
20.355701
 21
14.669505
  0
LINE
  8
4
  6
CONTINUOUS
 10
20.094093
 20
15.741333
 11
20.362255
 21
15.772777
  0
LINE
  8
4
  6
CONTINUOUS
 10
20.076623
 20
15.890311
 11
20.344786
 21
15.921756
  0
POLYLINE
  8
4
  6
CONTINUOUS
 66
     1
  0
VERTEX
  8
4
  6
CONTINUOUS
 10
14.976677
 20
60.541865
  0
VERTEX
  8
4
  6
CONTINUOUS
 10
20.146068
 20
16.457256
  0
SEQEND
  8
4
  6
CONTINUOUS
  0
LINE
  8
4
  6
CONTINUOUS
 10
12.831376
 20
60.290305
 11
12.691620
 21
61.482139
  0
LINE
  8
4
  6
CONTINUOUS
 10
12.810804
 20
61.496115
 11
12.572437
 21
61.468164
  0
LINE
  8
4
  6
CONTINUOUS
 10
12.813599
 20
61.472278
 11
12.575232
 21
61.444327
  0
LINE
  8
4
  6
CONTINUOUS
 10
12.816394
 20
61.448441
 11
12.578027
 21
61.420490
  0
LINE
  8
4
  6
CONTINUOUS
 10
18.000767
 20
16.205697
 11
18.105583
 21
15.311821
  0
LINE
  8
4
  6
CONTINUOUS
 10
18.038542
 20
15.303960
 11
18.172624
 21
15.319683
  0
LINE
  8
4
  6
CONTINUOUS
 10
18.038542
 20
15.303960
 11
18.210399
 21
14.417946
  0
LINE
  8
4
  6
CONTINUOUS
 10
18.172624
 20
15.319683
 11
18.210399
 21
14.417946
  0
LINE
  8
4
  6
CONTINUOUS
 10
17.948791
 20
15.489773
 11
18.216954
 21
15.521218
  0
LINE
  8
4
  6
CONTINUOUS
 10
17.931322
 20
15.638752
 11
18.199485
 21
15.670197
  0
POLYLINE
  8
4
  6
CONTINUOUS
 66
     1
  0
VERTEX
  8
4
  6
CONTINUOUS
 10
12.831376
 20
60.290305
  0
VERTEX
  8
4
  6
CONTINUOUS
 10
18.000767
 20
16.205697
  0
SEQEND
  8
4
  6
CONTINUOUS
  0
LINE
  8
4
  6
CONTINUOUS
 10
10.629498
 20
60.007527
 11
10.489743
 21
61.199361
  0
LINE
  8
4
  6
CONTINUOUS
 10
10.608926
 20
61.213336
 11
10.370559
 21
61.185385
  0
LINE
  8
4
  6
CONTINUOUS
 10
10.611721
 20
61.189500
 11
10.373354
 21
61.161549
  0
LINE
  8
4
  6
CONTINUOUS
 10
10.614516
 20
61.165663
 11
10.376149
 21
61.137712
  0
LINE
  8
4
  6
CONTINUOUS
 10
15.790307
 20
15.996102
 11
15.895124
 21
15.102227
  0
LINE
  8
4
  6
CONTINUOUS
 10
15.828083
 20
15.094365
 11
15.962164
 21
15.110088
  0
LINE
  8
4
  6
CONTINUOUS
 10
15.828083
 20
15.094365
 11
15.999940
 21
14.208351
  0
LINE
  8
4
  6
CONTINUOUS
 10
15.962164
 20
15.110088
 11
15.999940
 21
14.208351
  0
LINE
  8
4
  6
CONTINUOUS
 10
15.738332
 20
15.280178
 11
16.006495
 21
15.311623
  0
LINE
  8
4
  6
CONTINUOUS
 10
15.720863
 20
15.429157
 11
15.989025
 21
15.460602
  0
POLYLINE
  8
4
  6
CONTINUOUS
 66
     1
  0
VERTEX
  8
4
  6
CONTINUOUS
 10
10.629498
 20
60.007527
  0
VERTEX
  8
4
  6
CONTINUOUS
 10
15.790307
 20
15.996102
  0
SEQEND
  8
4
  6
CONTINUOUS
  0
LINE
  8
4
  6
CONTINUOUS
 10
8.424605
 20
59.748979
 11
8.284850
 21
60.940814
  0
LINE
  8
4
  6
CONTINUOUS
 10
8.404033
 20
60.954789
 11
8.165666
 21
60.926838
  0
LINE
  8
4
  6
CONTINUOUS
 10
8.406828
 20
60.930952
 11
8.168461
 21
60.903001
  0
LINE
  8
4
  6
CONTINUOUS
 10
8.409623
 20
60.907116
 11
8.171256
 21
60.879165
  0
LINE
  8
4
  6
CONTINUOUS
 10
13.585414
 20
15.737555
 11
13.690231
 21
14.843679
  0
LINE
  8
4
  6
CONTINUOUS
 10
13.623190
 20
14.835818
 11
13.757271
 21
14.851541
  0
LINE
  8
4
  6
CONTINUOUS
 10
13.623190
 20
14.835818
 11
13.795047
 21
13.949804
  0
LINE
  8
4
  6
CONTINUOUS
 10
13.757271
 20
14.851541
 11
13.795047
 21
13.949804
  0
LINE
  8
4
  6
CONTINUOUS
 10
13.533439
 20
15.021631
 11
13.801602
 21
15.053076
  0
LINE
  8
4
  6
CONTINUOUS
 10
13.515970
 20
15.170610
 11
13.784132
 21
15.202055
  0
POLYLINE
  8
4
  6
CONTINUOUS
 66
     1
  0
VERTEX
  8
4
  6
CONTINUOUS
 10
8.424605
 20
59.748979
  0
VERTEX
  8
4
  6
CONTINUOUS
 10
13.585414
 20
15.737555
  0
SEQEND
  8
4
  6
CONTINUOUS
  0
LINE
  8
4
  6
CONTINUOUS
 10
6.219712
 20
59.490432
 11
6.079956
 21
60.682266
  0
LINE
  8
4
  6
CONTINUOUS
 10
6.199140
 20
60.696242
 11
5.960773
 21
60.668291
  0
LINE
  8
4
  6
CONTINUOUS
 10
6.201935
 20
60.672405
 11
5.963568
 21
60.644454
  0
LINE
  8
4
  6
CONTINUOUS
 10
6.204730
 20
60.648568
 11
5.966363
 21
60.620617
  0
LINE
  8
4
  6
CONTINUOUS
 10
11.380521
 20
15.479008
 11
11.485338
 21
14.585132
  0
LINE
  8
4
  6
CONTINUOUS
 10
11.418297
 20
14.577271
 11
11.552378
 21
14.592993
  0
LINE
  8
4
  6
CONTINUOUS
 10
11.418297
 20
14.577271
 11
11.590154
 21
13.691257
  0
LINE
  8
4
  6
CONTINUOUS
 10
11.552378
 20
14.592993
 11
11.590154
 21
13.691257
  0
LINE
  8
4
  6
CONTINUOUS
 10
11.328546
 20
14.763084
 11
11.596709
 21
14.794529
  0
LINE
  8
4
  6
CONTINUOUS
 10
11.311077
 20
14.912063
 11
11.579239
 21
14.943507
  0
POLYLINE
  8
4
  6
CONTINUOUS
 66
     1
  0
VERTEX
  8
4
  6
CONTINUOUS
 10
6.219712
 20
59.490432
  0
VERTEX
  8
4
  6
CONTINUOUS
 10
11.380521
 20
15.479008
  0
SEQEND
  8
4
  6
CONTINUOUS
  0
LINE
  8
4
  6
CONTINUOUS
 10
29.382636
 20
62.254357
 11
29.242881
 21
63.446191
  0
LINE
  8
4
  6
CONTINUOUS
 10
29.362064
 20
63.460167
 11
29.123698
 21
63.432216
  0
LINE
  8
4
  6
CONTINUOUS
 10
29.364860
 20
63.436330
 11
29.126493
 21
63.408379
  0
LINE
  8
4
  6
CONTINUOUS
 10
29.367655
 20
63.412493
 11
29.129288
 21
63.384542
  0
LINE
  8
4
  6
CONTINUOUS
 10
34.560788
 20
18.095042
 11
34.665604
 21
17.201166
  0
LINE
  8
4
  6
CONTINUOUS
 10
34.598563
 20
17.193305
 11
34.732645
 21
17.209027
  0
LINE
  8
4
  6
CONTINUOUS
 10
34.598563
 20
17.193305
 11
34.770420
 21
16.307290
  0
LINE
  8
4
  6
CONTINUOUS
 10
34.732645
 20
17.209027
 11
34.770420
 21
16.307290
  0
LINE
  8
4
  6
CONTINUOUS
 10
34.508812
 20
17.379118
 11
34.776975
 21
17.410563
  0
LINE
  8
4
  6
CONTINUOUS
 10
34.491343
 20
17.528096
 11
34.759506
 21
17.559541
  0
POLYLINE
  8
4
  6
CONTINUOUS
 66
     1
  0
VERTEX
  8
4
  6
CONTINUOUS
 10
29.382636
 20
62.254357
  0
VERTEX
  8
4
  6
CONTINUOUS
 10
34.560788
 20
18.095042
  0
SEQEND
  8
4
  6
CONTINUOUS
  0
LINE
  8
4
  6
CONTINUOUS
 10
27.495566
 20
62.033078
 11
27.355810
 21
63.224912
  0
LINE
  8
4
  6
CONTINUOUS
 10
27.474994
 20
63.238888
 11
27.236627
 21
63.210937
  0
LINE
  8
4
  6
CONTINUOUS
 10
27.477789
 20
63.215051
 11
27.239422
 21
63.187100
  0
LINE
  8
4
  6
CONTINUOUS
 10
27.480584
 20
63.191214
 11
27.242217
 21
63.163263
  0
LINE
  8
4
  6
CONTINUOUS
 10
32.673717
 20
17.873762
 11
32.778533
 21
16.979887
  0
LINE
  8
4
  6
CONTINUOUS
 10
32.711493
 20
16.972026
 11
32.845574
 21
16.987748
  0
LINE
  8
4
  6
CONTINUOUS
 10
32.711493
 20
16.972026
 11
32.883350
 21
16.086011
  0
LINE
  8
4
  6
CONTINUOUS
 10
32.845574
 20
16.987748
 11
32.883350
 21
16.086011
  0
LINE
  8
4
  6
CONTINUOUS
 10
32.621742
 20
17.157839
 11
32.889904
 21
17.189284
  0
LINE
  8
4
  6
CONTINUOUS
 10
32.604272
 20
17.306817
 11
32.872435
 21
17.338262
  0
POLYLINE
  8
4
  6
CONTINUOUS
 66
     1
  0
VERTEX
  8
4
  6
CONTINUOUS
 10
27.495566
 20
62.033078
  0
VERTEX
  8
4
  6
CONTINUOUS
 10
32.673717
 20
17.873762
  0
SEQEND
  8
4
  6
CONTINUOUS
  0
LINE
  8
4
  6
CONTINUOUS
 10
25.608495
 20
61.811799
 11
25.468740
 21
63.003633
  0
LINE
  8
4
  6
CONTINUOUS
 10
25.587923
 20
63.017608
 11
25.349556
 21
62.989657
  0
LINE
  8
4
  6
CONTINUOUS
 10
25.590718
 20
62.993772
 11
25.352352
 21
62.965821
  0
LINE
  8
4
  6
CONTINUOUS
 10
25.593513
 20
62.969935
 11
25.355147
 21
62.941984
  0
LINE
  8
4
  6
CONTINUOUS
 10
30.786646
 20
17.652483
 11
30.891463
 21
16.758608
  0
LINE
  8
4
  6
CONTINUOUS
 10
30.824422
 20
16.750746
 11
30.958503
 21
16.766469
  0
LINE
  8
4
  6
CONTINUOUS
 10
30.824422
 20
16.750746
 11
30.996279
 21
15.864732
  0
LINE
  8
4
  6
CONTINUOUS
 10
30.958503
 20
16.766469
 11
30.996279
 21
15.864732
  0
LINE
  8
4
  6
CONTINUOUS
 10
30.734671
 20
16.936559
 11
31.002834
 21
16.968004
  0
LINE
  8
4
  6
CONTINUOUS
 10
30.717202
 20
17.085538
 11
30.985364
 21
17.116983
  0
POLYLINE
  8
4
  6
CONTINUOUS
 66
     1
  0
VERTEX
  8
4
  6
CONTINUOUS
 10
25.608495
 20
61.811799
  0
VERTEX
  8
4
  6
CONTINUOUS
 10
30.786646
 20
17.652483
  0
SEQEND
  8
4
  6
CONTINUOUS
  0
LINE
  8
4
  6
CONTINUOUS
 10
51.620392
 20
64.541733
 11
51.480636
 21
65.733567
  0
LINE
  8
4
  6
CONTINUOUS
 10
51.599820
 20
65.747543
 11
51.361453
 21
65.719592
  0
LINE
  8
4
  6
CONTINUOUS
 10
51.602615
 20
65.723706
 11
51.364248
 21
65.695755
  0
LINE
  8
4
  6
CONTINUOUS
 10
51.605410
 20
65.699869
 11
51.367043
 21
65.671918
  0
LINE
  8
4
  6
CONTINUOUS
 10
56.701763
 20
21.207761
 11
56.806579
 21
20.313885
  0
LINE
  8
4
  6
CONTINUOUS
 10
56.739538
 20
20.306024
 11
56.873620
 21
20.321747
  0
LINE
  8
4
  6
CONTINUOUS
 10
56.739538
 20
20.306024
 11
56.911396
 21
19.420010
  0
LINE
  8
4
  6
CONTINUOUS
 10
56.873620
 20
20.321747
 11
56.911396
 21
19.420010
  0
LINE
  8
4
  6
CONTINUOUS
 10
56.649787
 20
20.491837
 11
56.917950
 21
20.523282
  0
LINE
  8
4
  6
CONTINUOUS
 10
56.632318
 20
20.640816
 11
56.900481
 21
20.672261
  0
POLYLINE
  8
4
  6
CONTINUOUS
 66
     1
  0
VERTEX
  8
4
  6
CONTINUOUS
 10
51.620392
 20
64.541733
  0
VERTEX
  8
4
  6
CONTINUOUS
 10
56.701763
 20
21.207761
  0
SEQEND
  8
4
  6
CONTINUOUS
  0
LINE
  8
4
  6
CONTINUOUS
 10
49.375771
 20
64.278527
 11
49.236016
 21
65.470361
  0
LINE
  8
4
  6
CONTINUOUS
 10
49.355199
 20
65.484337
 11
49.116832
 21
65.456386
  0
LINE
  8
4
  6
CONTINUOUS
 10
49.357994
 20
65.460500
 11
49.119627
 21
65.432549
  0
LINE
  8
4
  6
CONTINUOUS
 10
49.360789
 20
65.436663
 11
49.122422
 21
65.408712
  0
LINE
  8
4
  6
CONTINUOUS
 10
54.457142
 20
20.944555
 11
54.561958
 21
20.050680
  0
LINE
  8
4
  6
CONTINUOUS
 10
54.494918
 20
20.042818
 11
54.628999
 21
20.058541
  0
LINE
  8
4
  6
CONTINUOUS
 10
54.494918
 20
20.042818
 11
54.666775
 21
19.156804
  0
LINE
  8
4
  6
CONTINUOUS
 10
54.628999
 20
20.058541
 11
54.666775
 21
19.156804
  0
LINE
  8
4
  6
CONTINUOUS
 10
54.405167
 20
20.228631
 11
54.673329
 21
20.260076
  0
LINE
  8
4
  6
CONTINUOUS
 10
54.387697
 20
20.377610
 11
54.655860
 21
20.409055
  0
POLYLINE
  8
4
  6
CONTINUOUS
 66
     1
  0
VERTEX
  8
4
  6
CONTINUOUS
 10
49.375771
 20
64.278527
  0
VERTEX
  8
4
  6
CONTINUOUS
 10
54.457142
 20
20.944555
  0
SEQEND
  8
4
  6
CONTINUOUS
  0
LINE
  8
4
  6
CONTINUOUS
 10
47.131150
 20
64.015321
 11
46.991395
 21
65.207156
  0
LINE
  8
4
  6
CONTINUOUS
 10
47.110578
 20
65.221131
 11
46.872211
 21
65.193180
  0
LINE
  8
4
  6
CONTINUOUS
 10
47.113373
 20
65.197294
 11
46.875006
 21
65.169343
  0
LINE
  8
4
  6
CONTINUOUS
 10
47.116168
 20
65.173458
 11
46.877802
 21
65.145507
  0
LINE
  8
4
  6
CONTINUOUS
 10
52.212521
 20
20.681349
 11
52.317337
 21
19.787474
  0
LINE
  8
4
  6
CONTINUOUS
 10
52.250297
 20
19.779613
 11
52.384378
 21
19.795335
  0
LINE
  8
4
  6
CONTINUOUS
 10
52.250297
 20
19.779613
 11
52.422154
 21
18.893598
  0
LINE
  8
4
  6
CONTINUOUS
 10
52.384378
 20
19.795335
 11
52.422154
 21
18.893598
  0
LINE
  8
4
  6
CONTINUOUS
 10
52.160546
 20
19.965426
 11
52.428708
 21
19.996870
  0
LINE
  8
4
  6
CONTINUOUS
 10
52.143076
 20
20.114404
 11
52.411239
 21
20.145849
  0
POLYLINE
  8
4
  6
CONTINUOUS
 66
     1
  0
VERTEX
  8
4
  6
CONTINUOUS
 10
47.131150
 20
64.015321
  0
VERTEX
  8
4
  6
CONTINUOUS
 10
52.212521
 20
20.681349
  0
SEQEND
  8
4
  6
CONTINUOUS
  0
LINE
  8
4
  6
CONTINUOUS
 10
44.886529
 20
63.752116
 11
44.746774
 21
64.943950
  0
LINE
  8
4
  6
CONTINUOUS
 10
44.865957
 20
64.957925
 11
44.627591
 21
64.929974
  0
LINE
  8
4
  6
CONTINUOUS
 10
44.868752
 20
64.934089
 11
44.630386
 21
64.906138
  0
LINE
  8
4
  6
CONTINUOUS
 10
44.871548
 20
64.910252
 11
44.633181
 21
64.882301
  0
LINE
  8
4
  6
CONTINUOUS
 10
49.967900
 20
20.418144
 11
50.072717
 21
19.524268
  0
LINE
  8
4
  6
CONTINUOUS
 10
50.005676
 20
19.516407
 11
50.139757
 21
19.532129
  0
LINE
  8
4
  6
CONTINUOUS
 10
50.005676
 20
19.516407
 11
50.177533
 21
18.630392
  0
LINE
  8
4
  6
CONTINUOUS
 10
50.139757
 20
19.532129
 11
50.177533
 21
18.630392
  0
LINE
  8
4
  6
CONTINUOUS
 10
49.915925
 20
19.702220
 11
50.184088
 21
19.733665
  0
LINE
  8
4
  6
CONTINUOUS
 10
49.898456
 20
19.851198
 11
50.166618
 21
19.882643
  0
POLYLINE
  8
4
  6
CONTINUOUS
 66
     1
  0
VERTEX
  8
4
  6
CONTINUOUS
 10
44.886529
 20
63.752116
  0
VERTEX
  8
4
  6
CONTINUOUS
 10
49.967900
 20
20.418144
  0
SEQEND
  8
4
  6
CONTINUOUS
  0
LINE
  8
4
  6
CONTINUOUS
 10
42.641908
 20
63.488910
 11
42.502153
 21
64.680744
  0
LINE
  8
4
  6
CONTINUOUS
 10
42.621337
 20
64.694720
 11
42.382970
 21
64.666769
  0
LINE
  8
4
  6
CONTINUOUS
 10
42.624132
 20
64.670883
 11
42.385765
 21
64.642932
  0
LINE
  8
4
  6
CONTINUOUS
 10
42.626927
 20
64.647046
 11
42.388560
 21
64.619095
  0
LINE
  8
4
  6
CONTINUOUS
 10
47.723279
 20
20.154938
 11
47.828096
 21
19.261062
  0
LINE
  8
4
  6
CONTINUOUS
 10
47.761055
 20
19.253201
 11
47.895136
 21
19.268924
  0
LINE
  8
4
  6
CONTINUOUS
 10
47.761055
 20
19.253201
 11
47.932912
 21
18.367187
  0
LINE
  8
4
  6
CONTINUOUS
 10
47.895136
 20
19.268924
 11
47.932912
 21
18.367187
  0
LINE
  8
4
  6
CONTINUOUS
 10
47.671304
 20
19.439014
 11
47.939467
 21
19.470459
  0
LINE
  8
4
  6
CONTINUOUS
 10
47.653835
 20
19.587993
 11
47.921997
 21
19.619438
  0
POLYLINE
  8
4
  6
CONTINUOUS
 66
     1
  0
VERTEX
  8
4
  6
CONTINUOUS
 10
42.641908
 20
63.488910
  0
VERTEX
  8
4
  6
CONTINUOUS
 10
47.723279
 20
20.154938
  0
SEQEND
  8
4
  6
CONTINUOUS
  0
LINE
  8
4
  6
CONTINUOUS
 10
40.397288
 20
63.225704
 11
40.257532
 21
64.417538
  0
LINE
  8
4
  6
CONTINUOUS
 10
40.376716
 20
64.431514
 11
40.138349
 21
64.403563
  0
LINE
  8
4
  6
CONTINUOUS
 10
40.379511
 20
64.407677
 11
40.141144
 21
64.379726
  0
LINE
  8
4
  6
CONTINUOUS
 10
40.382306
 20
64.383840
 11
40.143939
 21
64.355889
  0
LINE
  8
4
  6
CONTINUOUS
 10
45.478658
 20
19.891732
 11
45.583475
 21
18.997857
  0
LINE
  8
4
  6
CONTINUOUS
 10
45.516434
 20
18.989995
 11
45.650516
 21
19.005718
  0
LINE
  8
4
  6
CONTINUOUS
 10
45.516434
 20
18.989995
 11
45.688291
 21
18.103981
  0
LINE
  8
4
  6
CONTINUOUS
 10
45.650516
 20
19.005718
 11
45.688291
 21
18.103981
  0
LINE
  8
4
  6
CONTINUOUS
 10
45.426683
 20
19.175808
 11
45.694846
 21
19.207253
  0
LINE
  8
4
  6
CONTINUOUS
 10
45.409214
 20
19.324787
 11
45.677377
 21
19.356232
  0
POLYLINE
  8
4
  6
CONTINUOUS
 66
     1
  0
VERTEX
  8
4
  6
CONTINUOUS
 10
40.397288
 20
63.225704
  0
VERTEX
  8
4
  6
CONTINUOUS
 10
45.478658
 20
19.891732
  0
SEQEND
  8
4
  6
CONTINUOUS
  0
LINE
  8
4
  6
CONTINUOUS
 10
66.769929
 20
66.341037
 11
66.630174
 21
67.532871
  0
LINE
  8
4
  6
CONTINUOUS
 10
66.749357
 20
67.546846
 11
66.510990
 21
67.518895
  0
LINE
  8
4
  6
CONTINUOUS
 10
66.752152
 20
67.523010
 11
66.513785
 21
67.495059
  0
LINE
  8
4
  6
CONTINUOUS
 10
66.754947
 20
67.499173
 11
66.516581
 21
67.471222
  0
LINE
  8
4
  6
CONTINUOUS
 10
71.837679
 20
23.123226
 11
71.942495
 21
22.229350
  0
LINE
  8
4
  6
CONTINUOUS
 10
71.875455
 20
22.221489
 11
72.009536
 21
22.237211
  0
LINE
  8
4
  6
CONTINUOUS
 10
71.875455
 20
22.221489
 11
72.047312
 21
21.335475
  0
LINE
  8
4
  6
CONTINUOUS
 10
72.009536
 20
22.237211
 11
72.047312
 21
21.335475
  0
LINE
  8
4
  6
CONTINUOUS
 10
71.785704
 20
22.407302
 11
72.053866
 21
22.438747
  0
LINE
  8
4
  6
CONTINUOUS
 10
71.768234
 20
22.556281
 11
72.036397
 21
22.587726
  0
POLYLINE
  8
4
  6
CONTINUOUS
 66
     1
  0
VERTEX
  8
4
  6
CONTINUOUS
 10
66.769929
 20
66.341037
  0
VERTEX
  8
4
  6
CONTINUOUS
 10
71.837679
 20
23.123226
  0
SEQEND
  8
4
  6
CONTINUOUS
  0
LINE
  8
4
  6
CONTINUOUS
 10
64.624628
 20
66.089477
 11
64.484872
 21
67.281311
  0
LINE
  8
4
  6
CONTINUOUS
 10
64.604056
 20
67.295287
 11
64.365689
 21
67.267336
  0
LINE
  8
4
  6
CONTINUOUS
 10
64.606851
 20
67.271450
 11
64.368484
 21
67.243499
  0
LINE
  8
4
  6
CONTINUOUS
 10
64.609646
 20
67.247614
 11
64.371279
 21
67.219663
  0
LINE
  8
4
  6
CONTINUOUS
 10
69.692377
 20
22.871666
 11
69.797194
 21
21.977791
  0
LINE
  8
4
  6
CONTINUOUS
 10
69.730153
 20
21.969929
 11
69.864235
 21
21.985652
  0
LINE
  8
4
  6
CONTINUOUS
 10
69.730153
 20
21.969929
 11
69.902010
 21
21.083915
  0
LINE
  8
4
  6
CONTINUOUS
 10
69.864235
 20
21.985652
 11
69.902010
 21
21.083915
  0
LINE
  8
4
  6
CONTINUOUS
 10
69.640402
 20
22.155742
 11
69.908565
 21
22.187187
  0
LINE
  8
4
  6
CONTINUOUS
 10
69.622933
 20
22.304721
 11
69.891096
 21
22.336166
  0
POLYLINE
  8
4
  6
CONTINUOUS
 66
     1
  0
VERTEX
  8
4
  6
CONTINUOUS
 10
64.624628
 20
66.089477
  0
VERTEX
  8
4
  6
CONTINUOUS
 10
69.692377
 20
22.871666
  0
SEQEND
  8
4
  6
CONTINUOUS
  0
LINE
  8
4
  6
CONTINUOUS
 10
62.479326
 20
65.837918
 11
62.339571
 21
67.029752
  0
LINE
  8
4
  6
CONTINUOUS
 10
62.458754
 20
67.043727
 11
62.220388
 21
67.015776
  0
LINE
  8
4
  6
CONTINUOUS
 10
62.461550
 20
67.019891
 11
62.223183
 21
66.991940
  0
LINE
  8
4
  6
CONTINUOUS
 10
62.464345
 20
66.996054
 11
62.225978
 21
66.968103
  0
LINE
  8
4
  6
CONTINUOUS
 10
67.547076
 20
22.620107
 11
67.651893
 21
21.726231
  0
LINE
  8
4
  6
CONTINUOUS
 10
67.584852
 20
21.718370
 11
67.718933
 21
21.734092
  0
LINE
  8
4
  6
CONTINUOUS
 10
67.584852
 20
21.718370
 11
67.756709
 21
20.832356
  0
LINE
  8
4
  6
CONTINUOUS
 10
67.718933
 20
21.734092
 11
67.756709
 21
20.832356
  0
LINE
  8
4
  6
CONTINUOUS
 10
67.495101
 20
21.904183
 11
67.763264
 21
21.935628
  0
LINE
  8
4
  6
CONTINUOUS
 10
67.477632
 20
22.053162
 11
67.745794
 21
22.084607
  0
POLYLINE
  8
4
  6
CONTINUOUS
 66
     1
  0
VERTEX
  8
4
  6
CONTINUOUS
 10
62.479326
 20
65.837918
  0
VERTEX
  8
4
  6
CONTINUOUS
 10
67.547076
 20
22.620107
  0
SEQEND
  8
4
  6
CONTINUOUS
  0
LINE
  8
4
  6
CONTINUOUS
 10
60.334025
 20
65.586358
 11
60.194270
 21
66.778192
  0
LINE
  8
4
  6
CONTINUOUS
 10
60.313453
 20
66.792168
 11
60.075086
 21
66.764217
  0
LINE
  8
4
  6
CONTINUOUS
 10
60.316248
 20
66.768331
 11
60.077881
 21
66.740380
  0
LINE
  8
4
  6
CONTINUOUS
 10
60.319043
 20
66.744495
 11
60.080677
 21
66.716544
  0
LINE
  8
4
  6
CONTINUOUS
 10
65.401775
 20
22.368547
 11
65.506591
 21
21.474672
  0
LINE
  8
4
  6
CONTINUOUS
 10
65.439551
 20
21.466810
 11
65.573632
 21
21.482533
  0
LINE
  8
4
  6
CONTINUOUS
 10
65.439551
 20
21.466810
 11
65.611408
 21
20.580796
  0
LINE
  8
4
  6
CONTINUOUS
 10
65.573632
 20
21.482533
 11
65.611408
 21
20.580796
  0
LINE
  8
4
  6
CONTINUOUS
 10
65.349800
 20
21.652623
 11
65.617962
 21
21.684068
  0
LINE
  8
4
  6
CONTINUOUS
 10
65.332330
 20
21.801602
 11
65.600493
 21
21.833047
  0
POLYLINE
  8
4
  6
CONTINUOUS
 66
     1
  0
VERTEX
  8
4
  6
CONTINUOUS
 10
60.334025
 20
65.586358
  0
VERTEX
  8
4
  6
CONTINUOUS
 10
65.401775
 20
22.368547
  0
SEQEND
  8
4
  6
CONTINUOUS
  0
LINE
  8
4
  6
CONTINUOUS
 10
58.188724
 20
65.334799
 11
58.048968
 21
66.526633
  0
LINE
  8
4
  6
CONTINUOUS
 10
58.168152
 20
66.540608
 11
57.929785
 21
66.512657
  0
LINE
  8
4
  6
CONTINUOUS
 10
58.170947
 20
66.516772
 11
57.932580
 21
66.488821
  0
LINE
  8
4
  6
CONTINUOUS
 10
58.173742
 20
66.492935
 11
57.935375
 21
66.464984
  0
LINE
  8
4
  6
CONTINUOUS
 10
63.256473
 20
22.116988
 11
63.361290
 21
21.223112
  0
LINE
  8
4
  6
CONTINUOUS
 10
63.294249
 20
21.215251
 11
63.428331
 21
21.230973
  0
LINE
  8
4
  6
CONTINUOUS
 10
63.294249
 20
21.215251
 11
63.466106
 21
20.329237
  0
LINE
  8
4
  6
CONTINUOUS
 10
63.428331
 20
21.230973
 11
63.466106
 21
20.329237
  0
LINE
  8
4
  6
CONTINUOUS
 10
63.204498
 20
21.401064
 11
63.472661
 21
21.432509
  0
LINE
  8
4
  6
CONTINUOUS
 10
63.187029
 20
21.550043
 11
63.455192
 21
21.581488
  0
POLYLINE
  8
4
  6
CONTINUOUS
 66
     1
  0
VERTEX
  8
4
  6
CONTINUOUS
 10
58.188724
 20
65.334799
  0
VERTEX
  8
4
  6
CONTINUOUS
 10
63.256473
 20
22.116988
  0
SEQEND
  8
4
  6
CONTINUOUS
  0
LINE
  8
4
  6
CONTINUOUS
 10
56.043422
 20
65.083239
 11
55.903667
 21
66.275073
  0
LINE
  8
4
  6
CONTINUOUS
 10
56.022850
 20
66.289049
 11
55.784484
 21
66.261098
  0
LINE
  8
4
  6
CONTINUOUS
 10
56.025646
 20
66.265212
 11
55.787279
 21
66.237261
  0
LINE
  8
4
  6
CONTINUOUS
 10
56.028441
 20
66.241376
 11
55.790074
 21
66.213425
  0
LINE
  8
4
  6
CONTINUOUS
 10
61.111172
 20
21.865428
 11
61.215989
 21
20.971553
  0
LINE
  8
4
  6
CONTINUOUS
 10
61.148948
 20
20.963692
 11
61.283029
 21
20.979414
  0
LINE
  8
4
  6
CONTINUOUS
 10
61.148948
 20
20.963692
 11
61.320805
 21
20.077677
  0
LINE
  8
4
  6
CONTINUOUS
 10
61.283029
 20
20.979414
 11
61.320805
 21
20.077677
  0
LINE
  8
4
  6
CONTINUOUS
 10
61.059197
 20
21.149505
 11
61.327360
 21
21.180949
  0
LINE
  8
4
  6
CONTINUOUS
 10
61.041728
 20
21.298483
 11
61.309890
 21
21.329928
  0
POLYLINE
  8
4
  6
CONTINUOUS
 66
     1
  0
VERTEX
  8
4
  6
CONTINUOUS
 10
56.043422
 20
65.083239
  0
VERTEX
  8
4
  6
CONTINUOUS
 10
61.111172
 20
21.865428
  0
SEQEND
  8
4
  6
CONTINUOUS
  0
LINE
  8
4
  6
CONTINUOUS
 10
53.898121
 20
64.831680
 11
53.758366
 21
66.023514
  0
LINE
  8
4
  6
CONTINUOUS
 10
53.877549
 20
66.037489
 11
53.639182
 21
66.009538
  0
LINE
  8
4
  6
CONTINUOUS
 10
53.880344
 20
66.013653
 11
53.641977
 21
65.985702
  0
LINE
  8
4
  6
CONTINUOUS
 10
53.883139
 20
65.989816
 11
53.644773
 21
65.961865
  0
LINE
  8
4
  6
CONTINUOUS
 10
58.965871
 20
21.613869
 11
59.070687
 21
20.719993
  0
LINE
  8
4
  6
CONTINUOUS
 10
59.003647
 20
20.712132
 11
59.137728
 21
20.727855
  0
LINE
  8
4
  6
CONTINUOUS
 10
59.003647
 20
20.712132
 11
59.175504
 21
19.826118
  0
LINE
  8
4
  6
CONTINUOUS
 10
59.137728
 20
20.727855
 11
59.175504
 21
19.826118
  0
LINE
  8
4
  6
CONTINUOUS
 10
58.913896
 20
20.897945
 11
59.182058
 21
20.929390
  0
LINE
  8
4
  6
CONTINUOUS
 10
58.896426
 20
21.046924
 11
59.164589
 21
21.078369
  0
POLYLINE
  8
4
  6
CONTINUOUS
 66
     1
  0
VERTEX
  8
4
  6
CONTINUOUS
 10
53.898121
 20
64.831680
  0
VERTEX
  8
4
  6
CONTINUOUS
 10
58.965871
 20
21.613869
  0
SEQEND
  8
4
  6
CONTINUOUS
  0
LINE
  8
4
  6
CONTINUOUS
 10
38.286059
 20
62.959703
 11
38.146303
 21
64.151537
  0
LINE
  8
4
  6
CONTINUOUS
 10
38.265487
 20
64.165513
 11
38.027120
 21
64.137562
  0
LINE
  8
4
  6
CONTINUOUS
 10
38.268282
 20
64.141676
 11
38.029915
 21
64.113725
  0
LINE
  8
4
  6
CONTINUOUS
 10
38.271077
 20
64.117839
 11
38.032710
 21
64.089888
  0
LINE
  8
4
  6
CONTINUOUS
 10
43.374427
 20
19.566056
 11
43.479243
 21
18.672180
  0
LINE
  8
4
  6
CONTINUOUS
 10
43.412203
 20
18.664319
 11
43.546284
 21
18.680041
  0
LINE
  8
4
  6
CONTINUOUS
 10
43.412203
 20
18.664319
 11
43.584060
 21
17.778304
  0
LINE
  8
4
  6
CONTINUOUS
 10
43.546284
 20
18.680041
 11
43.584060
 21
17.778304
  0
LINE
  8
4
  6
CONTINUOUS
 10
43.322452
 20
18.850132
 11
43.590614
 21
18.881577
  0
LINE
  8
4
  6
CONTINUOUS
 10
43.304982
 20
18.999110
 11
43.573145
 21
19.030555
  0
POLYLINE
  8
4
  6
CONTINUOUS
 66
     1
  0
VERTEX
  8
4
  6
CONTINUOUS
 10
38.286059
 20
62.959703
  0
VERTEX
  8
4
  6
CONTINUOUS
 10
43.374427
 20
19.566056
  0
SEQEND
  8
4
  6
CONTINUOUS
  0
LINE
  8
4
  6
CONTINUOUS
 10
36.379124
 20
62.736095
 11
36.239369
 21
63.927929
  0
LINE
  8
4
  6
CONTINUOUS
 10
36.358552
 20
63.941904
 11
36.120185
 21
63.913953
  0
LINE
  8
4
  6
CONTINUOUS
 10
36.361347
 20
63.918067
 11
36.122980
 21
63.890116
  0
LINE
  8
4
  6
CONTINUOUS
 10
36.364142
 20
63.894231
 11
36.125776
 21
63.866280
  0
LINE
  8
4
  6
CONTINUOUS
 10
41.467493
 20
19.342447
 11
41.572309
 21
18.448572
  0
LINE
  8
4
  6
CONTINUOUS
 10
41.505268
 20
18.440710
 11
41.639350
 21
18.456433
  0
LINE
  8
4
  6
CONTINUOUS
 10
41.505268
 20
18.440710
 11
41.677125
 21
17.554696
  0
LINE
  8
4
  6
CONTINUOUS
 10
41.639350
 20
18.456433
 11
41.677125
 21
17.554696
  0
LINE
  8
4
  6
CONTINUOUS
 10
41.415517
 20
18.626523
 11
41.683680
 21
18.657968
  0
LINE
  8
4
  6
CONTINUOUS
 10
41.398048
 20
18.775502
 11
41.666211
 21
18.806947
  0
POLYLINE
  8
4
  6
CONTINUOUS
 66
     1
  0
VERTEX
  8
4
  6
CONTINUOUS
 10
36.379124
 20
62.736095
  0
VERTEX
  8
4
  6
CONTINUOUS
 10
41.467493
 20
19.342447
  0
SEQEND
  8
4
  6
CONTINUOUS
  0
LINE
  8
4
  6
CONTINUOUS
 10
34.472190
 20
62.512486
 11
34.332434
 21
63.704320
  0
LINE
  8
4
  6
CONTINUOUS
 10
34.451618
 20
63.718296
 11
34.213251
 21
63.690345
  0
LINE
  8
4
  6
CONTINUOUS
 10
34.454413
 20
63.694459
 11
34.216046
 21
63.666508
  0
LINE
  8
4
  6
CONTINUOUS
 10
34.457208
 20
63.670622
 11
34.218841
 21
63.642671
  0
LINE
  8
4
  6
CONTINUOUS
 10
39.560558
 20
19.118839
 11
39.665374
 21
18.224963
  0
LINE
  8
4
  6
CONTINUOUS
 10
39.598334
 20
18.217102
 11
39.732415
 21
18.232824
  0
LINE
  8
4
  6
CONTINUOUS
 10
39.598334
 20
18.217102
 11
39.770191
 21
17.331088
  0
LINE
  8
4
  6
CONTINUOUS
 10
39.732415
 20
18.232824
 11
39.770191
 21
17.331088
  0
LINE
  8
4
  6
CONTINUOUS
 10
39.508583
 20
18.402915
 11
39.776745
 21
18.434360
  0
LINE
  8
4
  6
CONTINUOUS
 10
39.491113
 20
18.551894
 11
39.759276
 21
18.583339
  0
POLYLINE
  8
4
  6
CONTINUOUS
 66
     1
  0
VERTEX
  8
4
  6
CONTINUOUS
 10
34.472190
 20
62.512486
  0
VERTEX
  8
4
  6
CONTINUOUS
 10
39.560558
 20
19.118839
  0
SEQEND
  8
4
  6
CONTINUOUS
  0
LINE
  8
4
  6
CONTINUOUS
 10
72.370754
 20
67.016529
 11
72.230999
 21
68.208363
  0
LINE
  8
4
  6
CONTINUOUS
 10
72.350183
 20
68.222339
 11
72.111816
 21
68.194388
  0
LINE
  8
4
  6
CONTINUOUS
 10
72.352978
 20
68.198502
 11
72.114611
 21
68.170551
  0
LINE
  8
4
  6
CONTINUOUS
 10
72.355773
 20
68.174665
 11
72.117406
 21
68.146714
  0
LINE
  8
4
  6
CONTINUOUS
 10
74.389551
 20
49.800216
 11
74.494367
 21
48.906341
  0
LINE
  8
4
  6
CONTINUOUS
 10
74.427327
 20
48.898480
 11
74.561408
 21
48.914202
  0
LINE
  8
4
  6
CONTINUOUS
 10
74.427327
 20
48.898480
 11
74.599184
 21
48.012465
  0
LINE
  8
4
  6
CONTINUOUS
 10
74.561408
 20
48.914202
 11
74.599184
 21
48.012465
  0
LINE
  8
4
  6
CONTINUOUS
 10
74.337576
 20
49.084293
 11
74.605738
 21
49.115737
  0
LINE
  8
4
  6
CONTINUOUS
 10
74.320106
 20
49.233271
 11
74.588269
 21
49.264716
  0
POLYLINE
  8
4
  6
CONTINUOUS
 66
     1
  0
VERTEX
  8
4
  6
CONTINUOUS
 10
72.370754
 20
67.016529
  0
VERTEX
  8
4
  6
CONTINUOUS
 10
74.389551
 20
49.800216
  0
SEQEND
  8
4
  6
CONTINUOUS
  0
LINE
  8
4
  6
CONTINUOUS
 10
70.583003
 20
66.806896
 11
70.443248
 21
67.998730
  0
LINE
  8
4
  6
CONTINUOUS
 10
70.562431
 20
68.012706
 11
70.324065
 21
67.984755
  0
LINE
  8
4
  6
CONTINUOUS
 10
70.565226
 20
67.988869
 11
70.326860
 21
67.960918
  0
LINE
  8
4
  6
CONTINUOUS
 10
70.568022
 20
67.965032
 11
70.329655
 21
67.937081
  0
LINE
  8
4
  6
CONTINUOUS
 10
72.601800
 20
49.590583
 11
72.706616
 21
48.696708
  0
LINE
  8
4
  6
CONTINUOUS
 10
72.639576
 20
48.688847
 11
72.773657
 21
48.704569
  0
LINE
  8
4
  6
CONTINUOUS
 10
72.639576
 20
48.688847
 11
72.811433
 21
47.802832
  0
LINE
  8
4
  6
CONTINUOUS
 10
72.773657
 20
48.704569
 11
72.811433
 21
47.802832
  0
LINE
  8
4
  6
CONTINUOUS
 10
72.549824
 20
48.874660
 11
72.817987
 21
48.906105
  0
LINE
  8
4
  6
CONTINUOUS
 10
72.532355
 20
49.023638
 11
72.800518
 21
49.055083
  0
POLYLINE
  8
4
  6
CONTINUOUS
 66
     1
  0
VERTEX
  8
4
  6
CONTINUOUS
 10
70.583003
 20
66.806896
  0
VERTEX
  8
4
  6
CONTINUOUS
 10
72.601800
 20
49.590583
  0
SEQEND
  8
4
  6
CONTINUOUS
  0
LINE
  8
4
  6
CONTINUOUS
 10
68.795252
 20
66.597263
 11
68.655497
 21
67.789097
  0
LINE
  8
4
  6
CONTINUOUS
 10
68.774680
 20
67.803073
 11
68.536313
 21
67.775122
  0
LINE
  8
4
  6
CONTINUOUS
 10
68.777475
 20
67.779236
 11
68.539109
 21
67.751285
  0
LINE
  8
4
  6
CONTINUOUS
 10
68.780270
 20
67.755399
 11
68.541904
 21
67.727448
  0
LINE
  8
4
  6
CONTINUOUS
 10
70.814049
 20
49.380951
 11
70.918865
 21
48.487075
  0
LINE
  8
4
  6
CONTINUOUS
 10
70.851824
 20
48.479214
 11
70.985906
 21
48.494936
  0
LINE
  8
4
  6
CONTINUOUS
 10
70.851824
 20
48.479214
 11
71.023682
 21
47.593199
  0
LINE
  8
4
  6
CONTINUOUS
 10
70.985906
 20
48.494936
 11
71.023682
 21
47.593199
  0
LINE
  8
4
  6
CONTINUOUS
 10
70.762073
 20
48.665027
 11
71.030236
 21
48.696472
  0
LINE
  8
4
  6
CONTINUOUS
 10
70.744604
 20
48.814005
 11
71.012767
 21
48.845450
  0
POLYLINE
  8
4
  6
CONTINUOUS
 66
     1
  0
VERTEX
  8
4
  6
CONTINUOUS
 10
68.795252
 20
66.597263
  0
VERTEX
  8
4
  6
CONTINUOUS
 10
70.814049
 20
49.380951
  0
SEQEND
  8
4
  6
CONTINUOUS
  0
LINE
  8
1
  6
CONTINUOUS
 10
5.983920
 20
80.067040
 11
25.407648
 21
80.067040
  0
LINE
  8
1
  6
CONTINUOUS
 10
5.983920
 20
80.067040
 11
5.983920
 21
79.067040
  0
LINE
  8
1
  6
CONTINUOUS
 10
5.983920
 20
79.067040
 11
22.273200
 21
79.067040
  0
LINE
  8
1
  6
CONTINUOUS
 10
5.983920
 20
79.067040
 11
5.983920
 21
78.067040
  0
LINE
  8
1
  6
CONTINUOUS
 10
8.473036
 20
79.067040
 11
8.473036
 21
78.067040
  0
LINE
  8
1
  6
CONTINUOUS
 10
10.610749
 20
79.067040
 11
10.610749
 21
78.067040
  0
LINE
  8
1
  6
CONTINUOUS
 10
11.986116
 20
79.067040
 11
11.986116
 21
78.067040
  0
LINE
  8
1
  6
CONTINUOUS
 10
16.150629
 20
78.567040
 11
16.150629
 21
78.067040
  0
LINE
  8
1
  6
CONTINUOUS
 10
19.138752
 20
79.067040
 11
19.138752
 21
78.067040
  0
LINE
  8
1
  6
CONTINUOUS
 10
20.183567
 20
78.567040
 11
20.183568
 21
78.067040
  0
LINE
  8
1
  6
CONTINUOUS
 10
21.228384
 20
78.567040
 11
21.228384
 21
78.067040
  0
LINE
  8
1
  6
CONTINUOUS
 10
22.273200
 20
79.067040
 11
22.273200
 21
78.067040
  0
LINE
  8
1
  6
CONTINUOUS
 10
5.983920
 20
78.067040
 11
25.407648
 21
78.067040
  0
LINE
  8
1
  6
CONTINUOUS
 10
11.986116
 20
78.567040
 11
16.150629
 21
78.567040
  0
LINE
  8
1
  6
CONTINUOUS
 10
16.150629
 20
78.567040
 11
19.138752
 21
78.567040
  0
LINE
  8
1
  6
CONTINUOUS
 10
19.138752
 20
78.567040
 11
20.183568
 21
78.567040
  0
LINE
  8
1
  6
CONTINUOUS
 10
20.183568
 20
78.567040
 11
21.228384
 21
78.567040
  0
LINE
  8
1
  6
CONTINUOUS
 10
21.228384
 20
78.567040
 11
25.407648
 21
78.567040
  0
LINE
  8
1
  6
CONTINUOUS
 10
25.407648
 20
78.067040
 11
25.407648
 21
80.067040
  0
LINE
  8
1
  6
CONTINUOUS
 10
23.840424
 20
78.567040
 11
23.840424
 21
78.067040
  0
LINE
  8
1
  6
CONTINUOUS
 10
22.273200
 20
79.067040
 11
25.407648
 21
79.067040
  0
LINE
  8
1
  6
CONTINUOUS
 10
5.983920
 20
78.067040
 11
5.983920
 21
77.567039
  0
LINE
  8
1
  6
CONTINUOUS
 10
5.983920
 20
77.567039
 11
25.407648
 21
77.567039
  0
LINE
  8
1
  6
CONTINUOUS
 10
8.473036
 20
78.067040
 11
8.473036
 21
77.567039
  0
LINE
  8
1
  6
CONTINUOUS
 10
10.610749
 20
78.067040
 11
10.610749
 21
77.567039
  0
LINE
  8
1
  6
CONTINUOUS
 10
11.986116
 20
78.067040
 11
11.986116
 21
77.567039
  0
LINE
  8
1
  6
CONTINUOUS
 10
16.150629
 20
78.067040
 11
16.150629
 21
77.567039
  0
LINE
  8
1
  6
CONTINUOUS
 10
19.138752
 20
78.067040
 11
19.138752
 21
77.567039
  0
LINE
  8
1
  6
CONTINUOUS
 10
20.183568
 20
78.067040
 11
20.183568
 21
77.567039
  0
LINE
  8
1
  6
CONTINUOUS
 10
21.228384
 20
78.067040
 11
21.228384
 21
77.567039
  0
LINE
  8
1
  6
CONTINUOUS
 10
22.273200
 20
78.067040
 11
22.273200
 21
77.567039
  0
LINE
  8
1
  6
CONTINUOUS
 10
22.273200
 20
77.567039
 11
22.273200
 21
78.067040
  0
LINE
  8
1
  6
CONTINUOUS
 10
22.273200
 20
78.067040
 11
22.273200
 21
77.567039
  0
LINE
  8
1
  6
CONTINUOUS
 10
23.840424
 20
78.067040
 11
23.840424
 21
77.567039
  0
LINE
  8
1
  6
CONTINUOUS
 10
25.407648
 20
78.067040
 11
25.407648
 21
77.567039
  0
LINE
  8
1
  6
CONTINUOUS
 10
5.983920
 20
77.567039
 11
5.983920
 21
77.067039
  0
LINE
  8
1
  6
CONTINUOUS
 10
5.983920
 20
77.067039
 11
25.407648
 21
77.067039
  0
LINE
  8
1
  6
CONTINUOUS
 10
8.473036
 20
77.567039
 11
8.473036
 21
77.067039
  0
LINE
  8
1
  6
CONTINUOUS
 10
10.610749
 20
77.567039
 11
10.610749
 21
77.067039
  0
LINE
  8
1
  6
CONTINUOUS
 10
11.986116
 20
77.567039
 11
11.986116
 21
77.067039
  0
LINE
  8
1
  6
CONTINUOUS
 10
16.150629
 20
77.567039
 11
16.150629
 21
77.067039
  0
LINE
  8
1
  6
CONTINUOUS
 10
19.138752
 20
77.567039
 11
19.138752
 21
77.067039
  0
LINE
  8
1
  6
CONTINUOUS
 10
20.183568
 20
77.567039
 11
20.183568
 21
77.067039
  0
LINE
  8
1
  6
CONTINUOUS
 10
21.228384
 20
77.567039
 11
21.228384
 21
77.067039
  0
LINE
  8
1
  6
CONTINUOUS
 10
22.273200
 20
77.567039
 11
22.273200
 21
77.067039
  0
LINE
  8
1
  6
CONTINUOUS
 10
22.273200
 20
77.067039
 11
22.273200
 21
77.567039
  0
LINE
  8
1
  6
CONTINUOUS
 10
22.273200
 20
77.567039
 11
22.273200
 21
77.067039
  0
LINE
  8
1
  6
CONTINUOUS
 10
23.840424
 20
77.567039
 11
23.840424
 21
77.067039
  0
LINE
  8
1
  6
CONTINUOUS
 10
25.407648
 20
77.567039
 11
25.407648
 21
77.067039
  0
LINE
  8
1
  6
CONTINUOUS
 10
5.983920
 20
77.067038
 11
5.983920
 21
76.567038
  0
LINE
  8
1
  6
CONTINUOUS
 10
5.983920
 20
76.567038
 11
25.407648
 21
76.567038
  0
LINE
  8
1
  6
CONTINUOUS
 10
8.473036
 20
77.067038
 11
8.473036
 21
76.567038
  0
LINE
  8
1
  6
CONTINUOUS
 10
10.610749
 20
77.067038
 11
10.610749
 21
76.567038
  0
LINE
  8
1
  6
CONTINUOUS
 10
11.986116
 20
77.067038
 11
11.986116
 21
76.567038
  0
LINE
  8
1
  6
CONTINUOUS
 10
16.150629
 20
77.067038
 11
16.150629
 21
76.567038
  0
LINE
  8
1
  6
CONTINUOUS
 10
19.138752
 20
77.067038
 11
19.138752
 21
76.567038
  0
LINE
  8
1
  6
CONTINUOUS
 10
20.183568
 20
77.067038
 11
20.183568
 21
76.567038
  0
LINE
  8
1
  6
CONTINUOUS
 10
21.228384
 20
77.067038
 11
21.228384
 21
76.567038
  0
LINE
  8
1
  6
CONTINUOUS
 10
22.273200
 20
77.067038
 11
22.273200
 21
76.567038
  0
LINE
  8
1
  6
CONTINUOUS
 10
22.273200
 20
76.567038
 11
22.273200
 21
77.067038
  0
LINE
  8
1
  6
CONTINUOUS
 10
22.273200
 20
77.067039
 11
22.273200
 21
76.567038
  0
LINE
  8
1
  6
CONTINUOUS
 10
23.840424
 20
77.067038
 11
23.840424
 21
76.567038
  0
LINE
  8
1
  6
CONTINUOUS
 10
25.407648
 20
77.067038
 11
25.407648
 21
76.567038
  0
LINE
  8
1
  6
CONTINUOUS
 10
5.983920
 20
76.567037
 11
5.983920
 21
76.067037
  0
LINE
  8
1
  6
CONTINUOUS
 10
5.983920
 20
76.067037
 11
25.407648
 21
76.067037
  0
LINE
  8
1
  6
CONTINUOUS
 10
8.473036
 20
76.567037
 11
8.473036
 21
76.067037
  0
LINE
  8
1
  6
CONTINUOUS
 10
10.610749
 20
76.567037
 11
10.610749
 21
76.067037
  0
LINE
  8
1
  6
CONTINUOUS
 10
11.986116
 20
76.567037
 11
11.986116
 21
76.067037
  0
LINE
  8
1
  6
CONTINUOUS
 10
16.150629
 20
76.567037
 11
16.150629
 21
76.067037
  0
LINE
  8
1
  6
CONTINUOUS
 10
19.138752
 20
76.567037
 11
19.138752
 21
76.067037
  0
LINE
  8
1
  6
CONTINUOUS
 10
20.183568
 20
76.567037
 11
20.183568
 21
76.067037
  0
LINE
  8
1
  6
CONTINUOUS
 10
21.228384
 20
76.567037
 11
21.228384
 21
76.067037
  0
LINE
  8
1
  6
CONTINUOUS
 10
22.273200
 20
76.567037
 11
22.273200
 21
76.067037
  0
LINE
  8
1
  6
CONTINUOUS
 10
22.273200
 20
76.067037
 11
22.273200
 21
76.567037
  0
LINE
  8
1
  6
CONTINUOUS
 10
22.273200
 20
76.567038
 11
22.273200
 21
76.067037
  0
LINE
  8
1
  6
CONTINUOUS
 10
23.840424
 20
76.567037
 11
23.840424
 21
76.067037
  0
LINE
  8
1
  6
CONTINUOUS
 10
25.407648
 20
76.567037
 11
25.407648
 21
76.067037
  0
LINE
  8
1
  6
CONTINUOUS
 10
5.983920
 20
76.067037
 11
5.983920
 21
75.567037
  0
LINE
  8
1
  6
CONTINUOUS
 10
5.983920
 20
75.567037
 11
25.407648
 21
75.567037
  0
LINE
  8
1
  6
CONTINUOUS
 10
8.473036
 20
76.067037
 11
8.473036
 21
75.567037
  0
LINE
  8
1
  6
CONTINUOUS
 10
10.610749
 20
76.067037
 11
10.610749
 21
75.567037
  0
LINE
  8
1
  6
CONTINUOUS
 10
11.986116
 20
76.067037
 11
11.986116
 21
75.567037
  0
LINE
  8
1
  6
CONTINUOUS
 10
16.150629
 20
76.067037
 11
16.150629
 21
75.567037
  0
LINE
  8
1
  6
CONTINUOUS
 10
19.138752
 20
76.067037
 11
19.138752
 21
75.567037
  0
LINE
  8
1
  6
CONTINUOUS
 10
20.183568
 20
76.067037
 11
20.183568
 21
75.567037
  0
LINE
  8
1
  6
CONTINUOUS
 10
21.228384
 20
76.067037
 11
21.228384
 21
75.567037
  0
LINE
  8
1
  6
CONTINUOUS
 10
22.273200
 20
76.067037
 11
22.273200
 21
75.567037
  0
LINE
  8
1
  6
CONTINUOUS
 10
22.273200
 20
75.567037
 11
22.273200
 21
76.067037
  0
LINE
  8
1
  6
CONTINUOUS
 10
22.273200
 20
76.067037
 11
22.273200
 21
75.567036
  0
LINE
  8
1
  6
CONTINUOUS
 10
23.840424
 20
76.067037
 11
23.840424
 21
75.567037
  0
LINE
  8
1
  6
CONTINUOUS
 10
25.407648
 20
76.067037
 11
25.407648
 21
75.567037
  0
LINE
  8
1
  6
CONTINUOUS
 10
5.983920
 20
75.567036
 11
5.983920
 21
75.067036
  0
LINE
  8
1
  6
CONTINUOUS
 10
5.983920
 20
75.067036
 11
25.407648
 21
75.067036
  0
LINE
  8
1
  6
CONTINUOUS
 10
8.473036
 20
75.567036
 11
8.473036
 21
75.067036
  0
LINE
  8
1
  6
CONTINUOUS
 10
10.610749
 20
75.567036
 11
10.610749
 21
75.067036
  0
LINE
  8
1
  6
CONTINUOUS
 10
11.986116
 20
75.567036
 11
11.986116
 21
75.067036
  0
LINE
  8
1
  6
CONTINUOUS
 10
16.150629
 20
75.567036
 11
16.150629
 21
75.067036
  0
LINE
  8
1
  6
CONTINUOUS
 10
19.138752
 20
75.567036
 11
19.138752
 21
75.067036
  0
LINE
  8
1
  6
CONTINUOUS
 10
20.183568
 20
75.567036
 11
20.183568
 21
75.067036
  0
LINE
  8
1
  6
CONTINUOUS
 10
21.228384
 20
75.567036
 11
21.228384
 21
75.067036
  0
LINE
  8
1
  6
CONTINUOUS
 10
22.273200
 20
75.567036
 11
22.273200
 21
75.067036
  0
LINE
  8
1
  6
CONTINUOUS
 10
22.273200
 20
75.067036
 11
22.273200
 21
75.567036
  0
LINE
  8
1
  6
CONTINUOUS
 10
22.273200
 20
75.567036
 11
22.273200
 21
75.067036
  0
LINE
  8
1
  6
CONTINUOUS
 10
23.840424
 20
75.567036
 11
23.840424
 21
75.067036
  0
LINE
  8
1
  6
CONTINUOUS
 10
25.407648
 20
75.567036
 11
25.407648
 21
75.067036
  0
LINE
  8
1
  6
CONTINUOUS
 10
5.983920
 20
75.067035
 11
5.983920
 21
74.567035
  0
LINE
  8
1
  6
CONTINUOUS
 10
5.983920
 20
74.567035
 11
25.407648
 21
74.567035
  0
LINE
  8
1
  6
CONTINUOUS
 10
8.473036
 20
75.067035
 11
8.473036
 21
74.567035
  0
LINE
  8
1
  6
CONTINUOUS
 10
10.610749
 20
75.067035
 11
10.610749
 21
74.567035
  0
LINE
  8
1
  6
CONTINUOUS
 10
11.986116
 20
75.067035
 11
11.986116
 21
74.567035
  0
LINE
  8
1
  6
CONTINUOUS
 10
16.150629
 20
75.067035
 11
16.150629
 21
74.567035
  0
LINE
  8
1
  6
CONTINUOUS
 10
19.138752
 20
75.067035
 11
19.138752
 21
74.567035
  0
LINE
  8
1
  6
CONTINUOUS
 10
20.183568
 20
75.067035
 11
20.183568
 21
74.567035
  0
LINE
  8
1
  6
CONTINUOUS
 10
21.228384
 20
75.067035
 11
21.228384
 21
74.567035
  0
LINE
  8
1
  6
CONTINUOUS
 10
22.273200
 20
75.067035
 11
22.273200
 21
74.567035
  0
LINE
  8
1
  6
CONTINUOUS
 10
22.273200
 20
74.567035
 11
22.273200
 21
75.067035
  0
LINE
  8
1
  6
CONTINUOUS
 10
22.273200
 20
75.067036
 11
22.273200
 21
74.567035
  0
LINE
  8
1
  6
CONTINUOUS
 10
23.840424
 20
75.067035
 11
23.840424
 21
74.567035
  0
LINE
  8
1
  6
CONTINUOUS
 10
25.407648
 20
75.067035
 11
25.407648
 21
74.567035
  0
LINE
  8
1
  6
CONTINUOUS
 10
5.983920
 20
73.929683
 11
19.267012
 21
73.929683
  0
LINE
  8
1
  6
CONTINUOUS
 10
5.983920
 20
72.567035
 11
19.267012
 21
72.567035
  0
LINE
  8
1
  6
CONTINUOUS
 10
5.983920
 20
72.067035
 11
14.905629
 21
72.067035
  0
LINE
  8
1
  6
CONTINUOUS
 10
14.905629
 20
72.067035
 11
17.093752
 21
72.067035
  0
LINE
  8
1
  6
CONTINUOUS
 10
16.473732
 20
72.067035
 11
17.518548
 21
72.067035
  0
LINE
  8
1
  6
CONTINUOUS
 10
17.518548
 20
72.067035
 11
19.183384
 21
72.067035
  0
LINE
  8
1
  6
CONTINUOUS
 10
19.183384
 20
72.067035
 11
19.267012
 21
72.067035
  0
LINE
  8
1
  6
CONTINUOUS
 10
5.983920
 20
73.929683
 11
5.983920
 21
71.067035
  0
LINE
  8
1
  6
CONTINUOUS
 10
5.983920
 20
71.067035
 11
19.267012
 21
71.067035
  0
LINE
  8
1
  6
CONTINUOUS
 10
8.121632
 20
72.067035
 11
8.121632
 21
71.067035
  0
LINE
  8
1
  6
CONTINUOUS
 10
10.309756
 20
71.067035
 11
10.309756
 21
72.067035
  0
LINE
  8
1
  6
CONTINUOUS
 10
17.177380
 20
72.067035
 11
17.177380
 21
71.067035
  0
LINE
  8
1
  6
CONTINUOUS
 10
18.222197
 20
72.067035
 11
18.222197
 21
71.067035
  0
LINE
  8
1
  6
CONTINUOUS
 10
12.012568
 20
71.067035
 11
12.012568
 21
71.567035
  0
LINE
  8
1
  6
CONTINUOUS
 10
19.267012
 20
71.067035
 11
19.267012
 21
73.929683
  0
LINE
  8
1
  6
CONTINUOUS
 10
10.309756
 20
71.567035
 11
16.132565
 21
71.567035
  0
LINE
  8
1
  6
CONTINUOUS
 10
16.132565
 20
71.067035
 11
16.132565
 21
72.567035
  0
LINE
  8
1
  6
CONTINUOUS
 10
14.072567
 20
71.067035
 11
14.072567
 21
71.567035
  0
LINE
  8
1
  6
CONTINUOUS
 10
5.983920
 20
71.067034
 11
5.983920
 21
70.567034
  0
LINE
  8
1
  6
CONTINUOUS
 10
8.121632
 20
71.067034
 11
8.121632
 21
70.567034
  0
LINE
  8
1
  6
CONTINUOUS
 10
10.309756
 20
71.067034
 11
10.309756
 21
70.567034
  0
LINE
  8
1
  6
CONTINUOUS
 10
5.983920
 20
70.567034
 11
19.267012
 21
70.567034
  0
LINE
  8
1
  6
CONTINUOUS
 10
16.132565
 20
71.067035
 11
16.132565
 21
70.567035
  0
LINE
  8
1
  6
CONTINUOUS
 10
17.177380
 20
71.067035
 11
17.177380
 21
70.567035
  0
LINE
  8
1
  6
CONTINUOUS
 10
18.222197
 20
71.067035
 11
18.222197
 21
70.567035
  0
LINE
  8
1
  6
CONTINUOUS
 10
12.012568
 20
71.067035
 11
12.012568
 21
70.567034
  0
LINE
  8
1
  6
CONTINUOUS
 10
14.072567
 20
70.567034
 11
14.072567
 21
71.067035
  0
LINE
  8
1
  6
CONTINUOUS
 10
16.132565
 20
70.567034
 11
16.132565
 21
71.067035
  0
LINE
  8
1
  6
CONTINUOUS
 10
19.267012
 20
71.067035
 11
19.267012
 21
70.567034
  0
LINE
  8
2
  6
CONTINUOUS
 10
101.700000
 20
23.900000
 11
101.700000
 21
23.900000
  0
LINE
  8
2
  6
CONTINUOUS
 10
118.000000
 20
23.900000
 11
118.000000
 21
23.900000
  0
LINE
  8
2
  6
CONTINUOUS
 10
118.000000
 20
23.900000
 11
101.700000
 21
23.900000
  0
LINE
  8
2
  6
CONTINUOUS
 10
118.000000
 20
22.200000
 11
101.700000
 21
22.200000
  0
LINE
  8
2
  6
CONTINUOUS
 10
101.700000
 20
23.900000
 11
101.700000
 21
22.200000
  0
LINE
  8
2
  6
CONTINUOUS
 10
118.000000
 20
22.200000
 11
118.000000
 21
23.900000
  0
LINE
  8
1
  6
CONTINUOUS
 10
118.000002
 20
29.700001
 11
119.000002
 21
29.700001
  0
LINE
  8
1
  6
CONTINUOUS
 10
118.000002
 20
59.400002
 11
119.000002
 21
59.400002
  0
LINE
  8
1
  6
CONTINUOUS
 10
0.000000
 20
29.700001
 11
2.500000
 21
29.700001
  0
LINE
  8
1
  6
CONTINUOUS
 10
0.000000
 20
59.400002
 11
2.500000
 21
59.400002
  0
LINE
  8
1
  6
CONTINUOUS
 10
100.500002
 20
82.999998
 11
100.500002
 21
83.999998
  0
LINE
  8
1
  6
CONTINUOUS
 10
82.000002
 20
82.999998
 11
82.000002
 21
83.999998
  0
LINE
  8
1
  6
CONTINUOUS
 10
63.500002
 20
82.999998
 11
63.500002
 21
83.999998
  0
LINE
  8
1
  6
CONTINUOUS
 10
45.000002
 20
82.999998
 11
45.000002
 21
83.999998
  0
LINE
  8
1
  6
CONTINUOUS
 10
33.050001
 20
82.999998
 11
33.050001
 21
83.999998
  0
LINE
  8
1
  6
CONTINUOUS
 10
21.100000
 20
82.999998
 11
21.100000
 21
83.999998
  0
LINE
  8
1
  6
CONTINUOUS
 10
100.500002
 20
0.000000
 11
100.500002
 21
1.000000
  0
LINE
  8
1
  6
CONTINUOUS
 10
82.000002
 20
0.000000
 11
82.000002
 21
1.000000
  0
LINE
  8
1
  6
CONTINUOUS
 10
63.500002
 20
0.000000
 11
63.500002
 21
1.000000
  0
LINE
  8
1
  6
CONTINUOUS
 10
45.000002
 20
0.000000
 11
45.000002
 21
1.000000
  0
LINE
  8
1
  6
CONTINUOUS
 10
33.050001
 20
0.000000
 11
33.050001
 21
1.000000
  0
LINE
  8
1
  6
CONTINUOUS
 10
21.100000
 20
0.000000
 11
21.100000
 21
1.000000
  0
LINE
  8
1
  6
CONTINUOUS
 10
0.000000
 20
0.000000
 11
119.000002
 21
0.000000
  0
LINE
  8
1
  6
CONTINUOUS
 10
119.000002
 20
0.000000
 11
119.000002
 21
83.999998
  0
LINE
  8
1
  6
CONTINUOUS
 10
0.000000
 20
0.000000
 11
0.000000
 21
83.999998
  0
LINE
  8
8
  6
CONTINUOUS
 10
2.500000
 20
1.000000
 11
118.000002
 21
1.000000
  0
LINE
  8
8
  6
CONTINUOUS
 10
118.000002
 20
1.000000
 11
118.000002
 21
82.999998
  0
LINE
  8
1
  6
CONTINUOUS
 10
0.000000
 20
83.999998
 11
119.000002
 21
83.999998
  0
LINE
  8
8
  6
CONTINUOUS
 10
2.500000
 20
82.999998
 11
118.000002
 21
82.999998
  0
LINE
  8
8
  6
CONTINUOUS
 10
2.500000
 20
82.999998
 11
2.500000
 21
1.000000
  0
LINE
  8
2
  6
CONTINUOUS
 10
102.650002
 20
17.625000
 11
102.650002
 21
18.125000
  0
LINE
  8
1
  6
CONTINUOUS
 10
101.700002
 20
18.200000
 11
118.000002
 21
18.200000
  0
LINE
  8
1
  6
CONTINUOUS
 10
101.700002
 20
17.700000
 11
118.000002
 21
17.700000
  0
LINE
  8
1
  6
CONTINUOUS
 10
102.200002
 20
17.700000
 11
118.000002
 21
17.700000
  0
LINE
  8
2
  6
CONTINUOUS
 10
102.650002
 20
17.125000
 11
102.650002
 21
17.625000
  0
LINE
  8
1
  6
CONTINUOUS
 10
102.200002
 20
17.700000
 11
118.000002
 21
17.700000
  0
LINE
  8
1
  6
CONTINUOUS
 10
101.700002
 20
17.200000
 11
118.000002
 21
17.200000
  0
LINE
  8
2
  6
CONTINUOUS
 10
102.650002
 20
16.700000
 11
102.650002
 21
17.200000
  0
LINE
  8
1
  6
CONTINUOUS
 10
116.008223
 20
16.000000
 11
116.008223
 21
22.200000
  0
LINE
  8
1
  6
CONTINUOUS
 10
104.850002
 20
16.000000
 11
104.850002
 21
22.200000
  0
LINE
  8
6
  6
CONTINUOUS
 10
101.700002
 20
16.000000
 11
118.000002
 21
16.000000
  0
LINE
  8
1
  6
CONTINUOUS
 10
102.650002
 20
16.000000
 11
102.650002
 21
16.700000
  0
LINE
  8
1
  6
CONTINUOUS
 10
102.200002
 20
17.200000
 11
118.000002
 21
17.200000
  0
LINE
  8
1
  6
CONTINUOUS
 10
101.700002
 20
16.700000
 11
118.000002
 21
16.700000
  0
LINE
  8
2
  6
CONTINUOUS
 10
102.650002
 20
18.625000
 11
102.650002
 21
22.200000
  0
LINE
  8
6
  6
CONTINUOUS
 10
101.700002
 20
22.200000
 11
118.000002
 21
22.200000
  0
LINE
  8
1
  6
CONTINUOUS
 10
101.700002
 20
18.700000
 11
118.000002
 21
18.700000
  0
LINE
  8
1
  6
CONTINUOUS
 10
102.200002
 20
18.700000
 11
118.000002
 21
18.700000
  0
LINE
  8
2
  6
CONTINUOUS
 10
102.650002
 20
18.125000
 11
102.650002
 21
18.625000
  0
LINE
  8
1
  6
CONTINUOUS
 10
102.200002
 20
18.700000
 11
118.000002
 21
18.700000
  0
LINE
  8
1
  6
CONTINUOUS
 10
102.200002
 20
18.200000
 11
118.000002
 21
18.200000
  0
LINE
  8
1
  6
CONTINUOUS
 10
102.200002
 20
18.200000
 11
118.000002
 21
18.200000
  0
LINE
  8
6
  6
CONTINUOUS
 10
101.700002
 20
6.600000
 11
118.000002
 21
6.600000
  0
LINE
  8
6
  6
CONTINUOUS
 10
101.700002
 20
8.500000
 11
118.000002
 21
8.500000
  0
LINE
  8
6
  6
CONTINUOUS
 10
101.700002
 20
1.000000
 11
101.700002
 21
8.500000
  0
LINE
  8
6
  6
CONTINUOUS
 10
101.700002
 20
16.000000
 11
101.700002
 21
22.200000
  0
LINE
  8
6
  6
CONTINUOUS
 10
101.700002
 20
15.900000
 11
118.000002
 21
15.900000
  0
LINE
  8
6
  6
CONTINUOUS
 10
101.700002
 20
11.400000
 11
101.700002
 21
15.900000
  0
LINE
  8
1
  6
CONTINUOUS
 10
101.700002
 20
14.400000
 11
118.000002
 21
14.400000
  0
LINE
  8
6
  6
CONTINUOUS
 10
101.700002
 20
3.000000
 11
118.000002
 21
3.000000
  0
LINE
  8
6
  6
CONTINUOUS
 10
105.024321
 20
3.000000
 11
105.024321
 21
1.000000
  0
LINE
  8
1
  6
CONTINUOUS
 10
101.700002
 20
12.900000
 11
118.000002
 21
12.900000
  0
POLYLINE
  8
1
  6
CONTINUOUS
 66
     1
  0
VERTEX
  8
1
  6
CONTINUOUS
 10
103.635546
 20
9.498246
  0
VERTEX
  8
1
  6
CONTINUOUS
 10
101.971546
 20
9.498246
  0
VERTEX
  8
1
  6
CONTINUOUS
 10
101.971546
 20
11.162246
  0
VERTEX
  8
1
  6
CONTINUOUS
 10
103.635546
 20
11.162246
  0
VERTEX
  8
1
  6
CONTINUOUS
 10
103.635546
 20
9.498246
  0
SEQEND
  8
1
  6
CONTINUOUS
  0
POLYLINE
  8
13
  6
CONTINUOUS
 66
     1
  0
VERTEX
  8
13
  6
CONTINUOUS
 10
102.095046
 20
10.244446
  0
VERTEX
  8
13
  6
CONTINUOUS
 10
102.095046
 20
9.498246
  0
VERTEX
  8
13
  6
CONTINUOUS
 10
101.971546
 20
9.498246
  0
VERTEX
  8
13
  6
CONTINUOUS
 10
101.971546
 20
11.162246
  0
VERTEX
  8
13
  6
CONTINUOUS
 10
102.095046
 20
11.162246
  0
VERTEX
  8
13
  6
CONTINUOUS
 10
102.095046
 20
10.244446
  0
SEQEND
  8
13
  6
CONTINUOUS
  0
POLYLINE
  8
13
  6
CONTINUOUS
 66
     1
  0
VERTEX
  8
13
  6
CONTINUOUS
 10
102.522746
 20
10.230979
  0
VERTEX
  8
13
  6
CONTINUOUS
 10
102.522746
 20
9.498246
  0
VERTEX
  8
13
  6
CONTINUOUS
 10
102.095046
 20
9.498246
  0
VERTEX
  8
13
  6
CONTINUOUS
 10
102.095046
 20
10.244446
  0
VERTEX
  8
13
  6
CONTINUOUS
 10
102.143544
 20
10.248642
  0
VERTEX
  8
13
  6
CONTINUOUS
 10
102.211078
 20
10.252071
  0
VERTEX
  8
13
  6
CONTINUOUS
 10
102.259959
 20
10.252484
  0
VERTEX
  8
13
  6
CONTINUOUS
 10
102.290321
 20
10.252141
  0
VERTEX
  8
13
  6
CONTINUOUS
 10
102.334203
 20
10.250668
  0
VERTEX
  8
13
  6
CONTINUOUS
 10
102.394518
 20
10.246747
  0
VERTEX
  8
13
  6
CONTINUOUS
 10
102.446340
 20
10.241621
  0
VERTEX
  8
13
  6
CONTINUOUS
 10
102.490083
 20
10.235974
  0
VERTEX
  8
13
  6
CONTINUOUS
 10
102.522746
 20
10.230979
  0
SEQEND
  8
13
  6
CONTINUOUS
  0
POLYLINE
  8
13
  6
CONTINUOUS
 66
     1
  0
VERTEX
  8
13
  6
CONTINUOUS
 10
102.594246
 20
10.217654
  0
VERTEX
  8
13
  6
CONTINUOUS
 10
102.594246
 20
9.498246
  0
VERTEX
  8
13
  6
CONTINUOUS
 10
103.021946
 20
9.498246
  0
VERTEX
  8
13
  6
CONTINUOUS
 10
103.021946
 20
10.064184
  0
VERTEX
  8
13
  6
CONTINUOUS
 10
103.003898
 20
10.073542
  0
VERTEX
  8
13
  6
CONTINUOUS
 10
102.981716
 20
10.084501
  0
VERTEX
  8
13
  6
CONTINUOUS
 10
102.953307
 20
10.098271
  0
VERTEX
  8
13
  6
CONTINUOUS
 10
102.912865
 20
10.116383
  0
VERTEX
  8
13
  6
CONTINUOUS
 10
102.885024
 20
10.128001
  0
VERTEX
  8
13
  6
CONTINUOUS
 10
102.844071
 20
10.144755
  0
VERTEX
  8
13
  6
CONTINUOUS
 10
102.813490
 20
10.155923
  0
VERTEX
  8
13
  6
CONTINUOUS
 10
102.778388
 20
10.168156
  0
VERTEX
  8
13
  6
CONTINUOUS
 10
102.744083
 20
10.178793
  0
VERTEX
  8
13
  6
CONTINUOUS
 10
102.703465
 20
10.191172
  0
VERTEX
  8
13
  6
CONTINUOUS
 10
102.665141
 20
10.201162
  0
VERTEX
  8
13
  6
CONTINUOUS
 10
102.624819
 20
10.210970
  0
VERTEX
  8
13
  6
CONTINUOUS
 10
102.594246
 20
10.217654
  0
SEQEND
  8
13
  6
CONTINUOUS
  0
POLYLINE
  8
13
  6
CONTINUOUS
 66
     1
  0
VERTEX
  8
13
  6
CONTINUOUS
 10
103.093446
 20
10.024343
  0
VERTEX
  8
13
  6
CONTINUOUS
 10
103.093446
 20
9.498246
  0
VERTEX
  8
13
  6
CONTINUOUS
 10
103.521146
 20
9.498246
  0
VERTEX
  8
13
  6
CONTINUOUS
 10
103.521146
 20
9.661030
  0
VERTEX
  8
13
  6
CONTINUOUS
 10
103.507797
 20
9.676793
  0
VERTEX
  8
13
  6
CONTINUOUS
 10
103.495964
 20
9.690528
  0
VERTEX
  8
13
  6
CONTINUOUS
 10
103.473877
 20
9.715277
  0
VERTEX
  8
13
  6
CONTINUOUS
 10
103.454164
 20
9.736530
  0
VERTEX
  8
13
  6
CONTINUOUS
 10
103.434048
 20
9.757502
  0
VERTEX
  8
13
  6
CONTINUOUS
 10
103.410015
 20
9.781535
  0
VERTEX
  8
13
  6
CONTINUOUS
 10
103.399294
 20
9.791943
  0
VERTEX
  8
13
  6
CONTINUOUS
 10
103.388429
 20
9.802406
  0
VERTEX
  8
13
  6
CONTINUOUS
 10
103.359952
 20
9.828752
  0
VERTEX
  8
13
  6
CONTINUOUS
 10
103.325139
 20
9.859181
  0
VERTEX
  8
13
  6
CONTINUOUS
 10
103.286846
 20
9.890826
  0
VERTEX
  8
13
  6
CONTINUOUS
 10
103.251036
 20
9.918745
  0
VERTEX
  8
13
  6
CONTINUOUS
 10
103.200839
 20
9.955427
  0
VERTEX
  8
13
  6
CONTINUOUS
 10
103.134352
 20
9.999676
  0
VERTEX
  8
13
  6
CONTINUOUS
 10
103.093446
 20
10.024343
  0
SEQEND
  8
13
  6
CONTINUOUS
  0
POLYLINE
  8
13
  6
CONTINUOUS
 66
     1
  0
VERTEX
  8
13
  6
CONTINUOUS
 10
102.522746
 20
10.635283
  0
VERTEX
  8
13
  6
CONTINUOUS
 10
102.522746
 20
11.162246
  0
VERTEX
  8
13
  6
CONTINUOUS
 10
102.095046
 20
11.162246
  0
VERTEX
  8
13
  6
CONTINUOUS
 10
102.095046
 20
10.995122
  0
VERTEX
  8
13
  6
CONTINUOUS
 10
102.153689
 20
10.929235
  0
VERTEX
  8
13
  6
CONTINUOUS
 10
102.237359
 20
10.846559
  0
VERTEX
  8
13
  6
CONTINUOUS
 10
102.308389
 20
10.784730
  0
VERTEX
  8
13
  6
CONTINUOUS
 10
102.366624
 20
10.739274
  0
VERTEX
  8
13
  6
CONTINUOUS
 10
102.406322
 20
10.710064
  0
VERTEX
  8
13
  6
CONTINUOUS
 10
102.455827
 20
10.676682
  0
VERTEX
  8
13
  6
CONTINUOUS
 10
102.493954
 20
10.652515
  0
VERTEX
  8
13
  6
CONTINUOUS
 10
102.522746
 20
10.635283
  0
SEQEND
  8
13
  6
CONTINUOUS
  0
POLYLINE
  8
13
  6
CONTINUOUS
 66
     1
  0
VERTEX
  8
13
  6
CONTINUOUS
 10
103.021946
 20
10.443678
  0
VERTEX
  8
13
  6
CONTINUOUS
 10
103.021946
 20
11.162246
  0
VERTEX
  8
13
  6
CONTINUOUS
 10
102.594246
 20
11.162246
  0
VERTEX
  8
13
  6
CONTINUOUS
 10
102.594246
 20
10.595859
  0
VERTEX
  8
13
  6
CONTINUOUS
 10
102.663800
 20
10.561766
  0
VERTEX
  8
13
  6
CONTINUOUS
 10
102.744359
 20
10.527375
  0
VERTEX
  8
13
  6
CONTINUOUS
 10
102.812197
 20
10.501464
  0
VERTEX
  8
13
  6
CONTINUOUS
 10
102.889458
 20
10.476967
  0
VERTEX
  8
13
  6
CONTINUOUS
 10
102.950702
 20
10.460007
  0
VERTEX
  8
13
  6
CONTINUOUS
 10
103.021946
 20
10.443678
  0
SEQEND
  8
13
  6
CONTINUOUS
  0
POLYLINE
  8
13
  6
CONTINUOUS
 66
     1
  0
VERTEX
  8
13
  6
CONTINUOUS
 10
103.093446
 20
10.430307
  0
VERTEX
  8
13
  6
CONTINUOUS
 10
103.093446
 20
11.162246
  0
VERTEX
  8
13
  6
CONTINUOUS
 10
103.521146
 20
11.162246
  0
VERTEX
  8
13
  6
CONTINUOUS
 10
103.521146
 20
10.417580
  0
VERTEX
  8
13
  6
CONTINUOUS
 10
103.476372
 20
10.413637
  0
VERTEX
  8
13
  6
CONTINUOUS
 10
103.416577
 20
10.410480
  0
VERTEX
  8
13
  6
CONTINUOUS
 10
103.366788
 20
10.409453
  0
VERTEX
  8
13
  6
CONTINUOUS
 10
103.336830
 20
10.409453
  0
VERTEX
  8
13
  6
CONTINUOUS
 10
103.286182
 20
10.410821
  0
VERTEX
  8
13
  6
CONTINUOUS
 10
103.241261
 20
10.413321
  0
VERTEX
  8
13
  6
CONTINUOUS
 10
103.205545
 20
10.416539
  0
VERTEX
  8
13
  6
CONTINUOUS
 10
103.155349
 20
10.421044
  0
VERTEX
  8
13
  6
CONTINUOUS
 10
103.093446
 20
10.430307
  0
SEQEND
  8
13
  6
CONTINUOUS
  0
POLYLINE
  8
13
  6
CONTINUOUS
 66
     1
  0
VERTEX
  8
13
  6
CONTINUOUS
 10
102.522746
 20
9.498246
  0
VERTEX
  8
13
  6
CONTINUOUS
 10
102.594246
 20
9.498246
  0
VERTEX
  8
13
  6
CONTINUOUS
 10
102.594246
 20
11.162246
  0
VERTEX
  8
13
  6
CONTINUOUS
 10
102.522746
 20
11.162246
  0
VERTEX
  8
13
  6
CONTINUOUS
 10
102.522746
 20
9.498246
  0
VERTEX
  8
13
  6
CONTINUOUS
 10
102.594246
 20
9.498246
  0
SEQEND
  8
13
  6
CONTINUOUS
  0
POLYLINE
  8
13
  6
CONTINUOUS
 66
     1
  0
VERTEX
  8
13
  6
CONTINUOUS
 10
103.021946
 20
11.162246
  0
VERTEX
  8
13
  6
CONTINUOUS
 10
103.093446
 20
11.162246
  0
VERTEX
  8
13
  6
CONTINUOUS
 10
103.093446
 20
9.498246
  0
VERTEX
  8
13
  6
CONTINUOUS
 10
103.021946
 20
9.498246
  0
VERTEX
  8
13
  6
CONTINUOUS
 10
103.021946
 20
11.162246
  0
SEQEND
  8
13
  6
CONTINUOUS
  0
POLYLINE
  8
13
  6
CONTINUOUS
 66
     1
  0
VERTEX
  8
13
  6
CONTINUOUS
 10
103.521146
 20
9.498246
  0
VERTEX
  8
13
  6
CONTINUOUS
 10
103.635546
 20
9.498246
  0
VERTEX
  8
13
  6
CONTINUOUS
 10
103.635546
 20
11.162246
  0
VERTEX
  8
13
  6
CONTINUOUS
 10
103.521146
 20
11.162246
  0
VERTEX
  8
13
  6
CONTINUOUS
 10
103.521146
 20
9.498246
  0
SEQEND
  8
13
  6
CONTINUOUS
  0
LINE
  8
6
  6
CONTINUOUS
 10
107.924321
 20
3.000000
 11
107.924321
 21
2.000000
  0
LINE
  8
6
  6
CONTINUOUS
 10
101.700002
 20
2.000000
 11
114.124321
 21
2.000000
  0
LINE
  8
6
  6
CONTINUOUS
 10
114.124321
 20
3.000000
 11
114.124321
 21
1.000000
  0
LINE
  8
6
  6
CONTINUOUS
 10
101.700002
 20
8.600000
 11
118.000002
 21
8.600000
  0
LINE
  8
6
  6
CONTINUOUS
 10
101.700002
 20
8.600000
 11
101.700002
 21
11.300000
  0
LINE
  8
6
  6
CONTINUOUS
 10
101.700002
 20
11.300000
 11
118.000002
 21
11.300000
  0
LINE
  8
6
  6
CONTINUOUS
 10
101.700002
 20
11.400000
 11
118.000002
 21
11.400000
  0
LINE
  8
1
  6
CONTINUOUS
 10
101.700002
 20
19.200000
 11
118.000002
 21
19.200000
  0
LINE
  8
1
  6
CONTINUOUS
 10
102.200002
 20
19.200000
 11
118.000002
 21
19.200000
  0
LINE
  8
1
  6
CONTINUOUS
 10
102.200002
 20
19.200000
 11
118.000002
 21
19.200000
  0
LINE
  8
1
  6
CONTINUOUS
 10
101.700002
 20
19.700000
 11
118.000002
 21
19.700000
  0
LINE
  8
1
  6
CONTINUOUS
 10
102.200002
 20
19.700000
 11
118.000002
 21
19.700000
  0
LINE
  8
1
  6
CONTINUOUS
 10
102.200002
 20
19.700000
 11
118.000002
 21
19.700000
  0
LINE
  8
1
  6
CONTINUOUS
 10
101.700002
 20
20.200000
 11
118.000002
 21
20.200000
  0
LINE
  8
1
  6
CONTINUOUS
 10
102.200002
 20
20.200000
 11
118.000002
 21
20.200000
  0
LINE
  8
1
  6
CONTINUOUS
 10
102.200002
 20
20.200000
 11
118.000002
 21
20.200000
  0
LINE
  8
1
  6
CONTINUOUS
 10
101.700002
 20
20.700000
 11
118.000002
 21
20.700000
  0
LINE
  8
1
  6
CONTINUOUS
 10
102.200002
 20
20.700000
 11
118.000002
 21
20.700000
  0
LINE
  8
1
  6
CONTINUOUS
 10
102.200002
 20
20.700000
 11
118.000002
 21
20.700000
  0
LINE
  8
1
  6
CONTINUOUS
 10
101.700002
 20
21.200000
 11
118.000002
 21
21.200000
  0
LINE
  8
1
  6
CONTINUOUS
 10
102.200002
 20
21.200000
 11
118.000002
 21
21.200000
  0
LINE
  8
1
  6
CONTINUOUS
 10
102.200002
 20
21.200000
 11
118.000002
 21
21.200000
  0
LINE
  8
1
  6
CONTINUOUS
 10
101.700002
 20
21.700000
 11
118.000002
 21
21.700000
  0
LINE
  8
6
  6
CONTINUOUS
 10
110.708935
 20
11.300000
 11
110.708935
 21
8.600000
  0
TEXT
  8
1
  6
CONTINUOUS
 10
19.672951
 20
39.849209
 40
0.300000
  1
L7
  7
TQS_CALIBRI
  0
TEXT
  8
1
  6
CONTINUOUS
 10
54.657325
 20
43.439309
 40
0.300000
  1
L5
  7
TQS_CALIBRI
  0
TEXT
  8
1
  6
CONTINUOUS
 10
84.650564
 20
38.951654
 40
0.300000
  1
L4
  7
TQS_CALIBRI
  0
TEXT
  8
1
  6
CONTINUOUS
 10
97.775121
 20
63.622187
 40
0.300000
  1
L1
  7
TQS_CALIBRI
  0
TEXT
  8
1
  6
CONTINUOUS
 10
95.929846
 20
42.912782
 40
0.300000
  1
L6
  7
TQS_CALIBRI
  0
TEXT
  8
1
  6
CONTINUOUS
 10
85.907835
 20
62.827086
 40
0.300000
  1
L2
  7
TQS_CALIBRI
  0
TEXT
  8
1
  6
CONTINUOUS
 10
85.454512
 20
49.788874
 40
0.300000
  1
L10
  7
TQS_CALIBRI
  0
TEXT
  8
1
  6
CONTINUOUS
 10
96.928716
 20
47.668908
 40
0.300000
  1
E1
  7
TQS_CALIBRI
  0
TEXT
  8
1
  6
CONTINUOUS
 10
97.215676
 20
44.115698
 40
0.200000
 50
90.001342
  1
Desce
  7
TQS_CALIBRI
  0
TEXT
  8
1
  6
CONTINUOUS
 10
20.311152
 20
50.706533
 40
0.300000
  1
P29
  7
TQS_CALIBRI
  0
TEXT
  8
1
  6
CONTINUOUS
 10
23.034676
 20
27.467206
 40
0.300000
  1
P60
  7
TQS_CALIBRI
  0
TEXT
  8
1
  6
CONTINUOUS
 10
46.878730
 20
53.821714
 40
0.300000
  1
P23
  7
TQS_CALIBRI
  0
TEXT
  8
1
  6
CONTINUOUS
 10
61.796156
 20
55.570857
 40
0.300000
  1
P20
  7
TQS_CALIBRI
  0
TEXT
  8
1
  6
CONTINUOUS
 10
49.604814
 20
30.582687
 40
0.300000
  1
P55
  7
TQS_CALIBRI
  0
TEXT
  8
1
  6
CONTINUOUS
 10
64.522240
 20
32.331830
 40
0.300000
  1
P53
  7
TQS_CALIBRI
  0
TEXT
  8
1
  6
CONTINUOUS
 10
6.358945
 20
49.194525
 40
0.300000
  1
P33
  7
TQS_CALIBRI
  0
TEXT
  8
1
  6
CONTINUOUS
 10
9.143581
 20
25.660308
 40
0.300000
  1
P62
  7
TQS_CALIBRI
  0
TEXT
  8
1
  6
CONTINUOUS
 10
34.743523
 20
52.522760
 40
0.300000
  1
P25
  7
TQS_CALIBRI
  0
TEXT
  8
1
  6
CONTINUOUS
 10
37.482319
 20
29.285224
 40
0.300000
  1
P57
  7
TQS_CALIBRI
  0
TEXT
  8
1
  6
CONTINUOUS
 10
10.833652
 20
14.744907
 40
0.300000
  1
P81
  7
TQS_CALIBRI
  0
TEXT
  8
1
  6
CONTINUOUS
 10
29.249519
 20
16.806485
 40
0.300000
  1
P77
  7
TQS_CALIBRI
  0
TEXT
  8
1
  6
CONTINUOUS
 10
38.771756
 20
18.358691
 40
0.300000
  1
P75
  7
TQS_CALIBRI
  0
TEXT
  8
1
  6
CONTINUOUS
 10
50.759525
 20
19.870363
 40
0.300000
  1
P73
  7
TQS_CALIBRI
  0
TEXT
  8
1
  6
CONTINUOUS
 10
63.581136
 20
21.414579
 40
0.300000
  1
P71
  7
TQS_CALIBRI
  0
TEXT
  8
1
  6
CONTINUOUS
 10
24.592208
 20
62.353130
 40
0.300000
  1
P8
  7
TQS_CALIBRI
  0
TEXT
  8
1
  6
CONTINUOUS
 10
33.546932
 20
62.663175
 40
0.300000
  1
P7
  7
TQS_CALIBRI
  0
TEXT
  8
1
  6
CONTINUOUS
 10
49.076327
 20
64.848458
 40
0.300000
  1
P6
  7
TQS_CALIBRI
  0
TEXT
  8
1
  6
CONTINUOUS
 10
60.444088
 20
66.267530
 40
0.300000
  1
P5
  7
TQS_CALIBRI
  0
TEXT
  8
1
  6
CONTINUOUS
 10
5.125303
 20
59.619026
 40
0.300000
  1
P11
  7
TQS_CALIBRI
  0
TEXT
  8
1
  6
CONTINUOUS
 10
75.435249
 20
68.005583
 40
0.300000
  1
P4
  7
TQS_CALIBRI
  0
TEXT
  8
1
  6
CONTINUOUS
 10
75.786971
 20
49.951790
 40
0.300000
  1
P30
  7
TQS_CALIBRI
  0
TEXT
  8
1
  6
CONTINUOUS
 10
73.502627
 20
22.784858
 40
0.300000
  1
P67
  7
TQS_CALIBRI
  0
TEXT
  8
1
  6
CONTINUOUS
 10
73.967901
 20
34.033144
 40
0.300000
  1
P50
  7
TQS_CALIBRI
  0
TEXT
  8
1
  6
CONTINUOUS
 10
31.954945
 20
52.188232
 40
0.300000
  1
P26
  7
TQS_CALIBRI
  0
TEXT
  8
1
  6
CONTINUOUS
 10
34.774034
 20
28.658055
 40
0.300000
  1
P58
  7
TQS_CALIBRI
  0
TEXT
  8
1
  6
CONTINUOUS
 10
20.338255
 20
15.812809
 40
0.300000
  1
P80
  7
TQS_CALIBRI
  0
TEXT
  8
1
  6
CONTINUOUS
 10
15.754998
 20
61.224163
 40
0.300000
  1
P9
  7
TQS_CALIBRI
  0
TEXT
  8
1
  6
CONTINUOUS
 10
78.235196
 20
68.335782
 40
0.300000
  1
P3
  7
TQS_CALIBRI
  0
TEXT
  8
1
  6
CONTINUOUS
 10
89.843400
 20
69.946980
 40
0.300000
  1
P2
  7
TQS_CALIBRI
  0
TEXT
  8
1
  6
CONTINUOUS
 10
78.003829
 20
54.705074
 40
0.300000
  1
P21
  7
TQS_CALIBRI
  0
TEXT
  8
1
  6
CONTINUOUS
 10
95.348262
 20
56.465170
 40
0.300000
  1
P17
  7
TQS_CALIBRI
  0
TEXT
  8
1
  6
CONTINUOUS
 10
77.769854
 20
33.968086
 40
0.300000
  1
P51
  7
TQS_CALIBRI
  0
TEXT
  8
1
  6
CONTINUOUS
 10
87.632203
 20
35.243225
 40
0.300000
  1
PC1
  7
TQS_CALIBRI
  0
TEXT
  8
1
  6
CONTINUOUS
 10
88.076608
 20
31.066803
 40
0.300000
  1
PC3
  7
TQS_CALIBRI
  0
TEXT
  8
1
  6
CONTINUOUS
 10
96.084487
 20
36.142619
 40
0.300000
  1
PC2
  7
TQS_CALIBRI
  0
TEXT
  8
1
  6
CONTINUOUS
 10
96.528891
 20
31.966194
 40
0.300000
  1
PC4
  7
TQS_CALIBRI
  0
TEXT
  8
1
  6
CONTINUOUS
 10
102.593412
 20
36.832857
 40
0.300000
  1
P47
  7
TQS_CALIBRI
  0
TEXT
  8
1
  6
CONTINUOUS
 10
77.697018
 20
22.679747
 40
0.300000
  1
P68
  7
TQS_CALIBRI
  0
TEXT
  8
1
  6
CONTINUOUS
 10
102.467094
 20
25.612198
 40
0.300000
  1
P63
  7
TQS_CALIBRI
  0
TEXT
  8
1
  6
CONTINUOUS
 10
102.815192
 20
57.373984
 40
0.300000
  1
P16
  7
TQS_CALIBRI
  0
TEXT
  8
1
  6
CONTINUOUS
 10
7.732696
 20
37.590782
 40
0.300000
  1
P46
  7
TQS_CALIBRI
  0
TEXT
  8
1
  6
CONTINUOUS
 10
33.345130
 20
40.585699
 40
0.300000
  1
P42
  7
TQS_CALIBRI
  0
TEXT
  8
1
  6
CONTINUOUS
 10
36.108467
 20
40.916425
 40
0.300000
  1
P41
  7
TQS_CALIBRI
  0
TEXT
  8
1
  6
CONTINUOUS
 10
91.503995
 20
24.324660
 40
0.300000
  1
P65
  7
TQS_CALIBRI
  0
TEXT
  8
1
  6
CONTINUOUS
 10
35.881228
 20
19.424197
 40
0.300000
  1
P74
  7
TQS_CALIBRI
  0
TEXT
  8
1
  6
CONTINUOUS
 10
21.666040
 20
39.139027
 40
0.300000
  1
P44
  7
TQS_CALIBRI
  0
TEXT
  8
1
  6
CONTINUOUS
 10
48.236178
 20
42.254511
 40
0.300000
  1
P39
  7
TQS_CALIBRI
  0
TEXT
  8
1
  6
CONTINUOUS
 10
63.153603
 20
44.003655
 40
0.300000
  1
P37
  7
TQS_CALIBRI
  0
TEXT
  8
1
  6
CONTINUOUS
 10
75.619721
 20
58.711428
 40
0.300000
  1
P13
  7
TQS_CALIBRI
  0
TEXT
  8
1
  6
CONTINUOUS
 10
30.902028
 20
61.120505
 40
0.300000
  1
P10
  7
TQS_CALIBRI
  0
TEXT
  8
1
  6
CONTINUOUS
 10
102.948859
 20
71.623672
 40
0.300000
  1
P1
  7
TQS_CALIBRI
  0
TEXT
  8
4
  6
CONTINUOUS
 10
26.141367
 20
40.160110
 40
0.300000
 50
276.688000
  1
C110
  7
TQS_CALIBRI
  0
TEXT
  8
4
  6
CONTINUOUS
 10
23.996065
 20
39.908550
 40
0.300000
 50
276.688000
  1
C109
  7
TQS_CALIBRI
  0
TEXT
  8
4
  6
CONTINUOUS
 10
21.850764
 20
39.656991
 40
0.300000
 50
276.688000
  1
C108
  7
TQS_CALIBRI
  0
TEXT
  8
4
  6
CONTINUOUS
 10
19.705463
 20
39.405431
 40
0.300000
 50
276.688000
  1
C107
  7
TQS_CALIBRI
  0
TEXT
  8
4
  6
CONTINUOUS
 10
17.560161
 20
39.153872
 40
0.300000
 50
276.688000
  1
C106
  7
TQS_CALIBRI
  0
TEXT
  8
4
  6
CONTINUOUS
 10
15.414860
 20
38.902312
 40
0.300000
 50
276.688000
  1
C105
  7
TQS_CALIBRI
  0
TEXT
  8
4
  6
CONTINUOUS
 10
13.208691
 20
38.656126
 40
0.300000
 50
276.688000
  1
C104
  7
TQS_CALIBRI
  0
TEXT
  8
4
  6
CONTINUOUS
 10
11.003798
 20
38.397579
 40
0.300000
 50
276.688000
  1
C103
  7
TQS_CALIBRI
  0
TEXT
  8
4
  6
CONTINUOUS
 10
8.798905
 20
38.139031
 40
0.300000
 50
276.688000
  1
C102
  7
TQS_CALIBRI
  0
TEXT
  8
4
  6
CONTINUOUS
 10
31.970501
 20
40.829011
 40
0.300000
 50
276.688000
  1
C113
  7
TQS_CALIBRI
  0
TEXT
  8
4
  6
CONTINUOUS
 10
30.083430
 20
40.607732
 40
0.300000
 50
276.688000
  1
C112
  7
TQS_CALIBRI
  0
TEXT
  8
4
  6
CONTINUOUS
 10
28.196360
 20
40.386453
 40
0.300000
 50
276.688000
  1
C111
  7
TQS_CALIBRI
  0
TEXT
  8
4
  6
CONTINUOUS
 10
54.159866
 20
43.529058
 40
0.300000
 50
276.688000
  1
C122
  7
TQS_CALIBRI
  0
TEXT
  8
4
  6
CONTINUOUS
 10
51.915245
 20
43.265853
 40
0.300000
 50
276.688000
  1
C121
  7
TQS_CALIBRI
  0
TEXT
  8
4
  6
CONTINUOUS
 10
49.670624
 20
43.002647
 40
0.300000
 50
276.688000
  1
C120
  7
TQS_CALIBRI
  0
TEXT
  8
4
  6
CONTINUOUS
 10
47.426004
 20
42.739441
 40
0.300000
 50
276.688000
  1
C119
  7
TQS_CALIBRI
  0
TEXT
  8
4
  6
CONTINUOUS
 10
45.181383
 20
42.476235
 40
0.300000
 50
276.688000
  1
C118
  7
TQS_CALIBRI
  0
TEXT
  8
4
  6
CONTINUOUS
 10
42.936762
 20
42.213030
 40
0.300000
 50
276.688000
  1
C117
  7
TQS_CALIBRI
  0
TEXT
  8
4
  6
CONTINUOUS
 10
69.302593
 20
45.386443
 40
0.300000
 50
276.688000
  1
C129
  7
TQS_CALIBRI
  0
TEXT
  8
4
  6
CONTINUOUS
 10
67.157291
 20
45.134883
 40
0.300000
 50
276.688000
  1
C128
  7
TQS_CALIBRI
  0
TEXT
  8
4
  6
CONTINUOUS
 10
65.011990
 20
44.883324
 40
0.300000
 50
276.688000
  1
C127
  7
TQS_CALIBRI
  0
TEXT
  8
4
  6
CONTINUOUS
 10
62.866689
 20
44.631764
 40
0.300000
 50
276.688000
  1
C126
  7
TQS_CALIBRI
  0
TEXT
  8
4
  6
CONTINUOUS
 10
60.721387
 20
44.380205
 40
0.300000
 50
276.688000
  1
C125
  7
TQS_CALIBRI
  0
TEXT
  8
4
  6
CONTINUOUS
 10
58.576086
 20
44.128645
 40
0.300000
 50
276.688000
  1
C124
  7
TQS_CALIBRI
  0
TEXT
  8
4
  6
CONTINUOUS
 10
56.430785
 20
43.877086
 40
0.300000
 50
276.688000
  1
C123
  7
TQS_CALIBRI
  0
TEXT
  8
4
  6
CONTINUOUS
 10
40.829032
 20
41.917191
 40
0.300000
 50
276.688000
  1
C116
  7
TQS_CALIBRI
  0
TEXT
  8
4
  6
CONTINUOUS
 10
38.922097
 20
41.693582
 40
0.300000
 50
276.688000
  1
C115
  7
TQS_CALIBRI
  0
TEXT
  8
4
  6
CONTINUOUS
 10
37.015163
 20
41.469974
 40
0.300000
 50
276.688000
  1
C114
  7
TQS_CALIBRI
  0
TEXT
  8
4
  6
CONTINUOUS
 10
73.378941
 20
59.062684
 40
0.300000
 50
276.688000
  1
C132
  7
TQS_CALIBRI
  0
TEXT
  8
4
  6
CONTINUOUS
 10
71.591190
 20
58.853051
 40
0.300000
 50
276.688000
  1
C131
  7
TQS_CALIBRI
  0
TEXT
  8
4
  6
CONTINUOUS
 10
69.803439
 20
58.643418
 40
0.300000
 50
276.688000
  1
C130
  7
TQS_CALIBRI
  0
TEXT
  8
1
  6
CONTINUOUS
 10
6.712822
 20
78.417040
 40
0.220000
  1
CABO
  7
TQS_CALIBRI
  0
TEXT
  8
1
  6
CONTINUOUS
 10
13.777303
 20
78.707040
 40
0.220000
  1
COMPRIMENTO
  7
TQS_CALIBRI
  0
TEXT
  8
1
  6
CONTINUOUS
 10
16.771609
 20
78.207040
 40
0.220000
  1
TOTAL
  7
TQS_CALIBRI
  0
TEXT
  8
1
  6
CONTINUOUS
 10
19.601963
 20
78.207040
 40
0.220000
  1
A
  7
TQS_CALIBRI
  0
TEXT
  8
1
  6
CONTINUOUS
 10
20.646779
 20
78.207040
 40
0.220000
  1
P
  7
TQS_CALIBRI
  0
TEXT
  8
1
  6
CONTINUOUS
 10
21.691595
 20
78.207040
 40
0.220000
  1
I
  7
TQS_CALIBRI
  0
TEXT
  8
1
  6
CONTINUOUS
 10
19.619276
 20
78.707040
 40
0.220000
  1
ANCORAGENS
  7
TQS_CALIBRI
  0
TEXT
  8
1
  6
CONTINUOUS
 10
11.171783
 20
78.417040
 40
0.220000
  1
Q
  7
TQS_CALIBRI
  0
TEXT
  8
1
  6
CONTINUOUS
 10
7.871444
 20
79.367040
 40
0.400000
  1
PROTENSÃO: AÇO
  7
TQS_CALIBRI
  0
TEXT
  8
1
  6
CONTINUOUS
 10
13.190173
 20
78.207040
 40
0.220000
  1
UNITÁRIO
  7
TQS_CALIBRI
  0
TEXT
  8
1
  6
CONTINUOUS
 10
22.646658
 20
78.207040
 40
0.220000
  1
INI
  7
TQS_CALIBRI
  0
TEXT
  8
1
  6
CONTINUOUS
 10
24.213882
 20
78.207040
 40
0.220000
  1
FIN
  7
TQS_CALIBRI
  0
TEXT
  8
1
  6
CONTINUOUS
 10
9.101034
 20
78.419259
 40
0.220000
  1
%%c
  7
TQS_CALIBRI
  0
TEXT
  8
1
  6
CONTINUOUS
 10
22.740424
 20
78.707040
 40
0.220000
  1
ALONG
  7
TQS_CALIBRI
  0
TEXT
  8
1
  6
CONTINUOUS
 10
14.199674
 20
79.367040
 40
0.400000
  1
CP190 RB 12.7 - 12.7
  7
TQS_CALIBRI
  0
TEXT
  8
1
  6
CONTINUOUS
 10
9.386182
 20
78.419259
 40
0.220000
  1
(mm)
  7
TQS_CALIBRI
  0
TEXT
  8
1
  6
CONTINUOUS
 10
16.437379
 20
78.707040
 40
0.220000
  1
(m)
  7
TQS_CALIBRI
  0
TEXT
  8
1
  6
CONTINUOUS
 10
23.927920
 20
78.707040
 40
0.220000
  1
(mm)
  7
TQS_CALIBRI
  0
TEXT
  8
1
  6
CONTINUOUS
 10
6.358244
 20
77.707040
 40
0.220000
  1
C102 A C104
  7
TQS_CALIBRI
  0
TEXT
  8
1
  6
CONTINUOUS
 10
8.711725
 20
77.707040
 40
0.220000
  1
2 %%c 12.7
  7
TQS_CALIBRI
  0
TEXT
  8
1
  6
CONTINUOUS
 10
10.926122
 20
77.707040
 40
0.220000
  1
3
  7
TQS_CALIBRI
  0
TEXT
  8
1
  6
CONTINUOUS
 10
13.162705
 20
77.707040
 40
0.220000
  1
23.4
  7
TQS_CALIBRI
  0
TEXT
  8
1
  6
CONTINUOUS
 10
16.439538
 20
77.707040
 40
0.220000
  1
140.1
  7
TQS_CALIBRI
  0
TEXT
  8
1
  6
CONTINUOUS
 10
19.417510
 20
77.707040
 40
0.220000
  1
6
  7
TQS_CALIBRI
  0
TEXT
  8
1
  6
CONTINUOUS
 10
20.462326
 20
77.707040
 40
0.220000
  1
6
  7
TQS_CALIBRI
  0
TEXT
  8
1
  6
CONTINUOUS
 10
22.499149
 20
77.707040
 40
0.220000
  1
0
  7
TQS_CALIBRI
  0
TEXT
  8
1
  6
CONTINUOUS
 10
24.066373
 20
77.707040
 40
0.220000
  1
158
  7
TQS_CALIBRI
  0
TEXT
  8
1
  6
CONTINUOUS
 10
6.358244
 20
77.207039
 40
0.220000
  1
C105 A C110
  7
TQS_CALIBRI
  0
TEXT
  8
1
  6
CONTINUOUS
 10
8.711725
 20
77.207039
 40
0.220000
  1
   "
  7
TQS_CALIBRI
  0
TEXT
  8
1
  6
CONTINUOUS
 10
10.926122
 20
77.207039
 40
0.220000
  1
6
  7
TQS_CALIBRI
  0
TEXT
  8
1
  6
CONTINUOUS
 10
13.162705
 20
77.207039
 40
0.220000
  1
23.4
  7
TQS_CALIBRI
  0
TEXT
  8
1
  6
CONTINUOUS
 10
16.439538
 20
77.207039
 40
0.220000
  1
280.7
  7
TQS_CALIBRI
  0
TEXT
  8
1
  6
CONTINUOUS
 10
19.417510
 20
77.207039
 40
0.220000
  1
12
  7
TQS_CALIBRI
  0
TEXT
  8
1
  6
CONTINUOUS
 10
20.462326
 20
77.207039
 40
0.220000
  1
12
  7
TQS_CALIBRI
  0
TEXT
  8
1
  6
CONTINUOUS
 10
22.499149
 20
77.207039
 40
0.220000
  1
0
  7
TQS_CALIBRI
  0
TEXT
  8
1
  6
CONTINUOUS
 10
24.066373
 20
77.207039
 40
0.220000
  1
156
  7
TQS_CALIBRI
  0
TEXT
  8
1
  6
CONTINUOUS
 10
6.358244
 20
76.707038
 40
0.220000
  1
C111 A C113
  7
TQS_CALIBRI
  0
TEXT
  8
1
  6
CONTINUOUS
 10
8.711725
 20
76.707038
 40
0.220000
  1
   "
  7
TQS_CALIBRI
  0
TEXT
  8
1
  6
CONTINUOUS
 10
10.926122
 20
76.707038
 40
0.220000
  1
3
  7
TQS_CALIBRI
  0
TEXT
  8
1
  6
CONTINUOUS
 10
13.162705
 20
76.707038
 40
0.220000
  1
23.4
  7
TQS_CALIBRI
  0
TEXT
  8
1
  6
CONTINUOUS
 10
16.439538
 20
76.707038
 40
0.220000
  1
140.6
  7
TQS_CALIBRI
  0
TEXT
  8
1
  6
CONTINUOUS
 10
19.417510
 20
76.707038
 40
0.220000
  1
6
  7
TQS_CALIBRI
  0
TEXT
  8
1
  6
CONTINUOUS
 10
20.462326
 20
76.707038
 40
0.220000
  1
6
  7
TQS_CALIBRI
  0
TEXT
  8
1
  6
CONTINUOUS
 10
22.499149
 20
76.707038
 40
0.220000
  1
0
  7
TQS_CALIBRI
  0
TEXT
  8
1
  6
CONTINUOUS
 10
24.066373
 20
76.707038
 40
0.220000
  1
159
  7
TQS_CALIBRI
  0
TEXT
  8
1
  6
CONTINUOUS
 10
6.358244
 20
76.207037
 40
0.220000
  1
C114 A C116
  7
TQS_CALIBRI
  0
TEXT
  8
1
  6
CONTINUOUS
 10
8.711725
 20
76.207037
 40
0.220000
  1
   "
  7
TQS_CALIBRI
  0
TEXT
  8
1
  6
CONTINUOUS
 10
10.926122
 20
76.207037
 40
0.220000
  1
3
  7
TQS_CALIBRI
  0
TEXT
  8
1
  6
CONTINUOUS
 10
13.162705
 20
76.207037
 40
0.220000
  1
23
  7
TQS_CALIBRI
  0
TEXT
  8
1
  6
CONTINUOUS
 10
16.439538
 20
76.207037
 40
0.220000
  1
138.3
  7
TQS_CALIBRI
  0
TEXT
  8
1
  6
CONTINUOUS
 10
19.417510
 20
76.207037
 40
0.220000
  1
6
  7
TQS_CALIBRI
  0
TEXT
  8
1
  6
CONTINUOUS
 10
20.462326
 20
76.207037
 40
0.220000
  1
6
  7
TQS_CALIBRI
  0
TEXT
  8
1
  6
CONTINUOUS
 10
22.499149
 20
76.207037
 40
0.220000
  1
0
  7
TQS_CALIBRI
  0
TEXT
  8
1
  6
CONTINUOUS
 10
24.066373
 20
76.207037
 40
0.220000
  1
156
  7
TQS_CALIBRI
  0
TEXT
  8
1
  6
CONTINUOUS
 10
6.358244
 20
75.707037
 40
0.220000
  1
C117 A C122
  7
TQS_CALIBRI
  0
TEXT
  8
1
  6
CONTINUOUS
 10
8.711725
 20
75.707037
 40
0.220000
  1
   "
  7
TQS_CALIBRI
  0
TEXT
  8
1
  6
CONTINUOUS
 10
10.926122
 20
75.707037
 40
0.220000
  1
6
  7
TQS_CALIBRI
  0
TEXT
  8
1
  6
CONTINUOUS
 10
13.162705
 20
75.707037
 40
0.220000
  1
23
  7
TQS_CALIBRI
  0
TEXT
  8
1
  6
CONTINUOUS
 10
16.439538
 20
75.707037
 40
0.220000
  1
276.2
  7
TQS_CALIBRI
  0
TEXT
  8
1
  6
CONTINUOUS
 10
19.417510
 20
75.707037
 40
0.220000
  1
12
  7
TQS_CALIBRI
  0
TEXT
  8
1
  6
CONTINUOUS
 10
20.462326
 20
75.707037
 40
0.220000
  1
12
  7
TQS_CALIBRI
  0
TEXT
  8
1
  6
CONTINUOUS
 10
22.499149
 20
75.707037
 40
0.220000
  1
0
  7
TQS_CALIBRI
  0
TEXT
  8
1
  6
CONTINUOUS
 10
24.066373
 20
75.707037
 40
0.220000
  1
154
  7
TQS_CALIBRI
  0
TEXT
  8
1
  6
CONTINUOUS
 10
6.358244
 20
75.207036
 40
0.220000
  1
C123 A C129
  7
TQS_CALIBRI
  0
TEXT
  8
1
  6
CONTINUOUS
 10
8.711725
 20
75.207036
 40
0.220000
  1
   "
  7
TQS_CALIBRI
  0
TEXT
  8
1
  6
CONTINUOUS
 10
10.926122
 20
75.207036
 40
0.220000
  1
7
  7
TQS_CALIBRI
  0
TEXT
  8
1
  6
CONTINUOUS
 10
13.162705
 20
75.207036
 40
0.220000
  1
23
  7
TQS_CALIBRI
  0
TEXT
  8
1
  6
CONTINUOUS
 10
16.439538
 20
75.207036
 40
0.220000
  1
321.4
  7
TQS_CALIBRI
  0
TEXT
  8
1
  6
CONTINUOUS
 10
19.417510
 20
75.207036
 40
0.220000
  1
14
  7
TQS_CALIBRI
  0
TEXT
  8
1
  6
CONTINUOUS
 10
20.462326
 20
75.207036
 40
0.220000
  1
14
  7
TQS_CALIBRI
  0
TEXT
  8
1
  6
CONTINUOUS
 10
22.499149
 20
75.207036
 40
0.220000
  1
0
  7
TQS_CALIBRI
  0
TEXT
  8
1
  6
CONTINUOUS
 10
24.066373
 20
75.207036
 40
0.220000
  1
153
  7
TQS_CALIBRI
  0
TEXT
  8
1
  6
CONTINUOUS
 10
6.358244
 20
74.707035
 40
0.220000
  1
C130 A C132
  7
TQS_CALIBRI
  0
TEXT
  8
1
  6
CONTINUOUS
 10
8.711725
 20
74.707035
 40
0.220000
  1
   "
  7
TQS_CALIBRI
  0
TEXT
  8
1
  6
CONTINUOUS
 10
10.926122
 20
74.707035
 40
0.220000
  1
3
  7
TQS_CALIBRI
  0
TEXT
  8
1
  6
CONTINUOUS
 10
13.162705
 20
74.707035
 40
0.220000
  1
9.9
  7
TQS_CALIBRI
  0
TEXT
  8
1
  6
CONTINUOUS
 10
16.439538
 20
74.707035
 40
0.220000
  1
59.2
  7
TQS_CALIBRI
  0
TEXT
  8
1
  6
CONTINUOUS
 10
19.417510
 20
74.707035
 40
0.220000
  1
6
  7
TQS_CALIBRI
  0
TEXT
  8
1
  6
CONTINUOUS
 10
20.462326
 20
74.707035
 40
0.220000
  1
6
  7
TQS_CALIBRI
  0
TEXT
  8
1
  6
CONTINUOUS
 10
22.499149
 20
74.707035
 40
0.220000
  1
0
  7
TQS_CALIBRI
  0
TEXT
  8
1
  6
CONTINUOUS
 10
24.066373
 20
74.707035
 40
0.220000
  1
63
  7
TQS_CALIBRI
  0
TEXT
  8
1
  6
CONTINUOUS
 10
6.844385
 20
71.707035
 40
0.220000
  1
%%c
  7
TQS_CALIBRI
  0
TEXT
  8
1
  6
CONTINUOUS
 10
10.417923
 20
72.207035
 40
0.220000
  1
CABO
  7
TQS_CALIBRI
  0
TEXT
  8
1
  6
CONTINUOUS
 10
16.602483
 20
71.457035
 40
0.220000
  1
A
  7
TQS_CALIBRI
  0
TEXT
  8
1
  6
CONTINUOUS
 10
17.647298
 20
71.457035
 40
0.220000
  1
P
  7
TQS_CALIBRI
  0
TEXT
  8
1
  6
CONTINUOUS
 10
18.692115
 20
71.457035
 40
0.220000
  1
I
  7
TQS_CALIBRI
  0
TEXT
  8
1
  6
CONTINUOUS
 10
12.913682
 20
71.707035
 40
0.220000
  1
PESO
  7
TQS_CALIBRI
  0
TEXT
  8
1
  6
CONTINUOUS
 10
16.672662
 20
72.207035
 40
0.220000
  1
ANCORAGENS
  7
TQS_CALIBRI
  0
TEXT
  8
1
  6
CONTINUOUS
 10
8.751442
 20
73.290367
 40
0.400000
  1
RESUMO DE PROTENSÃO
  7
TQS_CALIBRI
  0
TEXT
  8
1
  6
CONTINUOUS
 10
8.289579
 20
72.727668
 40
0.300000
  1
Monocordoalhas não aderentes
  7
TQS_CALIBRI
  0
TEXT
  8
1
  6
CONTINUOUS
 10
8.680680
 20
71.707035
 40
0.220000
  1
COMPR
  7
TQS_CALIBRI
  0
TEXT
  8
1
  6
CONTINUOUS
 10
10.530468
 20
71.207035
 40
0.220000
  1
kgf/m
  7
TQS_CALIBRI
  0
TEXT
  8
1
  6
CONTINUOUS
 10
12.682245
 20
71.207035
 40
0.220000
  1
kgf
  7
TQS_CALIBRI
  0
TEXT
  8
1
  6
CONTINUOUS
 10
14.496637
 20
71.207035
 40
0.220000
  1
kgf+4%
  7
TQS_CALIBRI
  0
TEXT
  8
1
  6
CONTINUOUS
 10
8.685226
 20
71.207035
 40
0.220000
  1
m
  7
TQS_CALIBRI
  0
TEXT
  8
1
  6
CONTINUOUS
 10
6.822765
 20
71.207035
 40
0.220000
  1
mm
  7
TQS_CALIBRI
  0
TEXT
  8
1
  6
CONTINUOUS
 10
8.410542
 20
70.707034
 40
0.220000
  1
1357
  7
TQS_CALIBRI
  0
TEXT
  8
1
  6
CONTINUOUS
 10
17.456139
 20
70.707035
 40
0.220000
  1
62
  7
TQS_CALIBRI
  0
TEXT
  8
1
  6
CONTINUOUS
 10
16.411322
 20
70.707035
 40
0.220000
  1
62
  7
TQS_CALIBRI
  0
TEXT
  8
1
  6
CONTINUOUS
 10
10.530468
 20
70.707034
 40
0.220000
  1
0.886
  7
TQS_CALIBRI
  0
TEXT
  8
1
  6
CONTINUOUS
 10
12.119797
 20
70.707034
 40
0.220000
  1
1202
  7
TQS_CALIBRI
  0
TEXT
  8
1
  6
CONTINUOUS
 10
14.179795
 20
70.707034
 40
0.220000
  1
1250
  7
TQS_CALIBRI
  0
TEXT
  8
1
  6
CONTINUOUS
 10
6.222609
 20
70.707034
 40
0.220000
  1
2 %%c 12.7
  7
TQS_CALIBRI
  0
TEXT
  8
1
  6
CONTINUOUS
 10
101.932386
 20
23.396411
 40
0.350000
  1
NOTAS:
  7
TQS_CALIBRI
  0
TEXT
  8
2
  6
CONTINUOUS
 10
101.965840
 20
22.812661
 40
0.240000
  1
1) CONFERIR INFORMAÇÕES DA TABELA ACIMA (TABELA DE FERRERAGEM) NA OBRA
  7
TQS_CALIBRI
  0
TEXT
  8
2
  6
CONTINUOUS
 10
101.965840
 20
22.343353
 40
0.240000
  1
ANTES DA COMPRA DAS ARMADURAS.
  7
TQS_CALIBRI
  0
TEXT
  8
1
  6
CONTINUOUS
 10
102.073109
 20
8.835799
 40
0.455000
  1
ENGENHARIA
  7
TQS_CALIBRI
  0
TEXT
  8
1
  6
CONTINUOUS
 10
101.876737
 20
16.222571
 40
0.250000
  1
REV
  7
TQS_CALIBRI
  0
TEXT
  8
1
  6
CONTINUOUS
 10
103.356169
 20
16.222571
 40
0.250000
  1
DATA
  7
TQS_CALIBRI
  0
TEXT
  8
1
  6
CONTINUOUS
 10
105.030516
 20
16.222571
 40
0.250000
  1
ASSUNTO
  7
TQS_CALIBRI
  0
TEXT
  8
1
  6
CONTINUOUS
 10
101.832253
 20
14.047181
 40
0.250000
  1
PROPRIETÁRIO - 
  7
TQS_CALIBRI
  0
TEXT
  8
1
  6
CONTINUOUS
 10
108.042444
 20
2.579059
 40
0.250000
  1
ENGENHEIRO:
  7
TQS_CALIBRI
  0
TEXT
  8
1
  6
CONTINUOUS
 10
108.046365
 20
2.149652
 40
0.250000
  1
CREA REG.:
  7
TQS_CALIBRI
  0
TEXT
  8
1
  6
CONTINUOUS
 10
110.430567
 20
2.160333
 40
0.250000
  1
020930945-8
  7
TQS_CALIBRI
  0
TEXT
  8
1
  6
CONTINUOUS
 10
103.739739
 20
9.759850
 40
1.000000
  1
VGF
  7
TQS_CALIBRI
  0
TEXT
  8
1
  6
CONTINUOUS
 10
101.832253
 20
12.147181
 40
0.250000
  1
PROJETO              Eng. Civil - CREA:020930945-8
  7
TQS_CALIBRI
  0
TEXT
  8
1
  6
CONTINUOUS
 10
101.800510
 20
2.752624
 40
0.150000
  1
DATA:
  7
TQS_CALIBRI
  0
TEXT
  8
1
  6
CONTINUOUS
 10
101.788178
 20
1.752624
 40
0.150000
  1
FASE:
  7
TQS_CALIBRI
  0
TEXT
  8
1
  6
CONTINUOUS
 10
105.124829
 20
2.752624
 40
0.150000
  1
ESCALA:
  7
TQS_CALIBRI
  0
TEXT
  8
1
  6
CONTINUOUS
 10
105.112497
 20
1.752624
 40
0.150000
  1
PLANTA:
  7
TQS_CALIBRI
  0
TEXT
  8
1
  6
CONTINUOUS
 10
101.800510
 20
6.352624
 40
0.150000
  1
TÍTULO:
  7
TQS_CALIBRI
  0
TEXT
  8
1
  6
CONTINUOUS
 10
101.787482
 20
5.577767
 40
0.150000
  1
ELEMENTOS DA PRANCHA:
  7
TQS_CALIBRI
  0
TEXT
  8
1
  6
CONTINUOUS
 10
101.800510
 20
8.252624
 40
0.150000
  1
EMPREENDIMENTO/LOCAL:
  7
TQS_CALIBRI
  0
TEXT
  8
1
  6
CONTINUOUS
 10
106.761120
 20
11.025301
 40
0.150000
  1
CONTATOS:
  7
TQS_CALIBRI
  0
TEXT
  8
1
  6
CONTINUOUS
 10
114.224829
 20
2.752624
 40
0.150000
  1
PLANTA-REVISÃO:
  7
TQS_CALIBRI
  0
TEXT
  8
1
  6
CONTINUOUS
 10
102.041441
 20
16.843956
 40
0.200000
  1
00
  7
TQS_CALIBRI
  0
TEXT
  8
1
  6
CONTINUOUS
 10
102.041441
 20
17.343956
 40
0.200000
  1
01
  7
TQS_CALIBRI
  0
TEXT
  8
1
  6
CONTINUOUS
 10
102.041441
 20
17.843956
 40
0.200000
  1
02
  7
TQS_CALIBRI
  0
TEXT
  8
1
  6
CONTINUOUS
 10
102.041441
 20
18.343956
 40
0.200000
  1
03
  7
TQS_CALIBRI
  0
TEXT
  8
1
  6
CONTINUOUS
 10
102.041441
 20
18.843956
 40
0.200000
  1
04
  7
TQS_CALIBRI
  0
TEXT
  8
1
  6
CONTINUOUS
 10
102.041441
 20
19.343956
 40
0.200000
  1
05
  7
TQS_CALIBRI
  0
TEXT
  8
1
  6
CONTINUOUS
 10
102.041441
 20
19.843956
 40
0.200000
  1
06
  7
TQS_CALIBRI
  0
TEXT
  8
1
  6
CONTINUOUS
 10
102.041441
 20
20.343956
 40
0.200000
  1
07
  7
TQS_CALIBRI
  0
TEXT
  8
1
  6
CONTINUOUS
 10
102.041441
 20
20.843956
 40
0.200000
  1
08
  7
TQS_CALIBRI
  0
TEXT
  8
1
  6
CONTINUOUS
 10
102.041441
 20
21.343956
 40
0.200000
  1
09
  7
TQS_CALIBRI
  0
TEXT
  8
1
  6
CONTINUOUS
 10
102.041441
 20
21.843956
 40
0.200000
  1
10
  7
TQS_CALIBRI
  0
TEXT
  8
1
  6
CONTINUOUS
 10
116.437973
 20
16.222571
 40
0.250000
  1
AUTOR
  7
TQS_CALIBRI
  0
TEXT
  8
1
  6
CONTINUOUS
 10
106.749019
 20
10.335784
 40
0.195000
  1
Tel: 99928-2128
  7
TQS_CALIBRI
  0
TEXT
  8
1
  6
CONTINUOUS
 10
106.749019
 20
10.012284
 40
0.195000
  1
franciscogonca@hotmail.com 
  7
TQS_CALIBRI
  0
TEXT
  8
1
  6
CONTINUOUS
 10
106.749019
 20
9.680784
 40
0.195000
  1
Tel: 99981-6458
  7
TQS_CALIBRI
  0
TEXT
  8
1
  6
CONTINUOUS
 10
106.749019
 20
9.357284
 40
0.195000
  1
tiago@vgfengenharia.com.br 
  7
TQS_CALIBRI
  0
TEXT
  8
1
  6
CONTINUOUS
 10
106.749019
 20
9.025784
 40
0.195000
  1
Tel: 99912-8379
  7
TQS_CALIBRI
  0
TEXT
  8
1
  6
CONTINUOUS
 10
110.809443
 20
11.052624
 40
0.150000
  1
CLIENTE:
  7
TQS_CALIBRI
  0
TEXT
  8
1
  6
CONTINUOUS
 10
116.009770
 20
1.647683
 40
0.500000
  1
-R
  7
TQS_CALIBRI
  0
TEXT
  8
1
  6
CONTINUOUS
 10
101.832253
 20
12.547181
 40
0.250000
  1
RESPONSÁVEL -  Diego de Vasconcelos Gonçalves Ferreira
  7
TQS_CALIBRI
  0
TEXT
  8
1
  6
CONTINUOUS
 10
110.422141
 20
2.578345
 40
0.250000
  1
Diego Vasconcelos
  7
TQS_CALIBRI
  0
TEXT
  8
1
  6
CONTINUOUS
 10
106.749019
 20
10.667284
 40
0.195000
  1
diego@vgfengenharia.com.br 
  7
TQS_CALIBRI
  0
TEXT
  8
1
  6
CONTINUOUS
 10
104.982892
 20
16.853163
 40
0.200000
  1
Emissão inicial.
  7
TQS_CALIBRI
  0
TEXT
  8
1
  6
CONTINUOUS
 10
101.795719
 20
7.825700
 40
0.250000
  1
Assembléia Legislativa de Alagoas
  7
TQS_CALIBRI
  0
TEXT
  8
1
  6
CONTINUOUS
 10
104.517953
 20
14.045361
 40
0.250000
  1
ALA
  7
TQS_CALIBRI
  0
TEXT
  8
1
  6
CONTINUOUS
 10
101.789281
 20
2.263237
 40
0.250000
  1
26/02/2024
  7
TQS_CALIBRI
  0
TEXT
  8
1
  6
CONTINUOUS
 10
102.992347
 20
16.854551
 40
0.200000
  1
26/02/24
  7
TQS_CALIBRI
  0
TEXT
  8
1
  6
CONTINUOUS
 10
101.787954
 20
7.415393
 40
0.200000
  1
RUA SÁ E ALBUQUERQUE, NÚMERO 807, JARAGUÁ - MACEIÓ-AL
  7
TQS_CALIBRI
  0
TEXT
  8
1
  6
CONTINUOUS
 10
101.789859
 20
1.251887
 40
0.250000
  1
PE
  7
TQS_CALIBRI
  0
TEXT
  8
1
  6
CONTINUOUS
 10
105.114178
 20
1.251887
 40
0.250000
  1
CLA-EEM-EST-PE-0337-ARM-R00
  7
TQS_CALIBRI
  0
TEXT
  8
1
  6
CONTINUOUS
 10
116.547332
 20
16.842370
 40
0.200000
  1
DIEGO
  7
TQS_CALIBRI
  0
TEXT
  8
1
  6
CONTINUOUS
 10
114.396264
 20
1.644018
 40
0.500000
  1
0337
  7
TQS_CALIBRI
  0
TEXT
  8
1
  6
CONTINUOUS
 10
116.689770
 20
1.647683
 40
0.500000
  1
00
  7
TQS_CALIBRI
  0
TEXT
  8
1
  6
CONTINUOUS
 10
110.802729
 20
10.513659
 40
0.400000
  1
ALA
  7
TQS_CALIBRI
  0
TEXT
  8
1
  6
CONTINUOUS
 10
101.762319
 20
5.951739
 40
0.250000
  1
ARM. PROTENSÃO VERTICAL (02-1Pavto) - 01 - C, D e E
  7
TQS_CALIBRI
  0
ENDSEC
  0
EOF
