  0
SECTION
  2
HEADER
  9
$ACADVER
  1
AC1002
  9
$USERI1
 70
0
  9
$INSBASE
 10
0.000000
 20
0.000000
  9
$EXTMIN
 10
0.000000
 20
0.000000
  9
$EXTMAX
 10
7.761771
 20
4.436620
  9
$LIMMIN
 10
0.000000
 20
0.000000
  9
$LIMMAX
 10
12.000000
 20
9.000000
  9
$VIEWCTR
 10
78.887138
 20
59.361758
  9
$VIEWSIZE
 40
127.522840
  9
$TEXTSIZE
 40
0.100000
  9
$TRACEWID
 40
0.010000
  9
$LTSCALE
 40
1.000000
  0
ENDSEC
  0
SECTION
  2
TABLES
  0
TABLE
  2
LTYPE
 70
     3
  0
LTYPE
  2
CONTINUOUS
 70
    64
  3
Solid line
 72
    65
 73
     0
 40
0.000000
  0
LTYPE
  2
ESTILO_TQS_0001
 70
    64
  3
-  -  -  -  -  -
 72
    65
 73
     2
 40
1.000000
 49
0.700000
 49
-0.300000
  0
LTYPE
  2
ESTILO_TQS_0002
 70
    64
  3
. . . . . . . .
 72
    65
 73
     2
 40
0.400000
 49
0.100000
 49
-0.300000
  0
LTYPE
  2
ESTILO_TQS_0003
 70
    64
  3
- . - . - . - .
 72
    65
 73
     4
 40
0.910000
 49
0.500000
 49
-0.200000
 49
0.010000
 49
-0.200000
  0
LTYPE
  2
ESTILO_TQS_0004
 70
    64
  3
- .. - .. - ..
 72
    65
 73
     6
 40
1.120000
 49
0.500000
 49
-0.200000
 49
0.010000
 49
-0.200000
 49
0.010000
 49
-0.200000
  0
LTYPE
  2
CONTINUOUS
 70
    64
  3
- - - - - - - -
 72
    65
 73
     2
 40
0.400000
 49
0.300000
 49
-0.100000
  0
ENDTAB
  0
TABLE
  2
LAYER
 70
    89
  0
LAYER
  2
0
 70
     0
 62
     7
  6
CONTINUOUS
  0
LAYER
  2
1
 70
     0
 62
     1
  6
CONTINUOUS
  0
LAYER
  2
2
 70
     0
 62
     2
  6
CONTINUOUS
  0
LAYER
  2
3
 70
     0
 62
     3
  6
CONTINUOUS
  0
LAYER
  2
4
 70
     0
 62
     4
  6
CONTINUOUS
  0
LAYER
  2
5
 70
     0
 62
     5
  6
CONTINUOUS
  0
LAYER
  2
6
 70
     0
 62
     6
  6
CONTINUOUS
  0
LAYER
  2
7
 70
     0
 62
     7
  6
CONTINUOUS
  0
LAYER
  2
8
 70
     0
 62
     8
  6
CONTINUOUS
  0
LAYER
  2
9
 70
     0
 62
     9
  6
CONTINUOUS
  0
LAYER
  2
10
 70
     0
 62
    10
  6
CONTINUOUS
  0
LAYER
  2
11
 70
     0
 62
    11
  6
CONTINUOUS
  0
LAYER
  2
12
 70
     0
 62
    12
  6
CONTINUOUS
  0
LAYER
  2
13
 70
     0
 62
    13
  6
CONTINUOUS
  0
LAYER
  2
14
 70
     0
 62
    14
  6
CONTINUOUS
  0
LAYER
  2
15
 70
     0
 62
    15
  6
CONTINUOUS
  0
LAYER
  2
16
 70
     0
 62
     7
  6
CONTINUOUS
  0
LAYER
  2
17
 70
     0
 62
     2
  6
CONTINUOUS
  0
LAYER
  2
18
 70
     0
 62
     4
  6
CONTINUOUS
  0
LAYER
  2
19
 70
     0
 62
     5
  6
CONTINUOUS
  0
LAYER
  2
20
 70
     0
 62
     4
  6
CONTINUOUS
  0
LAYER
  2
21
 70
     0
 62
     2
  6
CONTINUOUS
  0
LAYER
  2
22
 70
     0
 62
     1
  6
CONTINUOUS
  0
LAYER
  2
23
 70
     0
 62
     7
  6
CONTINUOUS
  0
LAYER
  2
24
 70
     0
 62
     6
  6
CONTINUOUS
  0
LAYER
  2
25
 70
     0
 62
     1
  6
CONTINUOUS
  0
LAYER
  2
26
 70
     0
 62
     3
  6
CONTINUOUS
  0
LAYER
  2
27
 70
     0
 62
     4
  6
CONTINUOUS
  0
LAYER
  2
28
 70
     0
 62
     4
  6
CONTINUOUS
  0
LAYER
  2
30
 70
     0
 62
     4
  6
CONTINUOUS
  0
LAYER
  2
100
 70
     0
 62
     1
  6
CONTINUOUS
  0
LAYER
  2
101
 70
     0
 62
     9
  6
CONTINUOUS
  0
LAYER
  2
102
 70
     0
 62
     7
  6
CONTINUOUS
  0
LAYER
  2
103
 70
     0
 62
     2
  6
CONTINUOUS
  0
LAYER
  2
104
 70
     0
 62
    11
  6
CONTINUOUS
  0
LAYER
  2
105
 70
     0
 62
     3
  6
CONTINUOUS
  0
LAYER
  2
106
 70
     0
 62
     5
  6
CONTINUOUS
  0
LAYER
  2
107
 70
     0
 62
     3
  6
CONTINUOUS
  0
LAYER
  2
108
 70
     0
 62
     5
  6
CONTINUOUS
  0
LAYER
  2
109
 70
     0
 62
     3
  6
CONTINUOUS
  0
LAYER
  2
197
 70
     0
 62
     3
  6
CONTINUOUS
  0
LAYER
  2
198
 70
     0
 62
     2
  6
CONTINUOUS
  0
LAYER
  2
199
 70
     0
 62
     6
  6
CONTINUOUS
  0
LAYER
  2
200
 70
     0
 62
     7
  6
ESTILO_TQS_0002
  0
LAYER
  2
201
 70
     0
 62
     7
  6
ESTILO_TQS_0001
  0
LAYER
  2
202
 70
     0
 62
     7
  6
CONTINUOUS
  0
LAYER
  2
203
 70
     0
 62
     7
  6
ESTILO_TQS_0001
  0
LAYER
  2
204
 70
     0
 62
     7
  6
ESTILO_TQS_0003
  0
LAYER
  2
205
 70
     0
 62
     5
  6
ESTILO_TQS_0004
  0
LAYER
  2
206
 70
     0
 62
    15
  6
CONTINUOUS
  0
LAYER
  2
207
 70
     0
 62
     2
  6
CONTINUOUS
  0
LAYER
  2
208
 70
     0
 62
     5
  6
CONTINUOUS
  0
LAYER
  2
210
 70
     0
 62
    15
  6
ESTILO_TQS_0002
  0
LAYER
  2
211
 70
     0
 62
     7
  6
ESTILO_TQS_0001
  0
LAYER
  2
214
 70
     0
 62
    15
  6
CONTINUOUS
  0
LAYER
  2
215
 70
     0
 62
     2
  6
CONTINUOUS
  0
LAYER
  2
216
 70
     0
 62
     3
  6
CONTINUOUS
  0
LAYER
  2
217
 70
     0
 62
     3
  6
CONTINUOUS
  0
LAYER
  2
218
 70
     0
 62
     2
  6
CONTINUOUS
  0
LAYER
  2
219
 70
     0
 62
    15
  6
CONTINUOUS
  0
LAYER
  2
220
 70
     0
 62
    10
  6
CONTINUOUS
  0
LAYER
  2
221
 70
     0
 62
    11
  6
CONTINUOUS
  0
LAYER
  2
222
 70
     0
 62
    12
  6
CONTINUOUS
  0
LAYER
  2
223
 70
     0
 62
     6
  6
CONTINUOUS
  0
LAYER
  2
224
 70
     0
 62
     1
  6
CONTINUOUS
  0
LAYER
  2
225
 70
     0
 62
    15
  6
CONTINUOUS
  0
LAYER
  2
226
 70
     0
 62
     2
  6
CONTINUOUS
  0
LAYER
  2
227
 70
     0
 62
    10
  6
CONTINUOUS
  0
LAYER
  2
228
 70
     0
 62
    11
  6
CONTINUOUS
  0
LAYER
  2
229
 70
     0
 62
    12
  6
CONTINUOUS
  0
LAYER
  2
230
 70
     0
 62
     6
  6
CONTINUOUS
  0
LAYER
  2
231
 70
     0
 62
     3
  6
CONTINUOUS
  0
LAYER
  2
232
 70
     0
 62
    12
  6
CONTINUOUS
  0
LAYER
  2
233
 70
     0
 62
     4
  6
CONTINUOUS
  0
LAYER
  2
234
 70
     0
 62
    13
  6
CONTINUOUS
  0
LAYER
  2
235
 70
     0
 62
     5
  6
CONTINUOUS
  0
LAYER
  2
236
 70
     0
 62
     2
  6
CONTINUOUS
  0
LAYER
  2
237
 70
     0
 62
     6
  6
CONTINUOUS
  0
LAYER
  2
238
 70
     0
 62
    12
  6
CONTINUOUS
  0
LAYER
  2
239
 70
     0
 62
    11
  6
CONTINUOUS
  0
LAYER
  2
240
 70
     0
 62
    11
  6
CONTINUOUS
  0
LAYER
  2
241
 70
     0
 62
    12
  6
CONTINUOUS
  0
ENDTAB
  0
TABLE
  2
STYLE
 70
     1
  0
STYLE
  2
STANDARD
 70
    64
 40
0.000000
 41
1.000000
 50
0.000000
 71
     0
 42
0.200000
  3
ROMANS.SHX
  4

  0
STYLE
  2
TQS_CALIBRI
 70
     0
 40
0.000000
 41
1.000000
 50
0.000000
 71
     0
 42
0.200000
  3
calibri.ttf
  0
STYLE
  2
TQS_CALIBRI_U
 70
     0
 40
0.000000
 41
1.000000
 50
0.000000
 71
     0
 42
0.200000
  3
calibri.ttf
  0
STYLE
  2
TQS_CALIBRI_I
 70
     0
 40
0.000000
 41
1.000000
 50
0.000000
 71
     0
 42
0.200000
  3
calibri.ttf
  0
STYLE
  2
TQS_CALIBRI_I_U
 70
     0
 40
0.000000
 41
1.000000
 50
0.000000
 71
     0
 42
0.200000
  3
calibri.ttf
  0
STYLE
  2
TQS_CALIBRI_B
 70
     0
 40
0.000000
 41
1.000000
 50
0.000000
 71
     0
 42
0.200000
  3
calibri.ttf
  0
STYLE
  2
TQS_CALIBRI_B_U
 70
     0
 40
0.000000
 41
1.000000
 50
0.000000
 71
     0
 42
0.200000
  3
calibri.ttf
  0
STYLE
  2
TQS_CALIBRI_B_I
 70
     0
 40
0.000000
 41
1.000000
 50
0.000000
 71
     0
 42
0.200000
  3
calibri.ttf
  0
STYLE
  2
TQS_CALIBRI_B_I_U
 70
     0
 40
0.000000
 41
1.000000
 50
0.000000
 71
     0
 42
0.200000
  3
calibri.ttf
  0
ENDTAB
  0
TABLE
  2
VIEW
 70
     0
  0
ENDTAB
  0
ENDSEC
  0
SECTION
  2
BLOCKS
  0
BLOCK
  8
0
  2
_PLWTQS
 70
    64
 10
0.000000
 20
0.000000
  0
TEXT
  8
0
  6
CONTINUOUS
 10
0.000000
 20
0.000000
 40
0.200000
  1
$PLWDWGGlBMVwAAAAAAAChABAAAAMHC82deG7a4TWoBHUHqWtd45HMKfTPFymCpIZbhywdwnyV2h7ZoDx+4ZKBTd58OpSAaG3U/qiECfUYDLnC9HeMgG9XvOz1zokiu568Oq1OEKkMfymgIpewM7riXXxA2VdVBQnnvI6xzn+SiO/Lod4s=
  7
TQS_CALIBRI
  0
TEXT
  8
0
  6
CONTINUOUS
 10
0.000000
 20
-0.250000
 40
0.200000
  1
$PLWDWGHjCHMMbV2dvtyyJYLAWiC6xlOWtJ2UCeuoU06hpnvi0JZb/gmX6DSIpIqyYTzGPGX89qZrsRSN8MtoAyt0AQMsCOH2ma39n5A0oRVJUqyWdKtkZQERzM9kywN+UoQKY0l0Xf1ttcVx7cDSX8pAEzJY1Vd7UKgYtSTDgBzK6lVDg=
  7
TQS_CALIBRI
  0
TEXT
  8
0
  6
CONTINUOUS
 10
0.000000
 20
-0.500000
 40
0.200000
  1
$PLWDWGJ/c1pLKoBhvNI/27t35SsBjPcFu+0GiqK9UOuTioYciRer56NiNEMHrSKzNPyRhEP91et7KwlXauVxfIh5ORyidTr2IFdnOq46SW8fwugqQDRwo4fTGMpXHxQzzIO8f1YYRq8RuGs0+U0g76pLKjUJt6FzjAaO4PzBZu8wZ1p/E=
  7
TQS_CALIBRI
  0
TEXT
  8
0
  6
CONTINUOUS
 10
0.000000
 20
-0.750000
 40
0.200000
  1
$PLWDWG6lMwV1qG8QLFHUH/mfXgZD71l+r5namwAXpvxYVMgrNFEEAGCu8ccdQpePYnGsPnp74UgdtptdKtJCao1BqGHa0/lCQMvULnvATelHFc65GgflksS1VLmrOhgLpwFOvmkT+jfd1A0vz/EQHRhQmrxuQnHwAzKYB0ZS11VJE03bs=
  7
TQS_CALIBRI
  0
TEXT
  8
0
  6
CONTINUOUS
 10
0.000000
 20
-1.000000
 40
0.200000
  1
$PLWDWG0Hq6z0Cj7d8vLi4jI7P3+GHA+rkmdAGhsPkDBOAd0ts5tVPc0u7a3WTbWnXYF0GnHbKxvnzZmrItwxeXg29MI/J1u/03uwpd4SxjTz/KV/YzEtyvz0Ka3OeKGtZWFK74+TaMxQb9jfG0AlYDwx6AT+eSVzwuZP32pfmKcUz3CbY=
  7
TQS_CALIBRI
  0
TEXT
  8
0
  6
CONTINUOUS
 10
0.000000
 20
-1.250000
 40
0.200000
  1
$PLWDWGjTvCHyWoPu0wm4JQfol05nnifSKdPGda4AykR5HnTDFi0wgas8RS9BESCTnuohsDs8pWCcWeTM7oG8q7v2lf7kzBAiEgDovixTFc1unnmlcg5I3DRs2kNXBct+sKL8bmS4NKqFWRT4cx5Nqx9zfM4hB6n2A8Xepzphn/e3Ja8aA=
  7
TQS_CALIBRI
  0
TEXT
  8
0
  6
CONTINUOUS
 10
0.000000
 20
-1.500000
 40
0.200000
  1
$PLWDWGbnvdGFSuiRRGb5uBRqeIxnhQNhuLmEgEQiSizitpWxA08QlAEK56I68yluV2Btb9psWafR5Rl8zOBlCSXD8/qV+bbDVTEjD1vwhjL9Y1mgsjU4vfMq0RLb/PPKVntDuT2qIM1OWDhCP8MQ/oK78n2i4MOHqRn4p0Wi9IABLln50=
  7
TQS_CALIBRI
  0
TEXT
  8
0
  6
CONTINUOUS
 10
0.000000
 20
-1.750000
 40
0.200000
  1
$PLWDWGs769VaLual9GNIl19Ess1iR6IEgTNCBxXFnV7CtcrjjTEU5ImBm47gm/huQd1OyKmsHNUkysCTcAAAAAzUUn5L3S8TCxJ9c0MU0hd5rBzVJMrAk3AAAAAA==
  7
TQS_CALIBRI
  0
ENDBLK
  8
0
  0
ENDSEC
  0
SECTION
  2
ENTITIES
  0
SOLID
  8
13
  6
CONTINUOUS
 10
102.095046
 20
10.244446
 11
102.095046
 21
9.498246
 12
101.971546
 22
9.498246
 13
101.971546
 23
9.498246
  0
SOLID
  8
13
  6
CONTINUOUS
 10
102.095046
 20
10.244446
 11
101.971546
 21
9.498246
 12
101.971546
 22
11.162246
 13
101.971546
 23
11.162246
  0
SOLID
  8
13
  6
CONTINUOUS
 10
102.095046
 20
10.244446
 11
101.971546
 21
11.162246
 12
102.095046
 22
11.162246
 13
102.095046
 23
11.162246
  0
SOLID
  8
13
  6
CONTINUOUS
 10
102.095046
 20
10.244446
 11
102.095046
 21
11.162246
 12
102.095046
 22
10.244446
 13
102.095046
 23
10.244446
  0
SOLID
  8
13
  6
CONTINUOUS
 10
102.522746
 20
10.230979
 11
102.522746
 21
9.498246
 12
102.095046
 22
9.498246
 13
102.095046
 23
9.498246
  0
SOLID
  8
13
  6
CONTINUOUS
 10
102.522746
 20
10.230979
 11
102.095046
 21
9.498246
 12
102.095046
 22
10.244446
 13
102.095046
 23
10.244446
  0
SOLID
  8
13
  6
CONTINUOUS
 10
102.522746
 20
10.230979
 11
102.095046
 21
10.244446
 12
102.143544
 22
10.248642
 13
102.143544
 23
10.248642
  0
SOLID
  8
13
  6
CONTINUOUS
 10
102.522746
 20
10.230979
 11
102.143544
 21
10.248642
 12
102.211078
 22
10.252071
 13
102.211078
 23
10.252071
  0
SOLID
  8
13
  6
CONTINUOUS
 10
102.522746
 20
10.230979
 11
102.211078
 21
10.252071
 12
102.259959
 22
10.252484
 13
102.259959
 23
10.252484
  0
SOLID
  8
13
  6
CONTINUOUS
 10
102.522746
 20
10.230979
 11
102.259959
 21
10.252484
 12
102.290321
 22
10.252141
 13
102.290321
 23
10.252141
  0
SOLID
  8
13
  6
CONTINUOUS
 10
102.522746
 20
10.230979
 11
102.290321
 21
10.252141
 12
102.334203
 22
10.250668
 13
102.334203
 23
10.250668
  0
SOLID
  8
13
  6
CONTINUOUS
 10
102.522746
 20
10.230979
 11
102.334203
 21
10.250668
 12
102.394518
 22
10.246747
 13
102.394518
 23
10.246747
  0
SOLID
  8
13
  6
CONTINUOUS
 10
102.522746
 20
10.230979
 11
102.394518
 21
10.246747
 12
102.446340
 22
10.241621
 13
102.446340
 23
10.241621
  0
SOLID
  8
13
  6
CONTINUOUS
 10
102.522746
 20
10.230979
 11
102.446340
 21
10.241621
 12
102.490083
 22
10.235974
 13
102.490083
 23
10.235974
  0
SOLID
  8
13
  6
CONTINUOUS
 10
102.522746
 20
10.230979
 11
102.490083
 21
10.235974
 12
102.522746
 22
10.230979
 13
102.522746
 23
10.230979
  0
SOLID
  8
13
  6
CONTINUOUS
 10
102.594246
 20
10.217654
 11
102.594246
 21
9.498246
 12
103.021946
 22
9.498246
 13
103.021946
 23
9.498246
  0
SOLID
  8
13
  6
CONTINUOUS
 10
102.594246
 20
10.217654
 11
103.021946
 21
9.498246
 12
103.021946
 22
10.064184
 13
103.021946
 23
10.064184
  0
SOLID
  8
13
  6
CONTINUOUS
 10
102.594246
 20
10.217654
 11
103.021946
 21
10.064184
 12
103.003898
 22
10.073542
 13
103.003898
 23
10.073542
  0
SOLID
  8
13
  6
CONTINUOUS
 10
102.594246
 20
10.217654
 11
103.003898
 21
10.073542
 12
102.981716
 22
10.084501
 13
102.981716
 23
10.084501
  0
SOLID
  8
13
  6
CONTINUOUS
 10
102.594246
 20
10.217654
 11
102.981716
 21
10.084501
 12
102.953307
 22
10.098271
 13
102.953307
 23
10.098271
  0
SOLID
  8
13
  6
CONTINUOUS
 10
102.594246
 20
10.217654
 11
102.953307
 21
10.098271
 12
102.912865
 22
10.116383
 13
102.912865
 23
10.116383
  0
SOLID
  8
13
  6
CONTINUOUS
 10
102.594246
 20
10.217654
 11
102.912865
 21
10.116383
 12
102.885024
 22
10.128001
 13
102.885024
 23
10.128001
  0
SOLID
  8
13
  6
CONTINUOUS
 10
102.594246
 20
10.217654
 11
102.885024
 21
10.128001
 12
102.844071
 22
10.144755
 13
102.844071
 23
10.144755
  0
SOLID
  8
13
  6
CONTINUOUS
 10
102.594246
 20
10.217654
 11
102.844071
 21
10.144755
 12
102.813490
 22
10.155923
 13
102.813490
 23
10.155923
  0
SOLID
  8
13
  6
CONTINUOUS
 10
102.594246
 20
10.217654
 11
102.813490
 21
10.155923
 12
102.778388
 22
10.168156
 13
102.778388
 23
10.168156
  0
SOLID
  8
13
  6
CONTINUOUS
 10
102.594246
 20
10.217654
 11
102.778388
 21
10.168156
 12
102.744083
 22
10.178793
 13
102.744083
 23
10.178793
  0
SOLID
  8
13
  6
CONTINUOUS
 10
102.594246
 20
10.217654
 11
102.744083
 21
10.178793
 12
102.703465
 22
10.191172
 13
102.703465
 23
10.191172
  0
SOLID
  8
13
  6
CONTINUOUS
 10
102.594246
 20
10.217654
 11
102.703465
 21
10.191172
 12
102.665141
 22
10.201162
 13
102.665141
 23
10.201162
  0
SOLID
  8
13
  6
CONTINUOUS
 10
102.594246
 20
10.217654
 11
102.665141
 21
10.201162
 12
102.624819
 22
10.210970
 13
102.624819
 23
10.210970
  0
SOLID
  8
13
  6
CONTINUOUS
 10
102.594246
 20
10.217654
 11
102.624819
 21
10.210970
 12
102.594246
 22
10.217654
 13
102.594246
 23
10.217654
  0
SOLID
  8
13
  6
CONTINUOUS
 10
103.093446
 20
10.024343
 11
103.093446
 21
9.498246
 12
103.521146
 22
9.498246
 13
103.521146
 23
9.498246
  0
SOLID
  8
13
  6
CONTINUOUS
 10
103.093446
 20
10.024343
 11
103.521146
 21
9.498246
 12
103.521146
 22
9.661030
 13
103.521146
 23
9.661030
  0
SOLID
  8
13
  6
CONTINUOUS
 10
103.093446
 20
10.024343
 11
103.521146
 21
9.661030
 12
103.507797
 22
9.676793
 13
103.507797
 23
9.676793
  0
SOLID
  8
13
  6
CONTINUOUS
 10
103.093446
 20
10.024343
 11
103.507797
 21
9.676793
 12
103.495964
 22
9.690528
 13
103.495964
 23
9.690528
  0
SOLID
  8
13
  6
CONTINUOUS
 10
103.093446
 20
10.024343
 11
103.495964
 21
9.690528
 12
103.473877
 22
9.715277
 13
103.473877
 23
9.715277
  0
SOLID
  8
13
  6
CONTINUOUS
 10
103.093446
 20
10.024343
 11
103.473877
 21
9.715277
 12
103.454164
 22
9.736530
 13
103.454164
 23
9.736530
  0
SOLID
  8
13
  6
CONTINUOUS
 10
103.093446
 20
10.024343
 11
103.454164
 21
9.736530
 12
103.434048
 22
9.757502
 13
103.434048
 23
9.757502
  0
SOLID
  8
13
  6
CONTINUOUS
 10
103.093446
 20
10.024343
 11
103.434048
 21
9.757502
 12
103.410015
 22
9.781535
 13
103.410015
 23
9.781535
  0
SOLID
  8
13
  6
CONTINUOUS
 10
103.093446
 20
10.024343
 11
103.410015
 21
9.781535
 12
103.399294
 22
9.791943
 13
103.399294
 23
9.791943
  0
SOLID
  8
13
  6
CONTINUOUS
 10
103.093446
 20
10.024343
 11
103.399294
 21
9.791943
 12
103.388429
 22
9.802406
 13
103.388429
 23
9.802406
  0
SOLID
  8
13
  6
CONTINUOUS
 10
103.093446
 20
10.024343
 11
103.388429
 21
9.802406
 12
103.359952
 22
9.828752
 13
103.359952
 23
9.828752
  0
SOLID
  8
13
  6
CONTINUOUS
 10
103.093446
 20
10.024343
 11
103.359952
 21
9.828752
 12
103.325139
 22
9.859181
 13
103.325139
 23
9.859181
  0
SOLID
  8
13
  6
CONTINUOUS
 10
103.093446
 20
10.024343
 11
103.325139
 21
9.859181
 12
103.286846
 22
9.890826
 13
103.286846
 23
9.890826
  0
SOLID
  8
13
  6
CONTINUOUS
 10
103.093446
 20
10.024343
 11
103.286846
 21
9.890826
 12
103.251036
 22
9.918745
 13
103.251036
 23
9.918745
  0
SOLID
  8
13
  6
CONTINUOUS
 10
103.093446
 20
10.024343
 11
103.251036
 21
9.918745
 12
103.200839
 22
9.955427
 13
103.200839
 23
9.955427
  0
SOLID
  8
13
  6
CONTINUOUS
 10
103.093446
 20
10.024343
 11
103.200839
 21
9.955427
 12
103.134352
 22
9.999676
 13
103.134352
 23
9.999676
  0
SOLID
  8
13
  6
CONTINUOUS
 10
103.093446
 20
10.024343
 11
103.134352
 21
9.999676
 12
103.093446
 22
10.024343
 13
103.093446
 23
10.024343
  0
SOLID
  8
13
  6
CONTINUOUS
 10
102.522746
 20
10.635283
 11
102.522746
 21
11.162246
 12
102.095046
 22
11.162246
 13
102.095046
 23
11.162246
  0
SOLID
  8
13
  6
CONTINUOUS
 10
102.522746
 20
10.635283
 11
102.095046
 21
11.162246
 12
102.095046
 22
10.995122
 13
102.095046
 23
10.995122
  0
SOLID
  8
13
  6
CONTINUOUS
 10
102.522746
 20
10.635283
 11
102.095046
 21
10.995122
 12
102.153689
 22
10.929235
 13
102.153689
 23
10.929235
  0
SOLID
  8
13
  6
CONTINUOUS
 10
102.522746
 20
10.635283
 11
102.153689
 21
10.929235
 12
102.237359
 22
10.846559
 13
102.237359
 23
10.846559
  0
SOLID
  8
13
  6
CONTINUOUS
 10
102.522746
 20
10.635283
 11
102.237359
 21
10.846559
 12
102.308389
 22
10.784730
 13
102.308389
 23
10.784730
  0
SOLID
  8
13
  6
CONTINUOUS
 10
102.522746
 20
10.635283
 11
102.308389
 21
10.784730
 12
102.366624
 22
10.739274
 13
102.366624
 23
10.739274
  0
SOLID
  8
13
  6
CONTINUOUS
 10
102.522746
 20
10.635283
 11
102.366624
 21
10.739274
 12
102.406322
 22
10.710064
 13
102.406322
 23
10.710064
  0
SOLID
  8
13
  6
CONTINUOUS
 10
102.522746
 20
10.635283
 11
102.406322
 21
10.710064
 12
102.455827
 22
10.676682
 13
102.455827
 23
10.676682
  0
SOLID
  8
13
  6
CONTINUOUS
 10
102.522746
 20
10.635283
 11
102.455827
 21
10.676682
 12
102.493954
 22
10.652515
 13
102.493954
 23
10.652515
  0
SOLID
  8
13
  6
CONTINUOUS
 10
102.522746
 20
10.635283
 11
102.493954
 21
10.652515
 12
102.522746
 22
10.635283
 13
102.522746
 23
10.635283
  0
SOLID
  8
13
  6
CONTINUOUS
 10
103.021946
 20
10.443678
 11
103.021946
 21
11.162246
 12
102.594246
 22
11.162246
 13
102.594246
 23
11.162246
  0
SOLID
  8
13
  6
CONTINUOUS
 10
103.021946
 20
10.443678
 11
102.594246
 21
11.162246
 12
102.594246
 22
10.595859
 13
102.594246
 23
10.595859
  0
SOLID
  8
13
  6
CONTINUOUS
 10
103.021946
 20
10.443678
 11
102.594246
 21
10.595859
 12
102.663800
 22
10.561766
 13
102.663800
 23
10.561766
  0
SOLID
  8
13
  6
CONTINUOUS
 10
103.021946
 20
10.443678
 11
102.663800
 21
10.561766
 12
102.744359
 22
10.527375
 13
102.744359
 23
10.527375
  0
SOLID
  8
13
  6
CONTINUOUS
 10
103.021946
 20
10.443678
 11
102.744359
 21
10.527375
 12
102.812197
 22
10.501464
 13
102.812197
 23
10.501464
  0
SOLID
  8
13
  6
CONTINUOUS
 10
103.021946
 20
10.443678
 11
102.812197
 21
10.501464
 12
102.889458
 22
10.476967
 13
102.889458
 23
10.476967
  0
SOLID
  8
13
  6
CONTINUOUS
 10
103.021946
 20
10.443678
 11
102.889458
 21
10.476967
 12
102.950702
 22
10.460007
 13
102.950702
 23
10.460007
  0
SOLID
  8
13
  6
CONTINUOUS
 10
103.021946
 20
10.443678
 11
102.950702
 21
10.460007
 12
103.021946
 22
10.443678
 13
103.021946
 23
10.443678
  0
SOLID
  8
13
  6
CONTINUOUS
 10
103.093446
 20
10.430307
 11
103.093446
 21
11.162246
 12
103.521146
 22
11.162246
 13
103.521146
 23
11.162246
  0
SOLID
  8
13
  6
CONTINUOUS
 10
103.093446
 20
10.430307
 11
103.521146
 21
11.162246
 12
103.521146
 22
10.417580
 13
103.521146
 23
10.417580
  0
SOLID
  8
13
  6
CONTINUOUS
 10
103.093446
 20
10.430307
 11
103.521146
 21
10.417580
 12
103.476372
 22
10.413637
 13
103.476372
 23
10.413637
  0
SOLID
  8
13
  6
CONTINUOUS
 10
103.093446
 20
10.430307
 11
103.476372
 21
10.413637
 12
103.416577
 22
10.410480
 13
103.416577
 23
10.410480
  0
SOLID
  8
13
  6
CONTINUOUS
 10
103.093446
 20
10.430307
 11
103.416577
 21
10.410480
 12
103.366788
 22
10.409453
 13
103.366788
 23
10.409453
  0
SOLID
  8
13
  6
CONTINUOUS
 10
103.093446
 20
10.430307
 11
103.366788
 21
10.409453
 12
103.336830
 22
10.409453
 13
103.336830
 23
10.409453
  0
SOLID
  8
13
  6
CONTINUOUS
 10
103.093446
 20
10.430307
 11
103.336830
 21
10.409453
 12
103.286182
 22
10.410821
 13
103.286182
 23
10.410821
  0
SOLID
  8
13
  6
CONTINUOUS
 10
103.093446
 20
10.430307
 11
103.286182
 21
10.410821
 12
103.241261
 22
10.413321
 13
103.241261
 23
10.413321
  0
SOLID
  8
13
  6
CONTINUOUS
 10
103.093446
 20
10.430307
 11
103.241261
 21
10.413321
 12
103.205545
 22
10.416539
 13
103.205545
 23
10.416539
  0
SOLID
  8
13
  6
CONTINUOUS
 10
103.093446
 20
10.430307
 11
103.205545
 21
10.416539
 12
103.155349
 22
10.421044
 13
103.155349
 23
10.421044
  0
SOLID
  8
13
  6
CONTINUOUS
 10
103.093446
 20
10.430307
 11
103.155349
 21
10.421044
 12
103.093446
 22
10.430307
 13
103.093446
 23
10.430307
  0
SOLID
  8
13
  6
CONTINUOUS
 10
102.594246
 20
9.498246
 11
102.594246
 21
11.162246
 12
102.522746
 22
11.162246
 13
102.522746
 23
11.162246
  0
SOLID
  8
13
  6
CONTINUOUS
 10
102.594246
 20
9.498246
 11
102.522746
 21
11.162246
 12
102.522746
 22
9.498246
 13
102.522746
 23
9.498246
  0
SOLID
  8
13
  6
CONTINUOUS
 10
102.594246
 20
9.498246
 11
102.522746
 21
9.498246
 12
102.522746
 22
9.498246
 13
102.522746
 23
9.498246
  0
SOLID
  8
13
  6
CONTINUOUS
 10
103.021946
 20
11.162246
 11
103.093446
 21
11.162246
 12
103.093446
 22
9.498246
 13
103.093446
 23
9.498246
  0
SOLID
  8
13
  6
CONTINUOUS
 10
103.021946
 20
11.162246
 11
103.093446
 21
9.498246
 12
103.021946
 22
9.498246
 13
103.021946
 23
9.498246
  0
SOLID
  8
13
  6
CONTINUOUS
 10
103.021946
 20
11.162246
 11
103.021946
 21
9.498246
 12
103.021946
 22
11.162246
 13
103.021946
 23
11.162246
  0
SOLID
  8
13
  6
CONTINUOUS
 10
103.521146
 20
9.498246
 11
103.635546
 21
9.498246
 12
103.635546
 22
11.162246
 13
103.635546
 23
11.162246
  0
SOLID
  8
13
  6
CONTINUOUS
 10
103.521146
 20
9.498246
 11
103.635546
 21
11.162246
 12
103.521146
 22
11.162246
 13
103.521146
 23
11.162246
  0
SOLID
  8
13
  6
CONTINUOUS
 10
103.521146
 20
9.498246
 11
103.521146
 21
11.162246
 12
103.521146
 22
9.498246
 13
103.521146
 23
9.498246
  0
POLYLINE
  8
1
  6
CONTINUOUS
 66
     1
  0
VERTEX
  8
1
  6
CONTINUOUS
 10
21.345785
 20
68.730622
  0
VERTEX
  8
1
  6
CONTINUOUS
 10
10.906281
 20
67.506564
  0
SEQEND
  8
1
  6
CONTINUOUS
  0
POLYLINE
  8
1
  6
CONTINUOUS
 66
     1
  0
VERTEX
  8
1
  6
CONTINUOUS
 10
11.425641
 20
67.064035
  0
VERTEX
  8
1
  6
CONTINUOUS
 10
21.404033
 20
68.234026
  0
SEQEND
  8
1
  6
CONTINUOUS
  0
POLYLINE
  8
1
  6
CONTINUOUS
 66
     1
  0
VERTEX
  8
1
  6
CONTINUOUS
 10
27.375199
 20
69.437586
  0
VERTEX
  8
1
  6
CONTINUOUS
 10
21.842383
 20
68.788849
  0
SEQEND
  8
1
  6
CONTINUOUS
  0
POLYLINE
  8
1
  6
CONTINUOUS
 66
     1
  0
VERTEX
  8
1
  6
CONTINUOUS
 10
21.900631
 20
68.292254
  0
VERTEX
  8
1
  6
CONTINUOUS
 10
27.397243
 20
68.936745
  0
SEQEND
  8
1
  6
CONTINUOUS
  0
POLYLINE
  8
1
  6
CONTINUOUS
 66
     1
  0
VERTEX
  8
1
  6
CONTINUOUS
 10
12.136263
 20
38.774309
  0
VERTEX
  8
1
  6
CONTINUOUS
 10
12.489882
 20
30.495245
  0
SEQEND
  8
1
  6
CONTINUOUS
  0
POLYLINE
  8
1
  6
CONTINUOUS
 66
     1
  0
VERTEX
  8
1
  6
CONTINUOUS
 10
12.989427
 20
30.516584
  0
VERTEX
  8
1
  6
CONTINUOUS
 10
12.635808
 20
38.795648
  0
SEQEND
  8
1
  6
CONTINUOUS
  0
POLYLINE
  8
1
  6
CONTINUOUS
 66
     1
  0
VERTEX
  8
1
  6
CONTINUOUS
 10
11.758851
 20
47.610445
  0
VERTEX
  8
1
  6
CONTINUOUS
 10
12.110659
 20
39.373762
  0
SEQEND
  8
1
  6
CONTINUOUS
  0
POLYLINE
  8
1
  6
CONTINUOUS
 66
     1
  0
VERTEX
  8
1
  6
CONTINUOUS
 10
12.610204
 20
39.395101
  0
VERTEX
  8
1
  6
CONTINUOUS
 10
12.258395
 20
47.631784
  0
SEQEND
  8
1
  6
CONTINUOUS
  0
POLYLINE
  8
1
  6
CONTINUOUS
 66
     1
  0
VERTEX
  8
1
  6
CONTINUOUS
 10
11.344932
 20
57.301610
  0
VERTEX
  8
1
  6
CONTINUOUS
 10
11.716178
 20
48.609535
  0
SEQEND
  8
1
  6
CONTINUOUS
  0
POLYLINE
  8
1
  6
CONTINUOUS
 66
     1
  0
VERTEX
  8
1
  6
CONTINUOUS
 10
12.215722
 20
48.630873
  0
VERTEX
  8
1
  6
CONTINUOUS
 10
11.844477
 20
57.322949
  0
SEQEND
  8
1
  6
CONTINUOUS
  0
POLYLINE
  8
1
  6
CONTINUOUS
 66
     1
  0
VERTEX
  8
1
  6
CONTINUOUS
 10
10.930427
 20
67.006533
  0
VERTEX
  8
1
  6
CONTINUOUS
 10
11.319329
 20
57.901064
  0
SEQEND
  8
1
  6
CONTINUOUS
  0
POLYLINE
  8
1
  6
CONTINUOUS
 66
     1
  0
VERTEX
  8
1
  6
CONTINUOUS
 10
11.818874
 20
57.922402
  0
VERTEX
  8
1
  6
CONTINUOUS
 10
11.429972
 20
67.027872
  0
SEQEND
  8
1
  6
CONTINUOUS
  0
POLYLINE
  8
1
  6
CONTINUOUS
 66
     1
  0
VERTEX
  8
1
  6
CONTINUOUS
 10
17.049406
 20
25.295608
  0
VERTEX
  8
1
  6
CONTINUOUS
 10
12.896286
 20
25.295608
  0
SEQEND
  8
1
  6
CONTINUOUS
  0
POLYLINE
  8
1
  6
CONTINUOUS
 66
     1
  0
VERTEX
  8
1
  6
CONTINUOUS
 10
12.896286
 20
24.895608
  0
VERTEX
  8
1
  6
CONTINUOUS
 10
16.909406
 20
24.895608
  0
SEQEND
  8
1
  6
CONTINUOUS
  0
POLYLINE
  8
1
  6
CONTINUOUS
 66
     1
  0
VERTEX
  8
1
  6
CONTINUOUS
 10
21.199403
 20
25.295608
  0
VERTEX
  8
1
  6
CONTINUOUS
 10
17.049406
 20
25.295608
  0
SEQEND
  8
1
  6
CONTINUOUS
  0
POLYLINE
  8
1
  6
CONTINUOUS
 66
     1
  0
VERTEX
  8
1
  6
CONTINUOUS
 10
17.189406
 20
24.895608
  0
VERTEX
  8
1
  6
CONTINUOUS
 10
21.199403
 20
24.895608
  0
SEQEND
  8
1
  6
CONTINUOUS
  0
POLYLINE
  8
1
  6
CONTINUOUS
 66
     1
  0
VERTEX
  8
1
  6
CONTINUOUS
 10
16.909406
 20
20.995612
  0
VERTEX
  8
1
  6
CONTINUOUS
 10
12.896286
 20
20.995612
  0
SEQEND
  8
1
  6
CONTINUOUS
  0
POLYLINE
  8
1
  6
CONTINUOUS
 66
     1
  0
VERTEX
  8
1
  6
CONTINUOUS
 10
12.896286
 20
20.595612
  0
VERTEX
  8
1
  6
CONTINUOUS
 10
17.049406
 20
20.595612
  0
SEQEND
  8
1
  6
CONTINUOUS
  0
POLYLINE
  8
1
  6
CONTINUOUS
 66
     1
  0
VERTEX
  8
1
  6
CONTINUOUS
 10
21.199403
 20
20.995612
  0
VERTEX
  8
1
  6
CONTINUOUS
 10
17.189406
 20
20.995612
  0
SEQEND
  8
1
  6
CONTINUOUS
  0
POLYLINE
  8
1
  6
CONTINUOUS
 66
     1
  0
VERTEX
  8
1
  6
CONTINUOUS
 10
17.049406
 20
20.595612
  0
VERTEX
  8
1
  6
CONTINUOUS
 10
21.199403
 20
20.595612
  0
SEQEND
  8
1
  6
CONTINUOUS
  0
POLYLINE
  8
1
  6
CONTINUOUS
 66
     1
  0
VERTEX
  8
1
  6
CONTINUOUS
 10
16.909406
 20
24.895608
  0
VERTEX
  8
1
  6
CONTINUOUS
 10
16.909406
 20
20.995612
  0
SEQEND
  8
1
  6
CONTINUOUS
  0
POLYLINE
  8
1
  6
CONTINUOUS
 66
     1
  0
VERTEX
  8
1
  6
CONTINUOUS
 10
17.189406
 20
20.995612
  0
VERTEX
  8
1
  6
CONTINUOUS
 10
17.189406
 20
24.895608
  0
SEQEND
  8
1
  6
CONTINUOUS
  0
POLYLINE
  8
1
  6
CONTINUOUS
 66
     1
  0
VERTEX
  8
1
  6
CONTINUOUS
 10
31.220480
 20
15.593668
  0
VERTEX
  8
1
  6
CONTINUOUS
 10
25.169835
 20
15.594701
  0
SEQEND
  8
1
  6
CONTINUOUS
  0
POLYLINE
  8
1
  6
CONTINUOUS
 66
     1
  0
VERTEX
  8
1
  6
CONTINUOUS
 10
25.169835
 20
15.194701
  0
VERTEX
  8
1
  6
CONTINUOUS
 10
31.187288
 20
15.193673
  0
SEQEND
  8
1
  6
CONTINUOUS
  0
POLYLINE
  8
1
  6
CONTINUOUS
 66
     1
  0
VERTEX
  8
1
  6
CONTINUOUS
 10
24.309835
 20
25.963305
  0
VERTEX
  8
1
  6
CONTINUOUS
 10
24.309835
 20
15.594779
  0
SEQEND
  8
1
  6
CONTINUOUS
  0
POLYLINE
  8
1
  6
CONTINUOUS
 66
     1
  0
VERTEX
  8
1
  6
CONTINUOUS
 10
24.709835
 20
15.594779
  0
VERTEX
  8
1
  6
CONTINUOUS
 10
24.709835
 20
25.962523
  0
SEQEND
  8
1
  6
CONTINUOUS
  0
POLYLINE
  8
1
  6
CONTINUOUS
 66
     1
  0
VERTEX
  8
1
  6
CONTINUOUS
 10
29.102687
 20
30.095608
  0
VERTEX
  8
1
  6
CONTINUOUS
 10
29.269689
 20
26.353604
  0
SEQEND
  8
1
  6
CONTINUOUS
  0
POLYLINE
  8
1
  6
CONTINUOUS
 66
     1
  0
VERTEX
  8
1
  6
CONTINUOUS
 10
29.769429
 20
26.370572
  0
VERTEX
  8
1
  6
CONTINUOUS
 10
29.603184
 20
30.095608
  0
SEQEND
  8
1
  6
CONTINUOUS
  0
POLYLINE
  8
1
  6
CONTINUOUS
 66
     1
  0
VERTEX
  8
1
  6
CONTINUOUS
 10
28.934245
 20
33.869869
  0
VERTEX
  8
1
  6
CONTINUOUS
 10
29.084835
 20
30.495608
  0
SEQEND
  8
1
  6
CONTINUOUS
  0
POLYLINE
  8
1
  6
CONTINUOUS
 66
     1
  0
VERTEX
  8
1
  6
CONTINUOUS
 10
29.585333
 20
30.495608
  0
VERTEX
  8
1
  6
CONTINUOUS
 10
29.433790
 20
33.891208
  0
SEQEND
  8
1
  6
CONTINUOUS
  0
POLYLINE
  8
1
  6
CONTINUOUS
 66
     1
  0
VERTEX
  8
1
  6
CONTINUOUS
 10
28.324897
 20
48.117812
  0
VERTEX
  8
1
  6
CONTINUOUS
 10
28.908063
 20
34.469298
  0
SEQEND
  8
1
  6
CONTINUOUS
  0
POLYLINE
  8
1
  6
CONTINUOUS
 66
     1
  0
VERTEX
  8
1
  6
CONTINUOUS
 10
29.407608
 20
34.490637
  0
VERTEX
  8
1
  6
CONTINUOUS
 10
28.824442
 20
48.139151
  0
SEQEND
  8
1
  6
CONTINUOUS
  0
POLYLINE
  8
1
  6
CONTINUOUS
 66
     1
  0
VERTEX
  8
1
  6
CONTINUOUS
 10
27.881057
 20
58.508337
  0
VERTEX
  8
1
  6
CONTINUOUS
 10
28.282215
 20
49.116900
  0
SEQEND
  8
1
  6
CONTINUOUS
  0
POLYLINE
  8
1
  6
CONTINUOUS
 66
     1
  0
VERTEX
  8
1
  6
CONTINUOUS
 10
28.781760
 20
49.138239
  0
VERTEX
  8
1
  6
CONTINUOUS
 10
28.380602
 20
58.529675
  0
SEQEND
  8
1
  6
CONTINUOUS
  0
POLYLINE
  8
1
  6
CONTINUOUS
 66
     1
  0
VERTEX
  8
1
  6
CONTINUOUS
 10
27.397243
 20
68.936745
  0
VERTEX
  8
1
  6
CONTINUOUS
 10
27.854317
 20
59.107741
  0
SEQEND
  8
1
  6
CONTINUOUS
  0
POLYLINE
  8
1
  6
CONTINUOUS
 66
     1
  0
VERTEX
  8
1
  6
CONTINUOUS
 10
28.353865
 20
59.129080
  0
VERTEX
  8
1
  6
CONTINUOUS
 10
27.896370
 20
68.967119
  0
SEQEND
  8
1
  6
CONTINUOUS
  0
POLYLINE
  8
1
  6
CONTINUOUS
 66
     1
  0
VERTEX
  8
1
  6
CONTINUOUS
 10
19.999402
 20
30.495608
  0
VERTEX
  8
1
  6
CONTINUOUS
 10
12.990300
 20
30.495608
  0
SEQEND
  8
1
  6
CONTINUOUS
  0
POLYLINE
  8
1
  6
CONTINUOUS
 66
     1
  0
VERTEX
  8
1
  6
CONTINUOUS
 10
12.506931
 20
30.095608
  0
VERTEX
  8
1
  6
CONTINUOUS
 10
19.999402
 20
30.095608
  0
SEQEND
  8
1
  6
CONTINUOUS
  0
POLYLINE
  8
1
  6
CONTINUOUS
 66
     1
  0
VERTEX
  8
1
  6
CONTINUOUS
 10
29.084835
 20
30.495608
  0
VERTEX
  8
1
  6
CONTINUOUS
 10
20.599402
 20
30.495608
  0
SEQEND
  8
1
  6
CONTINUOUS
  0
POLYLINE
  8
1
  6
CONTINUOUS
 66
     1
  0
VERTEX
  8
1
  6
CONTINUOUS
 10
20.599402
 20
30.095608
  0
VERTEX
  8
1
  6
CONTINUOUS
 10
29.102687
 20
30.095608
  0
SEQEND
  8
1
  6
CONTINUOUS
  0
POLYLINE
  8
1
  6
CONTINUOUS
 66
     1
  0
VERTEX
  8
1
  6
CONTINUOUS
 10
30.915123
 20
30.095608
  0
VERTEX
  8
1
  6
CONTINUOUS
 10
31.075108
 20
26.350073
  0
SEQEND
  8
1
  6
CONTINUOUS
  0
POLYLINE
  8
1
  6
CONTINUOUS
 66
     1
  0
VERTEX
  8
1
  6
CONTINUOUS
 10
31.675705
 20
26.348898
  0
VERTEX
  8
1
  6
CONTINUOUS
 10
31.506581
 20
30.308410
  0
SEQEND
  8
1
  6
CONTINUOUS
  0
POLYLINE
  8
1
  6
CONTINUOUS
 66
     1
  0
VERTEX
  8
1
  6
CONTINUOUS
 10
30.810290
 20
32.549939
  0
VERTEX
  8
1
  6
CONTINUOUS
 10
30.898038
 20
30.495608
  0
SEQEND
  8
1
  6
CONTINUOUS
  0
POLYLINE
  8
1
  6
CONTINUOUS
 66
     1
  0
VERTEX
  8
1
  6
CONTINUOUS
 10
31.506581
 20
30.308410
  0
VERTEX
  8
1
  6
CONTINUOUS
 10
31.409744
 20
32.575546
  0
SEQEND
  8
1
  6
CONTINUOUS
  0
POLYLINE
  8
1
  6
CONTINUOUS
 66
     1
  0
VERTEX
  8
1
  6
CONTINUOUS
 10
30.146286
 20
48.095524
  0
VERTEX
  8
1
  6
CONTINUOUS
 10
30.767616
 20
33.549028
  0
SEQEND
  8
1
  6
CONTINUOUS
  0
POLYLINE
  8
1
  6
CONTINUOUS
 66
     1
  0
VERTEX
  8
1
  6
CONTINUOUS
 10
31.367069
 20
33.574635
  0
VERTEX
  8
1
  6
CONTINUOUS
 10
30.745739
 20
48.121131
  0
SEQEND
  8
1
  6
CONTINUOUS
  0
POLYLINE
  8
1
  6
CONTINUOUS
 66
     1
  0
VERTEX
  8
1
  6
CONTINUOUS
 10
29.706376
 20
58.394631
  0
VERTEX
  8
1
  6
CONTINUOUS
 10
30.103611
 20
49.094613
  0
SEQEND
  8
1
  6
CONTINUOUS
  0
POLYLINE
  8
1
  6
CONTINUOUS
 66
     1
  0
VERTEX
  8
1
  6
CONTINUOUS
 10
30.703064
 20
49.120220
  0
VERTEX
  8
1
  6
CONTINUOUS
 10
30.305829
 20
58.420238
  0
SEQEND
  8
1
  6
CONTINUOUS
  0
POLYLINE
  8
1
  6
CONTINUOUS
 66
     1
  0
VERTEX
  8
1
  6
CONTINUOUS
 10
29.275002
 20
68.493921
  0
VERTEX
  8
1
  6
CONTINUOUS
 10
29.655167
 20
59.593538
  0
SEQEND
  8
1
  6
CONTINUOUS
  0
POLYLINE
  8
1
  6
CONTINUOUS
 66
     1
  0
VERTEX
  8
1
  6
CONTINUOUS
 10
30.254620
 20
59.619145
  0
VERTEX
  8
1
  6
CONTINUOUS
 10
29.874455
 20
68.519527
  0
SEQEND
  8
1
  6
CONTINUOUS
  0
POLYLINE
  8
1
  6
CONTINUOUS
 66
     1
  0
VERTEX
  8
1
  6
CONTINUOUS
 10
39.962028
 20
70.334123
  0
VERTEX
  8
1
  6
CONTINUOUS
 10
29.537936
 20
69.105699
  0
SEQEND
  8
1
  6
CONTINUOUS
  0
POLYLINE
  8
1
  6
CONTINUOUS
 66
     1
  0
VERTEX
  8
1
  6
CONTINUOUS
 10
29.873535
 20
68.541096
  0
VERTEX
  8
1
  6
CONTINUOUS
 10
40.032248
 20
69.738246
  0
SEQEND
  8
1
  6
CONTINUOUS
  0
POLYLINE
  8
1
  6
CONTINUOUS
 66
     1
  0
VERTEX
  8
1
  6
CONTINUOUS
 10
51.114112
 20
71.648336
  0
VERTEX
  8
1
  6
CONTINUOUS
 10
40.955155
 20
70.451158
  0
SEQEND
  8
1
  6
CONTINUOUS
  0
POLYLINE
  8
1
  6
CONTINUOUS
 66
     1
  0
VERTEX
  8
1
  6
CONTINUOUS
 10
41.025376
 20
69.855281
  0
VERTEX
  8
1
  6
CONTINUOUS
 10
51.142625
 20
71.047544
  0
SEQEND
  8
1
  6
CONTINUOUS
  0
POLYLINE
  8
1
  6
CONTINUOUS
 66
     1
  0
VERTEX
  8
1
  6
CONTINUOUS
 10
51.636505
 20
71.636602
  0
VERTEX
  8
1
  6
CONTINUOUS
 10
51.114112
 20
71.648336
  0
SEQEND
  8
1
  6
CONTINUOUS
  0
POLYLINE
  8
1
  6
CONTINUOUS
 66
     1
  0
VERTEX
  8
1
  6
CONTINUOUS
 10
51.142625
 20
71.047544
  0
VERTEX
  8
1
  6
CONTINUOUS
 10
51.583367
 20
71.037645
  0
SEQEND
  8
1
  6
CONTINUOUS
  0
POLYLINE
  8
1
  6
CONTINUOUS
 66
     1
  0
VERTEX
  8
1
  6
CONTINUOUS
 10
29.269689
 20
26.353604
  0
VERTEX
  8
1
  6
CONTINUOUS
 10
24.710188
 20
26.362523
  0
SEQEND
  8
1
  6
CONTINUOUS
  0
POLYLINE
  8
1
  6
CONTINUOUS
 66
     1
  0
VERTEX
  8
1
  6
CONTINUOUS
 10
24.709835
 20
25.962523
  0
VERTEX
  8
1
  6
CONTINUOUS
 10
29.287244
 20
25.953569
  0
SEQEND
  8
1
  6
CONTINUOUS
  0
POLYLINE
  8
1
  6
CONTINUOUS
 66
     1
  0
VERTEX
  8
1
  6
CONTINUOUS
 10
31.075108
 20
26.350073
  0
VERTEX
  8
1
  6
CONTINUOUS
 10
29.770654
 20
26.352624
  0
SEQEND
  8
1
  6
CONTINUOUS
  0
POLYLINE
  8
1
  6
CONTINUOUS
 66
     1
  0
VERTEX
  8
1
  6
CONTINUOUS
 10
29.375886
 20
25.953396
  0
VERTEX
  8
1
  6
CONTINUOUS
 10
31.383558
 20
25.949469
  0
SEQEND
  8
1
  6
CONTINUOUS
  0
POLYLINE
  8
1
  6
CONTINUOUS
 66
     1
  0
VERTEX
  8
1
  6
CONTINUOUS
 10
35.641208
 20
26.341141
  0
VERTEX
  8
1
  6
CONTINUOUS
 10
31.675705
 20
26.348898
  0
SEQEND
  8
1
  6
CONTINUOUS
  0
POLYLINE
  8
1
  6
CONTINUOUS
 66
     1
  0
VERTEX
  8
1
  6
CONTINUOUS
 10
31.383558
 20
25.949469
  0
VERTEX
  8
1
  6
CONTINUOUS
 10
35.640426
 20
25.941142
  0
SEQEND
  8
1
  6
CONTINUOUS
  0
POLYLINE
  8
1
  6
CONTINUOUS
 66
     1
  0
VERTEX
  8
1
  6
CONTINUOUS
 10
41.628412
 20
26.329430
  0
VERTEX
  8
1
  6
CONTINUOUS
 10
36.041207
 20
26.340359
  0
SEQEND
  8
1
  6
CONTINUOUS
  0
POLYLINE
  8
1
  6
CONTINUOUS
 66
     1
  0
VERTEX
  8
1
  6
CONTINUOUS
 10
36.040425
 20
25.940360
  0
VERTEX
  8
1
  6
CONTINUOUS
 10
41.627630
 20
25.929431
  0
SEQEND
  8
1
  6
CONTINUOUS
  0
POLYLINE
  8
1
  6
CONTINUOUS
 66
     1
  0
VERTEX
  8
1
  6
CONTINUOUS
 10
47.615617
 20
26.317718
  0
VERTEX
  8
1
  6
CONTINUOUS
 10
42.028411
 20
26.328647
  0
SEQEND
  8
1
  6
CONTINUOUS
  0
POLYLINE
  8
1
  6
CONTINUOUS
 66
     1
  0
VERTEX
  8
1
  6
CONTINUOUS
 10
42.027630
 20
25.928648
  0
VERTEX
  8
1
  6
CONTINUOUS
 10
47.580129
 20
25.917787
  0
SEQEND
  8
1
  6
CONTINUOUS
  0
POLYLINE
  8
1
  6
CONTINUOUS
 66
     1
  0
VERTEX
  8
1
  6
CONTINUOUS
 10
33.044710
 20
19.387533
  0
VERTEX
  8
1
  6
CONTINUOUS
 10
31.541886
 20
19.390471
  0
SEQEND
  8
1
  6
CONTINUOUS
  0
POLYLINE
  8
1
  6
CONTINUOUS
 66
     1
  0
VERTEX
  8
1
  6
CONTINUOUS
 10
32.093150
 20
18.789392
  0
VERTEX
  8
1
  6
CONTINUOUS
 10
33.043538
 20
18.787534
  0
SEQEND
  8
1
  6
CONTINUOUS
  0
POLYLINE
  8
1
  6
CONTINUOUS
 66
     1
  0
VERTEX
  8
1
  6
CONTINUOUS
 10
44.061255
 20
19.365999
  0
VERTEX
  8
1
  6
CONTINUOUS
 10
33.644709
 20
19.386360
  0
SEQEND
  8
1
  6
CONTINUOUS
  0
POLYLINE
  8
1
  6
CONTINUOUS
 66
     1
  0
VERTEX
  8
1
  6
CONTINUOUS
 10
33.643536
 20
18.786362
  0
VERTEX
  8
1
  6
CONTINUOUS
 10
44.060082
 20
18.766000
  0
SEQEND
  8
1
  6
CONTINUOUS
  0
POLYLINE
  8
1
  6
CONTINUOUS
 66
     1
  0
VERTEX
  8
1
  6
CONTINUOUS
 10
46.998257
 20
19.360258
  0
VERTEX
  8
1
  6
CONTINUOUS
 10
44.661254
 20
19.364826
  0
SEQEND
  8
1
  6
CONTINUOUS
  0
POLYLINE
  8
1
  6
CONTINUOUS
 66
     1
  0
VERTEX
  8
1
  6
CONTINUOUS
 10
44.660081
 20
18.764827
  0
VERTEX
  8
1
  6
CONTINUOUS
 10
47.272181
 20
18.759721
  0
SEQEND
  8
1
  6
CONTINUOUS
  0
POLYLINE
  8
1
  6
CONTINUOUS
 66
     1
  0
VERTEX
  8
1
  6
CONTINUOUS
 10
48.202340
 20
19.357904
  0
VERTEX
  8
1
  6
CONTINUOUS
 10
47.600510
 20
19.359081
  0
SEQEND
  8
1
  6
CONTINUOUS
  0
POLYLINE
  8
1
  6
CONTINUOUS
 66
     1
  0
VERTEX
  8
1
  6
CONTINUOUS
 10
47.272181
 20
18.759721
  0
VERTEX
  8
1
  6
CONTINUOUS
 10
48.476268
 20
18.757368
  0
SEQEND
  8
1
  6
CONTINUOUS
  0
POLYLINE
  8
1
  6
CONTINUOUS
 66
     1
  0
VERTEX
  8
1
  6
CONTINUOUS
 10
51.233553
 20
19.351979
  0
VERTEX
  8
1
  6
CONTINUOUS
 10
48.804592
 20
19.356727
  0
SEQEND
  8
1
  6
CONTINUOUS
  0
POLYLINE
  8
1
  6
CONTINUOUS
 66
     1
  0
VERTEX
  8
1
  6
CONTINUOUS
 10
48.476268
 20
18.757368
  0
VERTEX
  8
1
  6
CONTINUOUS
 10
51.346879
 20
18.751757
  0
SEQEND
  8
1
  6
CONTINUOUS
  0
POLYLINE
  8
1
  6
CONTINUOUS
 66
     1
  0
VERTEX
  8
1
  6
CONTINUOUS
 10
55.901232
 20
19.342855
  0
VERTEX
  8
1
  6
CONTINUOUS
 10
51.514604
 20
19.351430
  0
SEQEND
  8
1
  6
CONTINUOUS
  0
POLYLINE
  8
1
  6
CONTINUOUS
 66
     1
  0
VERTEX
  8
1
  6
CONTINUOUS
 10
51.346879
 20
18.751757
  0
VERTEX
  8
1
  6
CONTINUOUS
 10
55.900059
 20
18.742856
  0
SEQEND
  8
1
  6
CONTINUOUS
  0
POLYLINE
  8
1
  6
CONTINUOUS
 66
     1
  0
VERTEX
  8
1
  6
CONTINUOUS
 10
48.860459
 20
26.775870
  0
VERTEX
  8
1
  6
CONTINUOUS
 10
48.202340
 20
19.357904
  0
SEQEND
  8
1
  6
CONTINUOUS
  0
POLYLINE
  8
1
  6
CONTINUOUS
 66
     1
  0
VERTEX
  8
1
  6
CONTINUOUS
 10
48.804592
 20
19.356727
  0
VERTEX
  8
1
  6
CONTINUOUS
 10
49.431600
 20
26.424019
  0
SEQEND
  8
1
  6
CONTINUOUS
  0
POLYLINE
  8
1
  6
CONTINUOUS
 66
     1
  0
VERTEX
  8
1
  6
CONTINUOUS
 10
49.501233
 20
33.998330
  0
VERTEX
  8
1
  6
CONTINUOUS
 10
48.860459
 20
26.775870
  0
SEQEND
  8
1
  6
CONTINUOUS
  0
POLYLINE
  8
1
  6
CONTINUOUS
 66
     1
  0
VERTEX
  8
1
  6
CONTINUOUS
 10
49.484623
 20
27.021672
  0
VERTEX
  8
1
  6
CONTINUOUS
 10
50.028188
 20
33.148435
  0
SEQEND
  8
1
  6
CONTINUOUS
  0
POLYLINE
  8
1
  6
CONTINUOUS
 66
     1
  0
VERTEX
  8
1
  6
CONTINUOUS
 10
49.717915
 20
36.440650
  0
VERTEX
  8
1
  6
CONTINUOUS
 10
49.501233
 20
33.998330
  0
SEQEND
  8
1
  6
CONTINUOUS
  0
POLYLINE
  8
1
  6
CONTINUOUS
 66
     1
  0
VERTEX
  8
1
  6
CONTINUOUS
 10
50.169584
 20
34.742175
  0
VERTEX
  8
1
  6
CONTINUOUS
 10
50.315568
 20
36.387626
  0
SEQEND
  8
1
  6
CONTINUOUS
  0
POLYLINE
  8
1
  6
CONTINUOUS
 66
     1
  0
VERTEX
  8
1
  6
CONTINUOUS
 10
50.208214
 20
41.967030
  0
VERTEX
  8
1
  6
CONTINUOUS
 10
49.770939
 20
37.038303
  0
SEQEND
  8
1
  6
CONTINUOUS
  0
POLYLINE
  8
1
  6
CONTINUOUS
 66
     1
  0
VERTEX
  8
1
  6
CONTINUOUS
 10
50.368591
 20
36.985279
  0
VERTEX
  8
1
  6
CONTINUOUS
 10
50.735168
 20
41.117135
  0
SEQEND
  8
1
  6
CONTINUOUS
  0
POLYLINE
  8
1
  6
CONTINUOUS
 66
     1
  0
VERTEX
  8
1
  6
CONTINUOUS
 10
50.725359
 20
47.796019
  0
VERTEX
  8
1
  6
CONTINUOUS
 10
50.208214
 20
41.967030
  0
SEQEND
  8
1
  6
CONTINUOUS
  0
POLYLINE
  8
1
  6
CONTINUOUS
 66
     1
  0
VERTEX
  8
1
  6
CONTINUOUS
 10
50.876564
 20
42.710875
  0
VERTEX
  8
1
  6
CONTINUOUS
 10
51.323012
 20
47.742995
  0
SEQEND
  8
1
  6
CONTINUOUS
  0
POLYLINE
  8
1
  6
CONTINUOUS
 66
     1
  0
VERTEX
  8
1
  6
CONTINUOUS
 10
50.826821
 20
48.939642
  0
VERTEX
  8
1
  6
CONTINUOUS
 10
50.813732
 20
48.792106
  0
SEQEND
  8
1
  6
CONTINUOUS
  0
POLYLINE
  8
1
  6
CONTINUOUS
 66
     1
  0
VERTEX
  8
1
  6
CONTINUOUS
 10
51.411384
 20
48.739083
  0
VERTEX
  8
1
  6
CONTINUOUS
 10
51.353776
 20
48.089747
  0
SEQEND
  8
1
  6
CONTINUOUS
  0
POLYLINE
  8
1
  6
CONTINUOUS
 66
     1
  0
VERTEX
  8
1
  6
CONTINUOUS
 10
51.357056
 20
54.916167
  0
VERTEX
  8
1
  6
CONTINUOUS
 10
50.826821
 20
48.939642
  0
SEQEND
  8
1
  6
CONTINUOUS
  0
POLYLINE
  8
1
  6
CONTINUOUS
 66
     1
  0
VERTEX
  8
1
  6
CONTINUOUS
 10
51.495172
 20
49.683487
  0
VERTEX
  8
1
  6
CONTINUOUS
 10
51.884011
 20
54.066272
  0
SEQEND
  8
1
  6
CONTINUOUS
  0
POLYLINE
  8
1
  6
CONTINUOUS
 66
     1
  0
VERTEX
  8
1
  6
CONTINUOUS
 10
51.750481
 20
59.350634
  0
VERTEX
  8
1
  6
CONTINUOUS
 10
51.357056
 20
54.916167
  0
SEQEND
  8
1
  6
CONTINUOUS
  0
POLYLINE
  8
1
  6
CONTINUOUS
 66
     1
  0
VERTEX
  8
1
  6
CONTINUOUS
 10
52.025407
 20
55.660012
  0
VERTEX
  8
1
  6
CONTINUOUS
 10
52.348133
 20
59.297610
  0
SEQEND
  8
1
  6
CONTINUOUS
  0
POLYLINE
  8
1
  6
CONTINUOUS
 66
     1
  0
VERTEX
  8
1
  6
CONTINUOUS
 10
51.887292
 20
60.892692
  0
VERTEX
  8
1
  6
CONTINUOUS
 10
51.838853
 20
60.346721
  0
SEQEND
  8
1
  6
CONTINUOUS
  0
POLYLINE
  8
1
  6
CONTINUOUS
 66
     1
  0
VERTEX
  8
1
  6
CONTINUOUS
 10
52.436506
 20
60.293698
  0
VERTEX
  8
1
  6
CONTINUOUS
 10
52.414246
 20
60.042797
  0
SEQEND
  8
1
  6
CONTINUOUS
  0
POLYLINE
  8
1
  6
CONTINUOUS
 66
     1
  0
VERTEX
  8
1
  6
CONTINUOUS
 10
52.417527
 20
66.869217
  0
VERTEX
  8
1
  6
CONTINUOUS
 10
51.887292
 20
60.892692
  0
SEQEND
  8
1
  6
CONTINUOUS
  0
POLYLINE
  8
1
  6
CONTINUOUS
 66
     1
  0
VERTEX
  8
1
  6
CONTINUOUS
 10
52.555642
 20
61.636537
  0
VERTEX
  8
1
  6
CONTINUOUS
 10
52.944481
 20
66.019322
  0
SEQEND
  8
1
  6
CONTINUOUS
  0
POLYLINE
  8
1
  6
CONTINUOUS
 66
     1
  0
VERTEX
  8
1
  6
CONTINUOUS
 10
52.790053
 20
71.068135
  0
VERTEX
  8
1
  6
CONTINUOUS
 10
52.417527
 20
66.869217
  0
SEQEND
  8
1
  6
CONTINUOUS
  0
POLYLINE
  8
1
  6
CONTINUOUS
 66
     1
  0
VERTEX
  8
1
  6
CONTINUOUS
 10
53.085877
 20
67.613062
  0
VERTEX
  8
1
  6
CONTINUOUS
 10
53.387706
 20
71.015112
  0
SEQEND
  8
1
  6
CONTINUOUS
  0
POLYLINE
  8
1
  6
CONTINUOUS
 66
     1
  0
VERTEX
  8
1
  6
CONTINUOUS
 10
48.804592
 20
19.356727
  0
VERTEX
  8
1
  6
CONTINUOUS
 10
48.202340
 20
19.357904
  0
SEQEND
  8
1
  6
CONTINUOUS
  0
POLYLINE
  8
1
  6
CONTINUOUS
 66
     1
  0
VERTEX
  8
1
  6
CONTINUOUS
 10
51.277484
 20
26.862600
  0
VERTEX
  8
1
  6
CONTINUOUS
 10
49.484623
 20
27.021672
  0
SEQEND
  8
1
  6
CONTINUOUS
  0
POLYLINE
  8
1
  6
CONTINUOUS
 66
     1
  0
VERTEX
  8
1
  6
CONTINUOUS
 10
49.431600
 20
26.424019
  0
VERTEX
  8
1
  6
CONTINUOUS
 10
51.224460
 20
26.264948
  0
SEQEND
  8
1
  6
CONTINUOUS
  0
POLYLINE
  8
1
  6
CONTINUOUS
 66
     1
  0
VERTEX
  8
1
  6
CONTINUOUS
 10
52.034513
 20
26.795433
  0
VERTEX
  8
1
  6
CONTINUOUS
 10
51.875136
 20
26.809574
  0
SEQEND
  8
1
  6
CONTINUOUS
  0
POLYLINE
  8
1
  6
CONTINUOUS
 66
     1
  0
VERTEX
  8
1
  6
CONTINUOUS
 10
51.822113
 20
26.211921
  0
VERTEX
  8
1
  6
CONTINUOUS
 10
51.842034
 20
26.210154
  0
SEQEND
  8
1
  6
CONTINUOUS
  0
POLYLINE
  8
1
  6
CONTINUOUS
 66
     1
  0
VERTEX
  8
1
  6
CONTINUOUS
 10
66.558072
 20
25.506835
  0
VERTEX
  8
1
  6
CONTINUOUS
 10
52.034513
 20
26.795433
  0
SEQEND
  8
1
  6
CONTINUOUS
  0
POLYLINE
  8
1
  6
CONTINUOUS
 66
     1
  0
VERTEX
  8
1
  6
CONTINUOUS
 10
52.120939
 20
26.185408
  0
VERTEX
  8
1
  6
CONTINUOUS
 10
66.505049
 20
24.909182
  0
SEQEND
  8
1
  6
CONTINUOUS
  0
POLYLINE
  8
1
  6
CONTINUOUS
 66
     1
  0
VERTEX
  8
1
  6
CONTINUOUS
 10
74.925675
 20
24.764422
  0
VERTEX
  8
1
  6
CONTINUOUS
 10
67.155724
 20
25.453808
  0
SEQEND
  8
1
  6
CONTINUOUS
  0
POLYLINE
  8
1
  6
CONTINUOUS
 66
     1
  0
VERTEX
  8
1
  6
CONTINUOUS
 10
67.102701
 20
24.856156
  0
VERTEX
  8
1
  6
CONTINUOUS
 10
75.071869
 20
24.149094
  0
SEQEND
  8
1
  6
CONTINUOUS
  0
POLYLINE
  8
1
  6
CONTINUOUS
 66
     1
  0
VERTEX
  8
1
  6
CONTINUOUS
 10
75.469269
 20
30.891169
  0
VERTEX
  8
1
  6
CONTINUOUS
 10
74.925675
 20
24.764422
  0
SEQEND
  8
1
  6
CONTINUOUS
  0
POLYLINE
  8
1
  6
CONTINUOUS
 66
     1
  0
VERTEX
  8
1
  6
CONTINUOUS
 10
75.722547
 20
24.693748
  0
VERTEX
  8
1
  6
CONTINUOUS
 10
76.336841
 20
31.617336
  0
SEQEND
  8
1
  6
CONTINUOUS
  0
POLYLINE
  8
1
  6
CONTINUOUS
 66
     1
  0
VERTEX
  8
1
  6
CONTINUOUS
 10
75.782682
 20
34.423593
  0
VERTEX
  8
1
  6
CONTINUOUS
 10
75.610673
 20
32.484908
  0
SEQEND
  8
1
  6
CONTINUOUS
  0
POLYLINE
  8
1
  6
CONTINUOUS
 66
     1
  0
VERTEX
  8
1
  6
CONTINUOUS
 10
76.336841
 20
31.617336
  0
VERTEX
  8
1
  6
CONTINUOUS
 10
76.553039
 20
34.054067
  0
SEQEND
  8
1
  6
CONTINUOUS
  0
POLYLINE
  8
1
  6
CONTINUOUS
 66
     1
  0
VERTEX
  8
1
  6
CONTINUOUS
 10
76.176289
 20
38.859865
  0
VERTEX
  8
1
  6
CONTINUOUS
 10
75.782682
 20
34.423593
  0
SEQEND
  8
1
  6
CONTINUOUS
  0
POLYLINE
  8
1
  6
CONTINUOUS
 66
     1
  0
VERTEX
  8
1
  6
CONTINUOUS
 10
76.606065
 20
34.651719
  0
VERTEX
  8
1
  6
CONTINUOUS
 10
77.043861
 20
39.586033
  0
SEQEND
  8
1
  6
CONTINUOUS
  0
POLYLINE
  8
1
  6
CONTINUOUS
 66
     1
  0
VERTEX
  8
1
  6
CONTINUOUS
 10
76.794932
 20
45.832475
  0
VERTEX
  8
1
  6
CONTINUOUS
 10
76.317693
 20
40.453605
  0
SEQEND
  8
1
  6
CONTINUOUS
  0
POLYLINE
  8
1
  6
CONTINUOUS
 66
     1
  0
VERTEX
  8
1
  6
CONTINUOUS
 10
77.043861
 20
39.586033
  0
VERTEX
  8
1
  6
CONTINUOUS
 10
77.662504
 20
46.558642
  0
SEQEND
  8
1
  6
CONTINUOUS
  0
POLYLINE
  8
1
  6
CONTINUOUS
 66
     1
  0
VERTEX
  8
1
  6
CONTINUOUS
 10
76.991639
 20
48.049523
  0
VERTEX
  8
1
  6
CONTINUOUS
 10
76.936336
 20
47.426214
  0
SEQEND
  8
1
  6
CONTINUOUS
  0
POLYLINE
  8
1
  6
CONTINUOUS
 66
     1
  0
VERTEX
  8
1
  6
CONTINUOUS
 10
77.662504
 20
46.558642
  0
VERTEX
  8
1
  6
CONTINUOUS
 10
77.744320
 20
47.480780
  0
SEQEND
  8
1
  6
CONTINUOUS
  0
POLYLINE
  8
1
  6
CONTINUOUS
 66
     1
  0
VERTEX
  8
1
  6
CONTINUOUS
 10
77.325197
 20
51.808997
  0
VERTEX
  8
1
  6
CONTINUOUS
 10
76.991639
 20
48.049523
  0
SEQEND
  8
1
  6
CONTINUOUS
  0
POLYLINE
  8
1
  6
CONTINUOUS
 66
     1
  0
VERTEX
  8
1
  6
CONTINUOUS
 10
77.832698
 20
48.476867
  0
VERTEX
  8
1
  6
CONTINUOUS
 10
78.192769
 20
52.535164
  0
SEQEND
  8
1
  6
CONTINUOUS
  0
POLYLINE
  8
1
  6
CONTINUOUS
 66
     1
  0
VERTEX
  8
1
  6
CONTINUOUS
 10
77.855463
 20
57.785519
  0
VERTEX
  8
1
  6
CONTINUOUS
 10
77.466601
 20
53.402736
  0
SEQEND
  8
1
  6
CONTINUOUS
  0
POLYLINE
  8
1
  6
CONTINUOUS
 66
     1
  0
VERTEX
  8
1
  6
CONTINUOUS
 10
78.192769
 20
52.535164
  0
VERTEX
  8
1
  6
CONTINUOUS
 10
78.723034
 20
58.511687
  0
SEQEND
  8
1
  6
CONTINUOUS
  0
POLYLINE
  8
1
  6
CONTINUOUS
 66
     1
  0
VERTEX
  8
1
  6
CONTINUOUS
 10
78.240423
 20
62.124338
  0
VERTEX
  8
1
  6
CONTINUOUS
 10
77.996867
 20
59.379259
  0
SEQEND
  8
1
  6
CONTINUOUS
  0
POLYLINE
  8
1
  6
CONTINUOUS
 66
     1
  0
VERTEX
  8
1
  6
CONTINUOUS
 10
78.723034
 20
58.511687
  0
VERTEX
  8
1
  6
CONTINUOUS
 10
78.993104
 20
61.555594
  0
SEQEND
  8
1
  6
CONTINUOUS
  0
POLYLINE
  8
1
  6
CONTINUOUS
 66
     1
  0
VERTEX
  8
1
  6
CONTINUOUS
 10
78.385728
 20
63.762042
  0
VERTEX
  8
1
  6
CONTINUOUS
 10
78.240423
 20
62.124338
  0
SEQEND
  8
1
  6
CONTINUOUS
  0
POLYLINE
  8
1
  6
CONTINUOUS
 66
     1
  0
VERTEX
  8
1
  6
CONTINUOUS
 10
79.081482
 20
62.551681
  0
VERTEX
  8
1
  6
CONTINUOUS
 10
79.253299
 20
64.488209
  0
SEQEND
  8
1
  6
CONTINUOUS
  0
POLYLINE
  8
1
  6
CONTINUOUS
 66
     1
  0
VERTEX
  8
1
  6
CONTINUOUS
 10
79.108096
 20
71.903718
  0
VERTEX
  8
1
  6
CONTINUOUS
 10
78.527132
 20
65.355781
  0
SEQEND
  8
1
  6
CONTINUOUS
  0
POLYLINE
  8
1
  6
CONTINUOUS
 66
     1
  0
VERTEX
  8
1
  6
CONTINUOUS
 10
79.253299
 20
64.488209
  0
VERTEX
  8
1
  6
CONTINUOUS
 10
79.914586
 20
71.941447
  0
SEQEND
  8
1
  6
CONTINUOUS
  0
POLYLINE
  8
1
  6
CONTINUOUS
 66
     1
  0
VERTEX
  8
1
  6
CONTINUOUS
 10
74.925675
 20
24.764422
  0
VERTEX
  8
1
  6
CONTINUOUS
 10
75.124893
 20
24.746746
  0
SEQEND
  8
1
  6
CONTINUOUS
  0
POLYLINE
  8
1
  6
CONTINUOUS
 66
     1
  0
VERTEX
  8
1
  6
CONTINUOUS
 10
57.803756
 20
71.718777
  0
VERTEX
  8
1
  6
CONTINUOUS
 10
52.843763
 20
71.665727
  0
SEQEND
  8
1
  6
CONTINUOUS
  0
POLYLINE
  8
1
  6
CONTINUOUS
 66
     1
  0
VERTEX
  8
1
  6
CONTINUOUS
 10
53.393369
 20
71.071571
  0
VERTEX
  8
1
  6
CONTINUOUS
 10
57.810173
 20
71.118811
  0
SEQEND
  8
1
  6
CONTINUOUS
  0
POLYLINE
  8
1
  6
CONTINUOUS
 66
     1
  0
VERTEX
  8
1
  6
CONTINUOUS
 10
65.129553
 20
71.988897
  0
VERTEX
  8
1
  6
CONTINUOUS
 10
57.795914
 20
71.718591
  0
SEQEND
  8
1
  6
CONTINUOUS
  0
POLYLINE
  8
1
  6
CONTINUOUS
 66
     1
  0
VERTEX
  8
1
  6
CONTINUOUS
 10
57.818015
 20
71.118998
  0
VERTEX
  8
1
  6
CONTINUOUS
 10
65.151644
 20
71.389304
  0
SEQEND
  8
1
  6
CONTINUOUS
  0
POLYLINE
  8
1
  6
CONTINUOUS
 66
     1
  0
VERTEX
  8
1
  6
CONTINUOUS
 10
79.293148
 20
72.510946
  0
VERTEX
  8
1
  6
CONTINUOUS
 10
65.729146
 20
72.010998
  0
SEQEND
  8
1
  6
CONTINUOUS
  0
POLYLINE
  8
1
  6
CONTINUOUS
 66
     1
  0
VERTEX
  8
1
  6
CONTINUOUS
 10
65.751236
 20
71.411404
  0
VERTEX
  8
1
  6
CONTINUOUS
 10
79.108096
 20
71.903718
  0
SEQEND
  8
1
  6
CONTINUOUS
  0
POLYLINE
  8
1
  6
CONTINUOUS
 66
     1
  0
VERTEX
  8
1
  6
CONTINUOUS
 10
57.818015
 20
71.118998
  0
VERTEX
  8
1
  6
CONTINUOUS
 10
57.810173
 20
71.118811
  0
SEQEND
  8
1
  6
CONTINUOUS
  0
POLYLINE
  8
1
  6
CONTINUOUS
 66
     1
  0
VERTEX
  8
1
  6
CONTINUOUS
 10
57.795914
 20
71.718591
  0
VERTEX
  8
1
  6
CONTINUOUS
 10
57.803756
 20
71.718777
  0
SEQEND
  8
1
  6
CONTINUOUS
  0
POLYLINE
  8
1
  6
CONTINUOUS
 66
     1
  0
VERTEX
  8
1
  6
CONTINUOUS
 10
51.842034
 20
26.210154
  0
VERTEX
  8
1
  6
CONTINUOUS
 10
51.233553
 20
19.351979
  0
SEQEND
  8
1
  6
CONTINUOUS
  0
POLYLINE
  8
1
  6
CONTINUOUS
 66
     1
  0
VERTEX
  8
1
  6
CONTINUOUS
 10
51.514604
 20
19.351430
  0
VERTEX
  8
1
  6
CONTINUOUS
 10
52.120939
 20
26.185408
  0
SEQEND
  8
1
  6
CONTINUOUS
  0
POLYLINE
  8
1
  6
CONTINUOUS
 66
     1
  0
VERTEX
  8
1
  6
CONTINUOUS
 10
51.514604
 20
19.351430
  0
VERTEX
  8
1
  6
CONTINUOUS
 10
51.233553
 20
19.351979
  0
SEQEND
  8
1
  6
CONTINUOUS
  0
POLYLINE
  8
1
  6
ESTILO_TQS_0001
 66
     1
  0
VERTEX
  8
1
  6
ESTILO_TQS_0001
 10
30.898038
 20
30.495608
  0
VERTEX
  8
1
  6
ESTILO_TQS_0001
 10
29.585333
 20
30.495608
  0
SEQEND
  8
1
  6
ESTILO_TQS_0001
  0
POLYLINE
  8
1
  6
ESTILO_TQS_0001
 66
     1
  0
VERTEX
  8
1
  6
ESTILO_TQS_0001
 10
29.603184
 20
30.095608
  0
VERTEX
  8
1
  6
ESTILO_TQS_0001
 10
30.915123
 20
30.095608
  0
SEQEND
  8
1
  6
ESTILO_TQS_0001
  0
POLYLINE
  8
1
  6
CONTINUOUS
 66
     1
  0
VERTEX
  8
1
  6
CONTINUOUS
 10
29.603184
 20
30.095608
  0
VERTEX
  8
1
  6
CONTINUOUS
 10
29.585333
 20
30.495608
  0
SEQEND
  8
1
  6
CONTINUOUS
  0
POLYLINE
  8
1
  6
CONTINUOUS
 66
     1
  0
VERTEX
  8
1
  6
CONTINUOUS
 10
30.915123
 20
30.095608
  0
VERTEX
  8
1
  6
CONTINUOUS
 10
30.898038
 20
30.495608
  0
SEQEND
  8
1
  6
CONTINUOUS
  0
POLYLINE
  8
1
  6
CONTINUOUS
 66
     1
  0
VERTEX
  8
1
  6
CONTINUOUS
 10
31.541886
 20
19.390471
  0
VERTEX
  8
1
  6
CONTINUOUS
 10
31.220480
 20
15.593668
  0
SEQEND
  8
1
  6
CONTINUOUS
  0
POLYLINE
  8
1
  6
CONTINUOUS
 66
     1
  0
VERTEX
  8
1
  6
CONTINUOUS
 10
31.818299
 20
15.542547
  0
VERTEX
  8
1
  6
CONTINUOUS
 10
32.093150
 20
18.789392
  0
SEQEND
  8
1
  6
CONTINUOUS
  0
POLYLINE
  8
1
  6
CONTINUOUS
 66
     1
  0
VERTEX
  8
1
  6
CONTINUOUS
 10
47.580129
 20
25.917787
  0
VERTEX
  8
1
  6
CONTINUOUS
 10
46.998257
 20
19.360258
  0
SEQEND
  8
1
  6
CONTINUOUS
  0
POLYLINE
  8
1
  6
CONTINUOUS
 66
     1
  0
VERTEX
  8
1
  6
CONTINUOUS
 10
47.600510
 20
19.359081
  0
VERTEX
  8
1
  6
CONTINUOUS
 10
48.197825
 20
26.090648
  0
SEQEND
  8
1
  6
CONTINUOUS
  0
POLYLINE
  8
1
  6
CONTINUOUS
 66
     1
  0
VERTEX
  8
1
  6
CONTINUOUS
 10
47.955547
 20
30.148635
  0
VERTEX
  8
1
  6
CONTINUOUS
 10
47.615617
 20
26.317718
  0
SEQEND
  8
1
  6
CONTINUOUS
  0
POLYLINE
  8
1
  6
CONTINUOUS
 66
     1
  0
VERTEX
  8
1
  6
CONTINUOUS
 10
48.197825
 20
26.090648
  0
VERTEX
  8
1
  6
CONTINUOUS
 10
48.553200
 20
30.095611
  0
SEQEND
  8
1
  6
CONTINUOUS
  0
POLYLINE
  8
1
  6
CONTINUOUS
 66
     1
  0
VERTEX
  8
1
  6
CONTINUOUS
 10
49.491878
 20
47.462626
  0
VERTEX
  8
1
  6
CONTINUOUS
 10
48.043933
 20
31.144721
  0
SEQEND
  8
1
  6
CONTINUOUS
  0
POLYLINE
  8
1
  6
CONTINUOUS
 66
     1
  0
VERTEX
  8
1
  6
CONTINUOUS
 10
48.641586
 20
31.091698
  0
VERTEX
  8
1
  6
CONTINUOUS
 10
50.089531
 20
47.409602
  0
SEQEND
  8
1
  6
CONTINUOUS
  0
POLYLINE
  8
1
  6
CONTINUOUS
 66
     1
  0
VERTEX
  8
1
  6
CONTINUOUS
 10
50.853906
 20
62.815209
  0
VERTEX
  8
1
  6
CONTINUOUS
 10
49.580256
 20
48.458713
  0
SEQEND
  8
1
  6
CONTINUOUS
  0
POLYLINE
  8
1
  6
CONTINUOUS
 66
     1
  0
VERTEX
  8
1
  6
CONTINUOUS
 10
50.177908
 20
48.405689
  0
VERTEX
  8
1
  6
CONTINUOUS
 10
51.451558
 20
62.762185
  0
SEQEND
  8
1
  6
CONTINUOUS
  0
POLYLINE
  8
1
  6
CONTINUOUS
 66
     1
  0
VERTEX
  8
1
  6
CONTINUOUS
 10
51.583367
 20
71.037645
  0
VERTEX
  8
1
  6
CONTINUOUS
 10
50.942275
 20
63.811297
  0
SEQEND
  8
1
  6
CONTINUOUS
  0
POLYLINE
  8
1
  6
CONTINUOUS
 66
     1
  0
VERTEX
  8
1
  6
CONTINUOUS
 10
51.539927
 20
63.758273
  0
VERTEX
  8
1
  6
CONTINUOUS
 10
52.182830
 20
71.005034
  0
SEQEND
  8
1
  6
CONTINUOUS
  0
POLYLINE
  8
1
  6
CONTINUOUS
 66
     1
  0
VERTEX
  8
1
  6
CONTINUOUS
 10
47.600510
 20
19.359081
  0
VERTEX
  8
1
  6
CONTINUOUS
 10
46.998257
 20
19.360258
  0
SEQEND
  8
1
  6
CONTINUOUS
  0
POLYLINE
  8
1
  6
CONTINUOUS
 66
     1
  0
VERTEX
  8
1
  6
CONTINUOUS
 10
78.527132
 20
65.355781
  0
VERTEX
  8
1
  6
CONTINUOUS
 10
53.085877
 20
67.613062
  0
SEQEND
  8
1
  6
CONTINUOUS
  0
POLYLINE
  8
1
  6
CONTINUOUS
 66
     1
  0
VERTEX
  8
1
  6
CONTINUOUS
 10
52.944481
 20
66.019322
  0
VERTEX
  8
1
  6
CONTINUOUS
 10
78.385728
 20
63.762042
  0
SEQEND
  8
1
  6
CONTINUOUS
  0
POLYLINE
  8
1
  6
CONTINUOUS
 66
     1
  0
VERTEX
  8
1
  6
CONTINUOUS
 10
52.944481
 20
66.019322
  0
VERTEX
  8
1
  6
CONTINUOUS
 10
53.085877
 20
67.613062
  0
SEQEND
  8
1
  6
CONTINUOUS
  0
POLYLINE
  8
1
  6
CONTINUOUS
 66
     1
  0
VERTEX
  8
1
  6
CONTINUOUS
 10
78.385728
 20
63.762042
  0
VERTEX
  8
1
  6
CONTINUOUS
 10
78.527132
 20
65.355781
  0
SEQEND
  8
1
  6
CONTINUOUS
  0
POLYLINE
  8
1
  6
CONTINUOUS
 66
     1
  0
VERTEX
  8
1
  6
CONTINUOUS
 10
77.996867
 20
59.379259
  0
VERTEX
  8
1
  6
CONTINUOUS
 10
52.555642
 20
61.636537
  0
SEQEND
  8
1
  6
CONTINUOUS
  0
POLYLINE
  8
1
  6
CONTINUOUS
 66
     1
  0
VERTEX
  8
1
  6
CONTINUOUS
 10
52.414246
 20
60.042797
  0
VERTEX
  8
1
  6
CONTINUOUS
 10
77.855463
 20
57.785519
  0
SEQEND
  8
1
  6
CONTINUOUS
  0
POLYLINE
  8
1
  6
CONTINUOUS
 66
     1
  0
VERTEX
  8
1
  6
CONTINUOUS
 10
52.414246
 20
60.042797
  0
VERTEX
  8
1
  6
CONTINUOUS
 10
52.555642
 20
61.636537
  0
SEQEND
  8
1
  6
CONTINUOUS
  0
POLYLINE
  8
1
  6
CONTINUOUS
 66
     1
  0
VERTEX
  8
1
  6
CONTINUOUS
 10
77.855463
 20
57.785519
  0
VERTEX
  8
1
  6
CONTINUOUS
 10
77.996867
 20
59.379259
  0
SEQEND
  8
1
  6
CONTINUOUS
  0
POLYLINE
  8
1
  6
CONTINUOUS
 66
     1
  0
VERTEX
  8
1
  6
CONTINUOUS
 10
77.466601
 20
53.402736
  0
VERTEX
  8
1
  6
CONTINUOUS
 10
52.025407
 20
55.660012
  0
SEQEND
  8
1
  6
CONTINUOUS
  0
POLYLINE
  8
1
  6
CONTINUOUS
 66
     1
  0
VERTEX
  8
1
  6
CONTINUOUS
 10
51.884011
 20
54.066272
  0
VERTEX
  8
1
  6
CONTINUOUS
 10
77.325197
 20
51.808997
  0
SEQEND
  8
1
  6
CONTINUOUS
  0
POLYLINE
  8
1
  6
CONTINUOUS
 66
     1
  0
VERTEX
  8
1
  6
CONTINUOUS
 10
51.884011
 20
54.066272
  0
VERTEX
  8
1
  6
CONTINUOUS
 10
52.025407
 20
55.660012
  0
SEQEND
  8
1
  6
CONTINUOUS
  0
POLYLINE
  8
1
  6
CONTINUOUS
 66
     1
  0
VERTEX
  8
1
  6
CONTINUOUS
 10
77.325197
 20
51.808997
  0
VERTEX
  8
1
  6
CONTINUOUS
 10
77.466601
 20
53.402736
  0
SEQEND
  8
1
  6
CONTINUOUS
  0
POLYLINE
  8
1
  6
CONTINUOUS
 66
     1
  0
VERTEX
  8
1
  6
CONTINUOUS
 10
76.936336
 20
47.426214
  0
VERTEX
  8
1
  6
CONTINUOUS
 10
51.495172
 20
49.683487
  0
SEQEND
  8
1
  6
CONTINUOUS
  0
POLYLINE
  8
1
  6
CONTINUOUS
 66
     1
  0
VERTEX
  8
1
  6
CONTINUOUS
 10
51.353776
 20
48.089747
  0
VERTEX
  8
1
  6
CONTINUOUS
 10
76.794932
 20
45.832475
  0
SEQEND
  8
1
  6
CONTINUOUS
  0
POLYLINE
  8
1
  6
CONTINUOUS
 66
     1
  0
VERTEX
  8
1
  6
CONTINUOUS
 10
51.353776
 20
48.089747
  0
VERTEX
  8
1
  6
CONTINUOUS
 10
51.495172
 20
49.683487
  0
SEQEND
  8
1
  6
CONTINUOUS
  0
POLYLINE
  8
1
  6
CONTINUOUS
 66
     1
  0
VERTEX
  8
1
  6
CONTINUOUS
 10
76.794932
 20
45.832475
  0
VERTEX
  8
1
  6
CONTINUOUS
 10
76.936336
 20
47.426214
  0
SEQEND
  8
1
  6
CONTINUOUS
  0
POLYLINE
  8
1
  6
CONTINUOUS
 66
     1
  0
VERTEX
  8
1
  6
CONTINUOUS
 10
76.317693
 20
40.453605
  0
VERTEX
  8
1
  6
CONTINUOUS
 10
50.876564
 20
42.710875
  0
SEQEND
  8
1
  6
CONTINUOUS
  0
POLYLINE
  8
1
  6
CONTINUOUS
 66
     1
  0
VERTEX
  8
1
  6
CONTINUOUS
 10
50.735168
 20
41.117135
  0
VERTEX
  8
1
  6
CONTINUOUS
 10
76.176289
 20
38.859865
  0
SEQEND
  8
1
  6
CONTINUOUS
  0
POLYLINE
  8
1
  6
CONTINUOUS
 66
     1
  0
VERTEX
  8
1
  6
CONTINUOUS
 10
50.735168
 20
41.117135
  0
VERTEX
  8
1
  6
CONTINUOUS
 10
50.876564
 20
42.710875
  0
SEQEND
  8
1
  6
CONTINUOUS
  0
POLYLINE
  8
1
  6
CONTINUOUS
 66
     1
  0
VERTEX
  8
1
  6
CONTINUOUS
 10
76.176289
 20
38.859865
  0
VERTEX
  8
1
  6
CONTINUOUS
 10
76.317693
 20
40.453605
  0
SEQEND
  8
1
  6
CONTINUOUS
  0
POLYLINE
  8
1
  6
CONTINUOUS
 66
     1
  0
VERTEX
  8
1
  6
CONTINUOUS
 10
75.610673
 20
32.484908
  0
VERTEX
  8
1
  6
CONTINUOUS
 10
50.169584
 20
34.742175
  0
SEQEND
  8
1
  6
CONTINUOUS
  0
POLYLINE
  8
1
  6
CONTINUOUS
 66
     1
  0
VERTEX
  8
1
  6
CONTINUOUS
 10
50.028188
 20
33.148435
  0
VERTEX
  8
1
  6
CONTINUOUS
 10
75.469269
 20
30.891169
  0
SEQEND
  8
1
  6
CONTINUOUS
  0
POLYLINE
  8
1
  6
CONTINUOUS
 66
     1
  0
VERTEX
  8
1
  6
CONTINUOUS
 10
50.028188
 20
33.148435
  0
VERTEX
  8
1
  6
CONTINUOUS
 10
50.169584
 20
34.742175
  0
SEQEND
  8
1
  6
CONTINUOUS
  0
POLYLINE
  8
1
  6
CONTINUOUS
 66
     1
  0
VERTEX
  8
1
  6
CONTINUOUS
 10
75.469269
 20
30.891169
  0
VERTEX
  8
1
  6
CONTINUOUS
 10
75.610673
 20
32.484908
  0
SEQEND
  8
1
  6
CONTINUOUS
  0
LINE
  8
1
  6
CONTINUOUS
 10
48.553239
 20
30.095608
 11
49.154990
 21
30.095662
  0
LINE
  8
1
  6
CONTINUOUS
 10
29.497766
 20
32.393787
 11
30.814546
 21
32.450031
  0
LINE
  8
1
  6
CONTINUOUS
 10
12.711930
 20
25.295612
 11
12.506925
 21
30.095608
  0
LINE
  8
1
  6
CONTINUOUS
 10
21.599403
 20
25.295612
 11
21.599403
 21
27.095608
  0
LINE
  8
1
  6
CONTINUOUS
 10
21.599403
 20
27.095608
 11
29.336722
 21
27.095608
  0
LINE
  8
1
  6
CONTINUOUS
 10
21.599403
 20
20.595608
 11
24.309835
 21
20.595608
  0
LINE
  8
1
  6
CONTINUOUS
 10
27.422828
 20
68.337291
 11
26.923283
 21
68.315970
  0
LINE
  8
1
  6
CONTINUOUS
 10
26.923283
 20
68.315970
 11
26.899210
 21
68.879979
  0
LINE
  8
1
  6
CONTINUOUS
 10
74.978704
 20
25.362074
 11
74.480660
 21
25.406264
  0
LINE
  8
1
  6
CONTINUOUS
 10
74.480660
 20
25.406264
 11
74.427632
 21
24.808611
  0
LINE
  8
1
  6
CONTINUOUS
 10
12.696286
 20
22.945612
 11
12.696286
 21
22.945612
  0
POLYLINE
  8
1
  6
CONTINUOUS
 66
     1
  0
VERTEX
  8
1
  6
CONTINUOUS
 10
12.496286
 20
20.595612
  0
VERTEX
  8
1
  6
CONTINUOUS
 10
12.896286
 20
20.595612
  0
VERTEX
  8
1
  6
CONTINUOUS
 10
12.896286
 20
25.295612
  0
VERTEX
  8
1
  6
CONTINUOUS
 10
12.496286
 20
25.295612
  0
VERTEX
  8
1
  6
CONTINUOUS
 10
12.496286
 20
20.595612
  0
SEQEND
  8
1
  6
CONTINUOUS
  0
LINE
  8
1
  6
CONTINUOUS
 10
21.399403
 20
22.945612
 11
21.399403
 21
22.945612
  0
POLYLINE
  8
1
  6
CONTINUOUS
 66
     1
  0
VERTEX
  8
1
  6
CONTINUOUS
 10
21.199403
 20
20.595612
  0
VERTEX
  8
1
  6
CONTINUOUS
 10
21.599403
 20
20.595612
  0
VERTEX
  8
1
  6
CONTINUOUS
 10
21.599403
 20
25.295612
  0
VERTEX
  8
1
  6
CONTINUOUS
 10
21.199403
 20
25.295612
  0
VERTEX
  8
1
  6
CONTINUOUS
 10
21.199403
 20
20.595612
  0
SEQEND
  8
1
  6
CONTINUOUS
  0
LINE
  8
1
  6
CONTINUOUS
 10
11.166749
 20
67.266856
 11
11.166749
 21
67.266856
  0
POLYLINE
  8
1
  6
CONTINUOUS
 66
     1
  0
VERTEX
  8
1
  6
CONTINUOUS
 10
11.427191
 20
67.027754
  0
VERTEX
  8
1
  6
CONTINUOUS
 10
11.405852
 20
67.527298
  0
VERTEX
  8
1
  6
CONTINUOUS
 10
10.906307
 20
67.505959
  0
VERTEX
  8
1
  6
CONTINUOUS
 10
10.927646
 20
67.006415
  0
VERTEX
  8
1
  6
CONTINUOUS
 10
11.427191
 20
67.027754
  0
SEQEND
  8
1
  6
CONTINUOUS
  0
LINE
  8
1
  6
CONTINUOUS
 10
27.635311
 20
69.206195
 11
27.635311
 21
69.206195
  0
POLYLINE
  8
1
  6
CONTINUOUS
 66
     1
  0
VERTEX
  8
1
  6
CONTINUOUS
 10
27.895753
 20
68.967093
  0
VERTEX
  8
1
  6
CONTINUOUS
 10
27.874414
 20
69.466637
  0
VERTEX
  8
1
  6
CONTINUOUS
 10
27.374869
 20
69.445298
  0
VERTEX
  8
1
  6
CONTINUOUS
 10
27.396208
 20
68.945754
  0
VERTEX
  8
1
  6
CONTINUOUS
 10
27.895753
 20
68.967093
  0
SEQEND
  8
1
  6
CONTINUOUS
  0
LINE
  8
1
  6
CONTINUOUS
 10
29.528650
 20
26.160104
 11
29.528650
 21
26.160104
  0
POLYLINE
  8
1
  6
CONTINUOUS
 66
     1
  0
VERTEX
  8
1
  6
CONTINUOUS
 10
29.786957
 20
25.970955
  0
VERTEX
  8
1
  6
CONTINUOUS
 10
29.769886
 20
26.370591
  0
VERTEX
  8
1
  6
CONTINUOUS
 10
29.270342
 20
26.349252
  0
VERTEX
  8
1
  6
CONTINUOUS
 10
29.287413
 20
25.949617
  0
VERTEX
  8
1
  6
CONTINUOUS
 10
29.786957
 20
25.970955
  0
SEQEND
  8
1
  6
CONTINUOUS
  0
LINE
  8
1
  6
CONTINUOUS
 10
29.561926
 20
68.806451
 11
29.561926
 21
68.806451
  0
POLYLINE
  8
1
  6
CONTINUOUS
 66
     1
  0
VERTEX
  8
1
  6
CONTINUOUS
 10
29.874456
 20
68.519527
  0
VERTEX
  8
1
  6
CONTINUOUS
 10
29.848849
 20
69.118981
  0
VERTEX
  8
1
  6
CONTINUOUS
 10
29.249396
 20
69.093374
  0
VERTEX
  8
1
  6
CONTINUOUS
 10
29.275003
 20
68.493921
  0
VERTEX
  8
1
  6
CONTINUOUS
 10
29.874456
 20
68.519527
  0
SEQEND
  8
1
  6
CONTINUOUS
  0
LINE
  8
1
  6
CONTINUOUS
 10
30.424675
 20
48.607872
 11
30.424675
 21
48.607872
  0
POLYLINE
  8
1
  6
CONTINUOUS
 66
     1
  0
VERTEX
  8
1
  6
CONTINUOUS
 10
30.745741
 20
48.121131
  0
VERTEX
  8
1
  6
CONTINUOUS
 10
30.703063
 20
49.120220
  0
VERTEX
  8
1
  6
CONTINUOUS
 10
30.103609
 20
49.094613
  0
VERTEX
  8
1
  6
CONTINUOUS
 10
30.146287
 20
48.095524
  0
VERTEX
  8
1
  6
CONTINUOUS
 10
30.745741
 20
48.121131
  0
SEQEND
  8
1
  6
CONTINUOUS
  0
LINE
  8
1
  6
CONTINUOUS
 10
31.088664
 20
33.062286
 11
31.088664
 21
33.062286
  0
POLYLINE
  8
1
  6
CONTINUOUS
 66
     1
  0
VERTEX
  8
1
  6
CONTINUOUS
 10
31.409730
 20
32.575545
  0
VERTEX
  8
1
  6
CONTINUOUS
 10
31.367052
 20
33.574634
  0
VERTEX
  8
1
  6
CONTINUOUS
 10
30.767599
 20
33.549027
  0
VERTEX
  8
1
  6
CONTINUOUS
 10
30.810277
 20
32.549939
  0
VERTEX
  8
1
  6
CONTINUOUS
 10
31.409730
 20
32.575545
  0
SEQEND
  8
1
  6
CONTINUOUS
  0
LINE
  8
1
  6
CONTINUOUS
 10
49.834898
 20
47.934157
 11
49.834898
 21
47.934157
  0
POLYLINE
  8
1
  6
CONTINUOUS
 66
     1
  0
VERTEX
  8
1
  6
CONTINUOUS
 10
50.089538
 20
47.409602
  0
VERTEX
  8
1
  6
CONTINUOUS
 10
50.177910
 20
48.405689
  0
VERTEX
  8
1
  6
CONTINUOUS
 10
49.580258
 20
48.458713
  0
VERTEX
  8
1
  6
CONTINUOUS
 10
49.491885
 20
47.462625
  0
VERTEX
  8
1
  6
CONTINUOUS
 10
50.089538
 20
47.409602
  0
SEQEND
  8
1
  6
CONTINUOUS
  0
LINE
  8
1
  6
CONTINUOUS
 10
11.984503
 20
48.120541
 11
11.984503
 21
48.120541
  0
POLYLINE
  8
1
  6
CONTINUOUS
 66
     1
  0
VERTEX
  8
1
  6
CONTINUOUS
 10
12.255614
 20
47.631666
  0
VERTEX
  8
1
  6
CONTINUOUS
 10
12.212936
 20
48.630754
  0
VERTEX
  8
1
  6
CONTINUOUS
 10
11.713392
 20
48.609416
  0
VERTEX
  8
1
  6
CONTINUOUS
 10
11.756069
 20
47.610327
  0
VERTEX
  8
1
  6
CONTINUOUS
 10
12.255614
 20
47.631666
  0
SEQEND
  8
1
  6
CONTINUOUS
  0
LINE
  8
1
  6
CONTINUOUS
 10
28.553897
 20
48.628050
 11
28.553897
 21
48.628050
  0
POLYLINE
  8
1
  6
CONTINUOUS
 66
     1
  0
VERTEX
  8
1
  6
CONTINUOUS
 10
28.825008
 20
48.139175
  0
VERTEX
  8
1
  6
CONTINUOUS
 10
28.782330
 20
49.138264
  0
VERTEX
  8
1
  6
CONTINUOUS
 10
28.282786
 20
49.116925
  0
VERTEX
  8
1
  6
CONTINUOUS
 10
28.325464
 20
48.117836
  0
VERTEX
  8
1
  6
CONTINUOUS
 10
28.825008
 20
48.139175
  0
SEQEND
  8
1
  6
CONTINUOUS
  0
LINE
  8
1
  6
CONTINUOUS
 10
51.910515
 20
71.330372
 11
51.910515
 21
71.330372
  0
POLYLINE
  8
1
  6
CONTINUOUS
 66
     1
  0
VERTEX
  8
1
  6
CONTINUOUS
 10
52.182829
 20
71.005034
  0
VERTEX
  8
1
  6
CONTINUOUS
 10
52.235853
 20
71.602686
  0
VERTEX
  8
1
  6
CONTINUOUS
 10
51.638200
 20
71.655710
  0
VERTEX
  8
1
  6
CONTINUOUS
 10
51.585177
 20
71.058058
  0
VERTEX
  8
1
  6
CONTINUOUS
 10
52.182829
 20
71.005034
  0
SEQEND
  8
1
  6
CONTINUOUS
  0
LINE
  8
1
  6
CONTINUOUS
 10
53.116040
 20
71.340392
 11
53.116040
 21
71.340392
  0
POLYLINE
  8
1
  6
CONTINUOUS
 66
     1
  0
VERTEX
  8
1
  6
CONTINUOUS
 10
53.388354
 20
71.015054
  0
VERTEX
  8
1
  6
CONTINUOUS
 10
53.441378
 20
71.612707
  0
VERTEX
  8
1
  6
CONTINUOUS
 10
52.843726
 20
71.665730
  0
VERTEX
  8
1
  6
CONTINUOUS
 10
52.790702
 20
71.068078
  0
VERTEX
  8
1
  6
CONTINUOUS
 10
53.388354
 20
71.015054
  0
SEQEND
  8
1
  6
CONTINUOUS
  0
LINE
  8
1
  6
CONTINUOUS
 10
79.603700
 20
72.230191
 11
79.603700
 21
72.230191
  0
POLYLINE
  8
1
  6
CONTINUOUS
 66
     1
  0
VERTEX
  8
1
  6
CONTINUOUS
 10
79.314954
 20
71.919344
  0
VERTEX
  8
1
  6
CONTINUOUS
 10
79.914547
 20
71.941446
  0
VERTEX
  8
1
  6
CONTINUOUS
 10
79.892446
 20
72.541039
  0
VERTEX
  8
1
  6
CONTINUOUS
 10
79.292853
 20
72.518937
  0
VERTEX
  8
1
  6
CONTINUOUS
 10
79.314954
 20
71.919344
  0
SEQEND
  8
1
  6
CONTINUOUS
  0
LINE
  8
1
  6
CONTINUOUS
 10
77.489601
 20
48.005342
 11
77.489601
 21
48.005342
  0
POLYLINE
  8
1
  6
CONTINUOUS
 66
     1
  0
VERTEX
  8
1
  6
CONTINUOUS
 10
77.744241
 20
47.480787
  0
VERTEX
  8
1
  6
CONTINUOUS
 10
77.832614
 20
48.476874
  0
VERTEX
  8
1
  6
CONTINUOUS
 10
77.234961
 20
48.529898
  0
VERTEX
  8
1
  6
CONTINUOUS
 10
77.146588
 20
47.533810
  0
VERTEX
  8
1
  6
CONTINUOUS
 10
77.744241
 20
47.480787
  0
SEQEND
  8
1
  6
CONTINUOUS
  0
LINE
  8
1
  6
CONTINUOUS
 10
52.094327
 20
59.822092
 11
52.094327
 21
59.822092
  0
POLYLINE
  8
1
  6
CONTINUOUS
 66
     1
  0
VERTEX
  8
1
  6
CONTINUOUS
 10
52.348967
 20
59.297536
  0
VERTEX
  8
1
  6
CONTINUOUS
 10
52.437340
 20
60.293624
  0
VERTEX
  8
1
  6
CONTINUOUS
 10
51.839687
 20
60.346647
  0
VERTEX
  8
1
  6
CONTINUOUS
 10
51.751315
 20
59.350560
  0
VERTEX
  8
1
  6
CONTINUOUS
 10
52.348967
 20
59.297536
  0
SEQEND
  8
1
  6
CONTINUOUS
  0
LINE
  8
1
  6
CONTINUOUS
 10
75.397209
 20
24.421433
 11
75.397209
 21
24.421433
  0
POLYLINE
  8
1
  6
CONTINUOUS
 66
     1
  0
VERTEX
  8
1
  6
CONTINUOUS
 10
75.669524
 20
24.096095
  0
VERTEX
  8
1
  6
CONTINUOUS
 10
75.722547
 20
24.693748
  0
VERTEX
  8
1
  6
CONTINUOUS
 10
75.124895
 20
24.746772
  0
VERTEX
  8
1
  6
CONTINUOUS
 10
75.071871
 20
24.149119
  0
VERTEX
  8
1
  6
CONTINUOUS
 10
75.669524
 20
24.096095
  0
SEQEND
  8
1
  6
CONTINUOUS
  0
LINE
  8
1
  6
CONTINUOUS
 10
24.509797
 20
26.162914
 11
24.509797
 21
26.162914
  0
POLYLINE
  8
1
  6
CONTINUOUS
 66
     1
  0
VERTEX
  8
1
  6
CONTINUOUS
 10
24.309406
 20
25.963306
  0
VERTEX
  8
1
  6
CONTINUOUS
 10
24.709406
 20
25.962524
  0
VERTEX
  8
1
  6
CONTINUOUS
 10
24.710188
 20
26.362523
  0
VERTEX
  8
1
  6
CONTINUOUS
 10
24.310188
 20
26.363305
  0
VERTEX
  8
1
  6
CONTINUOUS
 10
24.309406
 20
25.963306
  0
SEQEND
  8
1
  6
CONTINUOUS
  0
LINE
  8
1
  6
CONTINUOUS
 10
35.840817
 20
26.140750
 11
35.840817
 21
26.140750
  0
POLYLINE
  8
1
  6
CONTINUOUS
 66
     1
  0
VERTEX
  8
1
  6
CONTINUOUS
 10
35.640426
 20
25.941141
  0
VERTEX
  8
1
  6
CONTINUOUS
 10
36.040425
 20
25.940359
  0
VERTEX
  8
1
  6
CONTINUOUS
 10
36.041207
 20
26.340359
  0
VERTEX
  8
1
  6
CONTINUOUS
 10
35.641208
 20
26.341141
  0
VERTEX
  8
1
  6
CONTINUOUS
 10
35.640426
 20
25.941141
  0
SEQEND
  8
1
  6
CONTINUOUS
  0
LINE
  8
1
  6
CONTINUOUS
 10
41.828021
 20
26.129039
 11
41.828021
 21
26.129039
  0
POLYLINE
  8
1
  6
CONTINUOUS
 66
     1
  0
VERTEX
  8
1
  6
CONTINUOUS
 10
41.627630
 20
25.929430
  0
VERTEX
  8
1
  6
CONTINUOUS
 10
42.027630
 20
25.928648
  0
VERTEX
  8
1
  6
CONTINUOUS
 10
42.028411
 20
26.328647
  0
VERTEX
  8
1
  6
CONTINUOUS
 10
41.628412
 20
26.329429
  0
VERTEX
  8
1
  6
CONTINUOUS
 10
41.627630
 20
25.929430
  0
SEQEND
  8
1
  6
CONTINUOUS
  0
LINE
  8
1
  6
CONTINUOUS
 10
50.043277
 20
36.712962
 11
50.043277
 21
36.712962
  0
POLYLINE
  8
1
  6
CONTINUOUS
 66
     1
  0
VERTEX
  8
1
  6
CONTINUOUS
 10
50.315592
 20
36.387624
  0
VERTEX
  8
1
  6
CONTINUOUS
 10
50.368615
 20
36.985277
  0
VERTEX
  8
1
  6
CONTINUOUS
 10
49.770963
 20
37.038300
  0
VERTEX
  8
1
  6
CONTINUOUS
 10
49.717939
 20
36.440648
  0
VERTEX
  8
1
  6
CONTINUOUS
 10
50.315592
 20
36.387624
  0
SEQEND
  8
1
  6
CONTINUOUS
  0
LINE
  8
1
  6
CONTINUOUS
 10
12.748167
 20
30.306095
 11
12.748167
 21
30.306095
  0
POLYLINE
  8
1
  6
CONTINUOUS
 66
     1
  0
VERTEX
  8
1
  6
CONTINUOUS
 10
13.006475
 20
30.116947
  0
VERTEX
  8
1
  6
CONTINUOUS
 10
12.989404
 20
30.516583
  0
VERTEX
  8
1
  6
CONTINUOUS
 10
12.489860
 20
30.495244
  0
VERTEX
  8
1
  6
CONTINUOUS
 10
12.506931
 20
30.095608
  0
VERTEX
  8
1
  6
CONTINUOUS
 10
13.006475
 20
30.116947
  0
SEQEND
  8
1
  6
CONTINUOUS
  0
LINE
  8
1
  6
CONTINUOUS
 10
11.579041
 20
57.611884
 11
11.579041
 21
57.611884
  0
POLYLINE
  8
1
  6
CONTINUOUS
 66
     1
  0
VERTEX
  8
1
  6
CONTINUOUS
 10
11.841616
 20
57.322827
  0
VERTEX
  8
1
  6
CONTINUOUS
 10
11.816010
 20
57.922280
  0
VERTEX
  8
1
  6
CONTINUOUS
 10
11.316465
 20
57.900941
  0
VERTEX
  8
1
  6
CONTINUOUS
 10
11.342072
 20
57.301488
  0
VERTEX
  8
1
  6
CONTINUOUS
 10
11.841616
 20
57.322827
  0
SEQEND
  8
1
  6
CONTINUOUS
  0
LINE
  8
1
  6
CONTINUOUS
 10
21.623208
 20
68.511438
 11
21.623208
 21
68.511438
  0
POLYLINE
  8
1
  6
CONTINUOUS
 66
     1
  0
VERTEX
  8
1
  6
CONTINUOUS
 10
21.404035
 20
68.234016
  0
VERTEX
  8
1
  6
CONTINUOUS
 10
21.900630
 20
68.292264
  0
VERTEX
  8
1
  6
CONTINUOUS
 10
21.842381
 20
68.788860
  0
VERTEX
  8
1
  6
CONTINUOUS
 10
21.345786
 20
68.730611
  0
VERTEX
  8
1
  6
CONTINUOUS
 10
21.404035
 20
68.234016
  0
SEQEND
  8
1
  6
CONTINUOUS
  0
LINE
  8
1
  6
CONTINUOUS
 10
28.118598
 20
58.818757
 11
28.118598
 21
58.818757
  0
POLYLINE
  8
1
  6
CONTINUOUS
 66
     1
  0
VERTEX
  8
1
  6
CONTINUOUS
 10
28.381174
 20
58.529700
  0
VERTEX
  8
1
  6
CONTINUOUS
 10
28.355567
 20
59.129153
  0
VERTEX
  8
1
  6
CONTINUOUS
 10
27.856023
 20
59.107814
  0
VERTEX
  8
1
  6
CONTINUOUS
 10
27.881629
 20
58.508361
  0
VERTEX
  8
1
  6
CONTINUOUS
 10
28.381174
 20
58.529700
  0
SEQEND
  8
1
  6
CONTINUOUS
  0
LINE
  8
1
  6
CONTINUOUS
 10
12.373234
 20
39.084705
 11
12.373234
 21
39.084705
  0
POLYLINE
  8
1
  6
CONTINUOUS
 66
     1
  0
VERTEX
  8
1
  6
CONTINUOUS
 10
12.635809
 20
38.795648
  0
VERTEX
  8
1
  6
CONTINUOUS
 10
12.610202
 20
39.395101
  0
VERTEX
  8
1
  6
CONTINUOUS
 10
12.110658
 20
39.373762
  0
VERTEX
  8
1
  6
CONTINUOUS
 10
12.136265
 20
38.774309
  0
VERTEX
  8
1
  6
CONTINUOUS
 10
12.635809
 20
38.795648
  0
SEQEND
  8
1
  6
CONTINUOUS
  0
LINE
  8
1
  6
CONTINUOUS
 10
29.171214
 20
34.180265
 11
29.171214
 21
34.180265
  0
POLYLINE
  8
1
  6
CONTINUOUS
 66
     1
  0
VERTEX
  8
1
  6
CONTINUOUS
 10
29.433789
 20
33.891208
  0
VERTEX
  8
1
  6
CONTINUOUS
 10
29.408183
 20
34.490661
  0
VERTEX
  8
1
  6
CONTINUOUS
 10
28.908638
 20
34.469322
  0
VERTEX
  8
1
  6
CONTINUOUS
 10
28.934245
 20
33.869869
  0
VERTEX
  8
1
  6
CONTINUOUS
 10
29.433789
 20
33.891208
  0
SEQEND
  8
1
  6
CONTINUOUS
  0
LINE
  8
1
  6
CONTINUOUS
 10
51.197199
 20
63.286716
 11
51.197199
 21
63.286716
  0
POLYLINE
  8
1
  6
CONTINUOUS
 66
     1
  0
VERTEX
  8
1
  6
CONTINUOUS
 10
51.451838
 20
62.762161
  0
VERTEX
  8
1
  6
CONTINUOUS
 10
51.540211
 20
63.758248
  0
VERTEX
  8
1
  6
CONTINUOUS
 10
50.942559
 20
63.811272
  0
VERTEX
  8
1
  6
CONTINUOUS
 10
50.854186
 20
62.815184
  0
VERTEX
  8
1
  6
CONTINUOUS
 10
51.451838
 20
62.762161
  0
SEQEND
  8
1
  6
CONTINUOUS
  0
LINE
  8
1
  6
CONTINUOUS
 10
48.298597
 20
30.620164
 11
48.298597
 21
30.620164
  0
POLYLINE
  8
1
  6
CONTINUOUS
 66
     1
  0
VERTEX
  8
1
  6
CONTINUOUS
 10
48.553237
 20
30.095608
  0
VERTEX
  8
1
  6
CONTINUOUS
 10
48.641610
 20
31.091696
  0
VERTEX
  8
1
  6
CONTINUOUS
 10
48.043957
 20
31.144719
  0
VERTEX
  8
1
  6
CONTINUOUS
 10
47.955585
 20
30.148632
  0
VERTEX
  8
1
  6
CONTINUOUS
 10
48.553237
 20
30.095608
  0
SEQEND
  8
1
  6
CONTINUOUS
  0
LINE
  8
1
  6
CONTINUOUS
 10
29.980498
 20
59.006888
 11
29.980498
 21
59.006888
  0
POLYLINE
  8
1
  6
CONTINUOUS
 66
     1
  0
VERTEX
  8
1
  6
CONTINUOUS
 10
30.305832
 20
58.420238
  0
VERTEX
  8
1
  6
CONTINUOUS
 10
30.254618
 20
59.619145
  0
VERTEX
  8
1
  6
CONTINUOUS
 10
29.655165
 20
59.593538
  0
VERTEX
  8
1
  6
CONTINUOUS
 10
29.706378
 20
58.394631
  0
VERTEX
  8
1
  6
CONTINUOUS
 10
30.305832
 20
58.420238
  0
SEQEND
  8
1
  6
CONTINUOUS
  0
LINE
  8
1
  6
CONTINUOUS
 10
65.440412
 20
71.699686
 11
65.440412
 21
71.699686
  0
POLYLINE
  8
1
  6
CONTINUOUS
 66
     1
  0
VERTEX
  8
1
  6
CONTINUOUS
 10
65.151661
 20
71.388844
  0
VERTEX
  8
1
  6
CONTINUOUS
 10
65.751254
 20
71.410935
  0
VERTEX
  8
1
  6
CONTINUOUS
 10
65.729163
 20
72.010528
  0
VERTEX
  8
1
  6
CONTINUOUS
 10
65.129570
 20
71.988437
  0
VERTEX
  8
1
  6
CONTINUOUS
 10
65.151661
 20
71.388844
  0
SEQEND
  8
1
  6
CONTINUOUS
  0
LINE
  8
1
  6
CONTINUOUS
 10
51.069208
 20
48.267477
 11
51.069208
 21
48.267477
  0
POLYLINE
  8
1
  6
CONTINUOUS
 66
     1
  0
VERTEX
  8
1
  6
CONTINUOUS
 10
51.323848
 20
47.742921
  0
VERTEX
  8
1
  6
CONTINUOUS
 10
51.412221
 20
48.739008
  0
VERTEX
  8
1
  6
CONTINUOUS
 10
50.814568
 20
48.792032
  0
VERTEX
  8
1
  6
CONTINUOUS
 10
50.726196
 20
47.795945
  0
VERTEX
  8
1
  6
CONTINUOUS
 10
51.323848
 20
47.742921
  0
SEQEND
  8
1
  6
CONTINUOUS
  0
LINE
  8
1
  6
CONTINUOUS
 10
33.344123
 20
19.086949
 11
33.344123
 21
19.086949
  0
POLYLINE
  8
1
  6
CONTINUOUS
 66
     1
  0
VERTEX
  8
1
  6
CONTINUOUS
 10
33.043538
 20
18.787536
  0
VERTEX
  8
1
  6
CONTINUOUS
 10
33.643536
 20
18.786363
  0
VERTEX
  8
1
  6
CONTINUOUS
 10
33.644709
 20
19.386362
  0
VERTEX
  8
1
  6
CONTINUOUS
 10
33.044710
 20
19.387534
  0
VERTEX
  8
1
  6
CONTINUOUS
 10
33.043538
 20
18.787536
  0
SEQEND
  8
1
  6
CONTINUOUS
  0
LINE
  8
1
  6
CONTINUOUS
 10
44.360668
 20
19.065399
 11
44.360668
 21
19.065399
  0
POLYLINE
  8
1
  6
CONTINUOUS
 66
     1
  0
VERTEX
  8
1
  6
CONTINUOUS
 10
44.060082
 20
18.765986
  0
VERTEX
  8
1
  6
CONTINUOUS
 10
44.660081
 20
18.764813
  0
VERTEX
  8
1
  6
CONTINUOUS
 10
44.661254
 20
19.364812
  0
VERTEX
  8
1
  6
CONTINUOUS
 10
44.061255
 20
19.365985
  0
VERTEX
  8
1
  6
CONTINUOUS
 10
44.060082
 20
18.765986
  0
SEQEND
  8
1
  6
CONTINUOUS
  0
LINE
  8
1
  6
CONTINUOUS
 10
56.200645
 20
19.042238
 11
56.200645
 21
19.042238
  0
POLYLINE
  8
1
  6
CONTINUOUS
 66
     1
  0
VERTEX
  8
1
  6
CONTINUOUS
 10
55.900059
 20
18.742825
  0
VERTEX
  8
1
  6
CONTINUOUS
 10
56.500058
 20
18.741653
  0
VERTEX
  8
1
  6
CONTINUOUS
 10
56.501231
 20
19.341651
  0
VERTEX
  8
1
  6
CONTINUOUS
 10
55.901232
 20
19.342824
  0
VERTEX
  8
1
  6
CONTINUOUS
 10
55.900059
 20
18.742825
  0
SEQEND
  8
1
  6
CONTINUOUS
  0
LINE
  8
1
  6
CONTINUOUS
 10
24.739835
 20
15.394779
 11
24.739835
 21
15.394779
  0
POLYLINE
  8
1
  6
CONTINUOUS
 66
     1
  0
VERTEX
  8
1
  6
CONTINUOUS
 10
24.309835
 20
15.194779
  0
VERTEX
  8
1
  6
CONTINUOUS
 10
25.169835
 20
15.194779
  0
VERTEX
  8
1
  6
CONTINUOUS
 10
25.169835
 20
15.594779
  0
VERTEX
  8
1
  6
CONTINUOUS
 10
24.309835
 20
15.594779
  0
VERTEX
  8
1
  6
CONTINUOUS
 10
24.309835
 20
15.194779
  0
SEQEND
  8
1
  6
CONTINUOUS
  0
LINE
  8
5
  6
CONTINUOUS
 10
25.169835
 20
15.194779
 11
25.369835
 21
14.994779
  0
LINE
  8
5
  6
CONTINUOUS
 10
25.169835
 20
15.594779
 11
25.369835
 21
15.794779
  0
LINE
  8
5
  6
CONTINUOUS
 10
24.309835
 20
15.594779
 11
24.109835
 21
15.794779
  0
LINE
  8
5
  6
CONTINUOUS
 10
24.309835
 20
15.194779
 11
24.109835
 21
14.994779
  0
LINE
  8
1
  6
CONTINUOUS
 10
76.280619
 20
34.379414
 11
76.280619
 21
34.379414
  0
POLYLINE
  8
1
  6
CONTINUOUS
 66
     1
  0
VERTEX
  8
1
  6
CONTINUOUS
 10
76.552934
 20
34.054076
  0
VERTEX
  8
1
  6
CONTINUOUS
 10
76.605957
 20
34.651729
  0
VERTEX
  8
1
  6
CONTINUOUS
 10
76.008305
 20
34.704752
  0
VERTEX
  8
1
  6
CONTINUOUS
 10
75.955281
 20
34.107100
  0
VERTEX
  8
1
  6
CONTINUOUS
 10
76.552934
 20
34.054076
  0
SEQEND
  8
1
  6
CONTINUOUS
  0
LINE
  8
1
  6
CONTINUOUS
 10
78.738411
 20
62.080155
 11
78.738411
 21
62.080155
  0
POLYLINE
  8
1
  6
CONTINUOUS
 66
     1
  0
VERTEX
  8
1
  6
CONTINUOUS
 10
78.993051
 20
61.555599
  0
VERTEX
  8
1
  6
CONTINUOUS
 10
79.081423
 20
62.551687
  0
VERTEX
  8
1
  6
CONTINUOUS
 10
78.483771
 20
62.604710
  0
VERTEX
  8
1
  6
CONTINUOUS
 10
78.395398
 20
61.608623
  0
VERTEX
  8
1
  6
CONTINUOUS
 10
78.993051
 20
61.555599
  0
SEQEND
  8
1
  6
CONTINUOUS
  0
LINE
  8
1
  6
CONTINUOUS
 10
66.830388
 20
25.181512
 11
66.830388
 21
25.181512
  0
POLYLINE
  8
1
  6
CONTINUOUS
 66
     1
  0
VERTEX
  8
1
  6
CONTINUOUS
 10
67.102702
 20
24.856174
  0
VERTEX
  8
1
  6
CONTINUOUS
 10
67.155726
 20
25.453826
  0
VERTEX
  8
1
  6
CONTINUOUS
 10
66.558074
 20
25.506850
  0
VERTEX
  8
1
  6
CONTINUOUS
 10
66.505050
 20
24.909197
  0
VERTEX
  8
1
  6
CONTINUOUS
 10
67.102702
 20
24.856174
  0
SEQEND
  8
1
  6
CONTINUOUS
  0
LINE
  8
1
  6
CONTINUOUS
 10
51.549799
 20
26.537264
 11
51.549799
 21
26.537264
  0
POLYLINE
  8
1
  6
CONTINUOUS
 66
     1
  0
VERTEX
  8
1
  6
CONTINUOUS
 10
51.822113
 20
26.211926
  0
VERTEX
  8
1
  6
CONTINUOUS
 10
51.875137
 20
26.809578
  0
VERTEX
  8
1
  6
CONTINUOUS
 10
51.277484
 20
26.862602
  0
VERTEX
  8
1
  6
CONTINUOUS
 10
51.224461
 20
26.264949
  0
VERTEX
  8
1
  6
CONTINUOUS
 10
51.822113
 20
26.211926
  0
SEQEND
  8
1
  6
CONTINUOUS
  0
LINE
  8
1
  6
CONTINUOUS
 10
31.494724
 20
15.268862
 11
31.494724
 21
15.268862
  0
POLYLINE
  8
1
  6
CONTINUOUS
 66
     1
  0
VERTEX
  8
1
  6
CONTINUOUS
 10
31.768354
 20
14.944629
  0
VERTEX
  8
1
  6
CONTINUOUS
 10
31.818957
 20
15.542491
  0
VERTEX
  8
1
  6
CONTINUOUS
 10
31.221095
 20
15.593094
  0
VERTEX
  8
1
  6
CONTINUOUS
 10
31.170491
 20
14.995232
  0
VERTEX
  8
1
  6
CONTINUOUS
 10
31.768354
 20
14.944629
  0
SEQEND
  8
1
  6
CONTINUOUS
  0
LINE
  8
5
  6
CONTINUOUS
 10
31.818957
 20
15.542491
 11
32.035112
 21
15.724911
  0
LINE
  8
5
  6
CONTINUOUS
 10
31.221095
 20
15.593094
 11
31.038675
 21
15.809250
  0
LINE
  8
5
  6
CONTINUOUS
 10
31.170491
 20
14.995232
 11
30.954336
 21
14.812813
  0
LINE
  8
5
  6
CONTINUOUS
 10
31.768354
 20
14.944629
 11
31.950773
 21
14.728474
  0
LINE
  8
1
  6
CONTINUOUS
 10
40.493702
 20
70.094703
 11
40.493702
 21
70.094703
  0
POLYLINE
  8
1
  6
CONTINUOUS
 66
     1
  0
VERTEX
  8
1
  6
CONTINUOUS
 10
40.032248
 20
69.738247
  0
VERTEX
  8
1
  6
CONTINUOUS
 10
41.025376
 20
69.855282
  0
VERTEX
  8
1
  6
CONTINUOUS
 10
40.955155
 20
70.451159
  0
VERTEX
  8
1
  6
CONTINUOUS
 10
39.962027
 20
70.334124
  0
VERTEX
  8
1
  6
CONTINUOUS
 10
40.032248
 20
69.738247
  0
SEQEND
  8
1
  6
CONTINUOUS
  0
LINE
  8
1
  6
CONTINUOUS
 10
20.299402
 20
30.295492
 11
20.299402
 21
30.295492
  0
POLYLINE
  8
1
  6
CONTINUOUS
 66
     1
  0
VERTEX
  8
1
  6
CONTINUOUS
 10
19.999402
 20
30.095492
  0
VERTEX
  8
1
  6
CONTINUOUS
 10
20.599402
 20
30.095492
  0
VERTEX
  8
1
  6
CONTINUOUS
 10
20.599402
 20
30.495492
  0
VERTEX
  8
1
  6
CONTINUOUS
 10
19.999402
 20
30.495492
  0
VERTEX
  8
1
  6
CONTINUOUS
 10
19.999402
 20
30.095492
  0
SEQEND
  8
1
  6
CONTINUOUS
  0
LINE
  8
1
  6
CONTINUOUS
 10
26.922123
 20
68.343134
 11
27.398475
 21
68.907873
  0
LINE
  8
1
  6
CONTINUOUS
 10
26.942892
 20
68.884958
 11
27.405469
 21
68.336550
  0
LINE
  8
1
  6
CONTINUOUS
 10
74.462886
 20
24.805483
 11
74.943448
 21
25.365202
  0
LINE
  8
1
  6
CONTINUOUS
 10
74.475693
 20
25.350286
 11
74.930642
 21
24.820400
  0
LINE
  8
1
  6
CONTINUOUS
 10
17.189406
 20
20.995612
 11
21.199403
 21
24.895608
  0
LINE
  8
1
  6
CONTINUOUS
 10
17.189406
 20
24.895608
 11
21.199403
 21
20.995612
  0
LINE
  8
1
  6
CONTINUOUS
 10
12.896286
 20
20.995612
 11
16.909406
 21
24.895608
  0
LINE
  8
1
  6
CONTINUOUS
 10
12.896286
 20
24.895608
 11
16.909406
 21
20.995612
  0
LINE
  8
1
  6
CONTINUOUS
 10
21.599403
 20
20.595608
 11
24.309835
 21
22.892499
  0
LINE
  8
1
  6
CONTINUOUS
 10
28.396108
 20
26.355313
 11
29.237781
 21
27.068568
  0
LINE
  8
1
  6
CONTINUOUS
 10
21.599403
 20
27.095608
 11
24.309835
 21
24.798717
  0
LINE
  8
4
  6
CONTINUOUS
 10
12.408435
 20
66.443395
 11
11.508435
 21
66.443395
  0
LINE
  8
4
  6
CONTINUOUS
 10
11.508435
 20
66.510895
 11
11.508435
 21
66.375895
  0
LINE
  8
4
  6
CONTINUOUS
 10
11.508435
 20
66.510895
 11
10.608435
 21
66.443395
  0
LINE
  8
4
  6
CONTINUOUS
 10
11.508435
 20
66.375895
 11
10.608435
 21
66.443395
  0
LINE
  8
4
  6
CONTINUOUS
 10
11.703436
 20
66.578395
 11
11.703436
 21
66.308395
  0
LINE
  8
4
  6
CONTINUOUS
 10
11.853435
 20
66.578395
 11
11.853435
 21
66.308395
  0
LINE
  8
4
  6
CONTINUOUS
 10
26.559552
 20
66.443395
 11
27.759552
 21
66.443395
  0
LINE
  8
4
  6
CONTINUOUS
 10
27.759552
 20
66.323395
 11
27.759552
 21
66.563395
  0
LINE
  8
4
  6
CONTINUOUS
 10
27.735552
 20
66.323395
 11
27.735552
 21
66.563395
  0
LINE
  8
4
  6
CONTINUOUS
 10
27.711552
 20
66.323395
 11
27.711552
 21
66.563395
  0
POLYLINE
  8
4
  6
CONTINUOUS
 66
     1
  0
VERTEX
  8
4
  6
CONTINUOUS
 10
26.559552
 20
66.443395
  0
VERTEX
  8
4
  6
CONTINUOUS
 10
12.408435
 20
66.443395
  0
SEQEND
  8
4
  6
CONTINUOUS
  0
LINE
  8
4
  6
CONTINUOUS
 10
12.408435
 20
65.123395
 11
11.508435
 21
65.123395
  0
LINE
  8
4
  6
CONTINUOUS
 10
11.508435
 20
65.190895
 11
11.508435
 21
65.055895
  0
LINE
  8
4
  6
CONTINUOUS
 10
11.508435
 20
65.190895
 11
10.608435
 21
65.123395
  0
LINE
  8
4
  6
CONTINUOUS
 10
11.508435
 20
65.055895
 11
10.608435
 21
65.123395
  0
LINE
  8
4
  6
CONTINUOUS
 10
11.703436
 20
65.258395
 11
11.703436
 21
64.988395
  0
LINE
  8
4
  6
CONTINUOUS
 10
11.853435
 20
65.258395
 11
11.853435
 21
64.988395
  0
LINE
  8
4
  6
CONTINUOUS
 10
26.559552
 20
65.123395
 11
27.759552
 21
65.123395
  0
LINE
  8
4
  6
CONTINUOUS
 10
27.759552
 20
65.003395
 11
27.759552
 21
65.243395
  0
LINE
  8
4
  6
CONTINUOUS
 10
27.735552
 20
65.003395
 11
27.735552
 21
65.243395
  0
LINE
  8
4
  6
CONTINUOUS
 10
27.711552
 20
65.003395
 11
27.711552
 21
65.243395
  0
POLYLINE
  8
4
  6
CONTINUOUS
 66
     1
  0
VERTEX
  8
4
  6
CONTINUOUS
 10
26.559552
 20
65.123395
  0
VERTEX
  8
4
  6
CONTINUOUS
 10
12.408435
 20
65.123395
  0
SEQEND
  8
4
  6
CONTINUOUS
  0
LINE
  8
4
  6
CONTINUOUS
 10
12.408435
 20
63.803395
 11
11.508435
 21
63.803395
  0
LINE
  8
4
  6
CONTINUOUS
 10
11.508435
 20
63.870895
 11
11.508435
 21
63.735895
  0
LINE
  8
4
  6
CONTINUOUS
 10
11.508435
 20
63.870895
 11
10.608435
 21
63.803395
  0
LINE
  8
4
  6
CONTINUOUS
 10
11.508435
 20
63.735895
 11
10.608435
 21
63.803395
  0
LINE
  8
4
  6
CONTINUOUS
 10
11.703436
 20
63.938395
 11
11.703436
 21
63.668395
  0
LINE
  8
4
  6
CONTINUOUS
 10
11.853435
 20
63.938395
 11
11.853435
 21
63.668395
  0
LINE
  8
4
  6
CONTINUOUS
 10
26.559552
 20
63.803395
 11
27.759552
 21
63.803395
  0
LINE
  8
4
  6
CONTINUOUS
 10
27.759552
 20
63.683395
 11
27.759552
 21
63.923395
  0
LINE
  8
4
  6
CONTINUOUS
 10
27.735552
 20
63.683395
 11
27.735552
 21
63.923395
  0
LINE
  8
4
  6
CONTINUOUS
 10
27.711552
 20
63.683395
 11
27.711552
 21
63.923395
  0
POLYLINE
  8
4
  6
CONTINUOUS
 66
     1
  0
VERTEX
  8
4
  6
CONTINUOUS
 10
26.559552
 20
63.803395
  0
VERTEX
  8
4
  6
CONTINUOUS
 10
12.408435
 20
63.803395
  0
SEQEND
  8
4
  6
CONTINUOUS
  0
LINE
  8
4
  6
CONTINUOUS
 10
12.679275
 20
62.443395
 11
11.479275
 21
62.443395
  0
LINE
  8
4
  6
CONTINUOUS
 10
11.479275
 20
62.563395
 11
11.479275
 21
62.323395
  0
LINE
  8
4
  6
CONTINUOUS
 10
11.503275
 20
62.563395
 11
11.503275
 21
62.323395
  0
LINE
  8
4
  6
CONTINUOUS
 10
11.527275
 20
62.563395
 11
11.527275
 21
62.323395
  0
LINE
  8
4
  6
CONTINUOUS
 10
26.730395
 20
62.443395
 11
27.630395
 21
62.443395
  0
LINE
  8
4
  6
CONTINUOUS
 10
27.630395
 20
62.375895
 11
27.630395
 21
62.510895
  0
LINE
  8
4
  6
CONTINUOUS
 10
27.630395
 20
62.375895
 11
28.530395
 21
62.443395
  0
LINE
  8
4
  6
CONTINUOUS
 10
27.630395
 20
62.510895
 11
28.530395
 21
62.443395
  0
LINE
  8
4
  6
CONTINUOUS
 10
27.450395
 20
62.308395
 11
27.450395
 21
62.578395
  0
LINE
  8
4
  6
CONTINUOUS
 10
27.337895
 20
62.308395
 11
27.337895
 21
62.578395
  0
LINE
  8
4
  6
CONTINUOUS
 10
27.225395
 20
62.308395
 11
27.225395
 21
62.578395
  0
POLYLINE
  8
4
  6
CONTINUOUS
 66
     1
  0
VERTEX
  8
4
  6
CONTINUOUS
 10
12.679275
 20
62.443395
  0
VERTEX
  8
4
  6
CONTINUOUS
 10
26.730395
 20
62.443395
  0
SEQEND
  8
4
  6
CONTINUOUS
  0
LINE
  8
4
  6
CONTINUOUS
 10
12.679275
 20
61.123395
 11
11.479275
 21
61.123395
  0
LINE
  8
4
  6
CONTINUOUS
 10
11.479275
 20
61.243395
 11
11.479275
 21
61.003395
  0
LINE
  8
4
  6
CONTINUOUS
 10
11.503275
 20
61.243395
 11
11.503275
 21
61.003395
  0
LINE
  8
4
  6
CONTINUOUS
 10
11.527275
 20
61.243395
 11
11.527275
 21
61.003395
  0
LINE
  8
4
  6
CONTINUOUS
 10
26.730395
 20
61.123395
 11
27.630395
 21
61.123395
  0
LINE
  8
4
  6
CONTINUOUS
 10
27.630395
 20
61.055895
 11
27.630395
 21
61.190895
  0
LINE
  8
4
  6
CONTINUOUS
 10
27.630395
 20
61.055895
 11
28.530395
 21
61.123395
  0
LINE
  8
4
  6
CONTINUOUS
 10
27.630395
 20
61.190895
 11
28.530395
 21
61.123395
  0
LINE
  8
4
  6
CONTINUOUS
 10
27.450395
 20
60.988395
 11
27.450395
 21
61.258395
  0
LINE
  8
4
  6
CONTINUOUS
 10
27.337895
 20
60.988395
 11
27.337895
 21
61.258395
  0
LINE
  8
4
  6
CONTINUOUS
 10
27.225395
 20
60.988395
 11
27.225395
 21
61.258395
  0
POLYLINE
  8
4
  6
CONTINUOUS
 66
     1
  0
VERTEX
  8
4
  6
CONTINUOUS
 10
12.679275
 20
61.123395
  0
VERTEX
  8
4
  6
CONTINUOUS
 10
26.730395
 20
61.123395
  0
SEQEND
  8
4
  6
CONTINUOUS
  0
LINE
  8
4
  6
CONTINUOUS
 10
12.679275
 20
59.803395
 11
11.479275
 21
59.803395
  0
LINE
  8
4
  6
CONTINUOUS
 10
11.479275
 20
59.923395
 11
11.479275
 21
59.683395
  0
LINE
  8
4
  6
CONTINUOUS
 10
11.503275
 20
59.923395
 11
11.503275
 21
59.683395
  0
LINE
  8
4
  6
CONTINUOUS
 10
11.527275
 20
59.923395
 11
11.527275
 21
59.683395
  0
LINE
  8
4
  6
CONTINUOUS
 10
26.730395
 20
59.803395
 11
27.630395
 21
59.803395
  0
LINE
  8
4
  6
CONTINUOUS
 10
27.630395
 20
59.735895
 11
27.630395
 21
59.870895
  0
LINE
  8
4
  6
CONTINUOUS
 10
27.630395
 20
59.735895
 11
28.530395
 21
59.803395
  0
LINE
  8
4
  6
CONTINUOUS
 10
27.630395
 20
59.870895
 11
28.530395
 21
59.803395
  0
LINE
  8
4
  6
CONTINUOUS
 10
27.450395
 20
59.668395
 11
27.450395
 21
59.938395
  0
LINE
  8
4
  6
CONTINUOUS
 10
27.337895
 20
59.668395
 11
27.337895
 21
59.938395
  0
LINE
  8
4
  6
CONTINUOUS
 10
27.225395
 20
59.668395
 11
27.225395
 21
59.938395
  0
POLYLINE
  8
4
  6
CONTINUOUS
 66
     1
  0
VERTEX
  8
4
  6
CONTINUOUS
 10
12.679275
 20
59.803395
  0
VERTEX
  8
4
  6
CONTINUOUS
 10
26.730395
 20
59.803395
  0
SEQEND
  8
4
  6
CONTINUOUS
  0
LINE
  8
4
  6
CONTINUOUS
 10
12.852511
 20
58.443395
 11
11.952511
 21
58.443395
  0
LINE
  8
4
  6
CONTINUOUS
 10
12.402511
 20
58.578395
 11
12.402511
 21
58.308395
  0
LINE
  8
4
  6
CONTINUOUS
 10
12.312511
 20
58.578395
 11
12.312511
 21
58.308395
  0
LINE
  8
4
  6
CONTINUOUS
 10
12.222511
 20
58.578395
 11
12.222511
 21
58.308395
  0
LINE
  8
4
  6
CONTINUOUS
 10
12.132511
 20
58.578395
 11
12.132511
 21
58.308395
  0
LINE
  8
4
  6
CONTINUOUS
 10
11.952511
 20
58.510895
 11
11.952511
 21
58.375895
  0
LINE
  8
4
  6
CONTINUOUS
 10
11.952511
 20
58.510895
 11
11.052511
 21
58.443395
  0
LINE
  8
4
  6
CONTINUOUS
 10
11.952511
 20
58.375895
 11
11.052511
 21
58.443395
  0
LINE
  8
4
  6
CONTINUOUS
 10
26.901127
 20
58.443395
 11
28.101127
 21
58.443395
  0
LINE
  8
4
  6
CONTINUOUS
 10
28.101127
 20
58.323395
 11
28.101127
 21
58.563395
  0
LINE
  8
4
  6
CONTINUOUS
 10
28.077127
 20
58.323395
 11
28.077127
 21
58.563395
  0
LINE
  8
4
  6
CONTINUOUS
 10
28.053127
 20
58.323395
 11
28.053127
 21
58.563395
  0
POLYLINE
  8
4
  6
CONTINUOUS
 66
     1
  0
VERTEX
  8
4
  6
CONTINUOUS
 10
26.901127
 20
58.443395
  0
VERTEX
  8
4
  6
CONTINUOUS
 10
12.852511
 20
58.443395
  0
SEQEND
  8
4
  6
CONTINUOUS
  0
LINE
  8
4
  6
CONTINUOUS
 10
12.852511
 20
57.123395
 11
11.952511
 21
57.123395
  0
LINE
  8
4
  6
CONTINUOUS
 10
12.402511
 20
57.258395
 11
12.402511
 21
56.988395
  0
LINE
  8
4
  6
CONTINUOUS
 10
12.312511
 20
57.258395
 11
12.312511
 21
56.988395
  0
LINE
  8
4
  6
CONTINUOUS
 10
12.222511
 20
57.258395
 11
12.222511
 21
56.988395
  0
LINE
  8
4
  6
CONTINUOUS
 10
12.132511
 20
57.258395
 11
12.132511
 21
56.988395
  0
LINE
  8
4
  6
CONTINUOUS
 10
11.952511
 20
57.190895
 11
11.952511
 21
57.055895
  0
LINE
  8
4
  6
CONTINUOUS
 10
11.952511
 20
57.190895
 11
11.052511
 21
57.123395
  0
LINE
  8
4
  6
CONTINUOUS
 10
11.952511
 20
57.055895
 11
11.052511
 21
57.123395
  0
LINE
  8
4
  6
CONTINUOUS
 10
26.901127
 20
57.123395
 11
28.101127
 21
57.123395
  0
LINE
  8
4
  6
CONTINUOUS
 10
28.101127
 20
57.003395
 11
28.101127
 21
57.243395
  0
LINE
  8
4
  6
CONTINUOUS
 10
28.077127
 20
57.003395
 11
28.077127
 21
57.243395
  0
LINE
  8
4
  6
CONTINUOUS
 10
28.053127
 20
57.003395
 11
28.053127
 21
57.243395
  0
POLYLINE
  8
4
  6
CONTINUOUS
 66
     1
  0
VERTEX
  8
4
  6
CONTINUOUS
 10
26.901127
 20
57.123395
  0
VERTEX
  8
4
  6
CONTINUOUS
 10
12.852511
 20
57.123395
  0
SEQEND
  8
4
  6
CONTINUOUS
  0
LINE
  8
4
  6
CONTINUOUS
 10
12.852511
 20
55.803395
 11
11.952511
 21
55.803395
  0
LINE
  8
4
  6
CONTINUOUS
 10
12.402511
 20
55.938395
 11
12.402511
 21
55.668395
  0
LINE
  8
4
  6
CONTINUOUS
 10
12.312511
 20
55.938395
 11
12.312511
 21
55.668395
  0
LINE
  8
4
  6
CONTINUOUS
 10
12.222511
 20
55.938395
 11
12.222511
 21
55.668395
  0
LINE
  8
4
  6
CONTINUOUS
 10
12.132511
 20
55.938395
 11
12.132511
 21
55.668395
  0
LINE
  8
4
  6
CONTINUOUS
 10
11.952511
 20
55.870895
 11
11.952511
 21
55.735895
  0
LINE
  8
4
  6
CONTINUOUS
 10
11.952511
 20
55.870895
 11
11.052511
 21
55.803395
  0
LINE
  8
4
  6
CONTINUOUS
 10
11.952511
 20
55.735895
 11
11.052511
 21
55.803395
  0
LINE
  8
4
  6
CONTINUOUS
 10
26.901127
 20
55.803395
 11
28.101127
 21
55.803395
  0
LINE
  8
4
  6
CONTINUOUS
 10
28.101127
 20
55.683395
 11
28.101127
 21
55.923395
  0
LINE
  8
4
  6
CONTINUOUS
 10
28.077127
 20
55.683395
 11
28.077127
 21
55.923395
  0
LINE
  8
4
  6
CONTINUOUS
 10
28.053127
 20
55.683395
 11
28.053127
 21
55.923395
  0
POLYLINE
  8
4
  6
CONTINUOUS
 66
     1
  0
VERTEX
  8
4
  6
CONTINUOUS
 10
26.901127
 20
55.803395
  0
VERTEX
  8
4
  6
CONTINUOUS
 10
12.852511
 20
55.803395
  0
SEQEND
  8
4
  6
CONTINUOUS
  0
LINE
  8
4
  6
CONTINUOUS
 10
13.020599
 20
54.443395
 11
11.820599
 21
54.443395
  0
LINE
  8
4
  6
CONTINUOUS
 10
11.820599
 20
54.563395
 11
11.820599
 21
54.323395
  0
LINE
  8
4
  6
CONTINUOUS
 10
11.844599
 20
54.563395
 11
11.844599
 21
54.323395
  0
LINE
  8
4
  6
CONTINUOUS
 10
11.868599
 20
54.563395
 11
11.868599
 21
54.323395
  0
LINE
  8
4
  6
CONTINUOUS
 10
27.072141
 20
54.443395
 11
27.972141
 21
54.443395
  0
LINE
  8
4
  6
CONTINUOUS
 10
27.522141
 20
54.308395
 11
27.522141
 21
54.578395
  0
LINE
  8
4
  6
CONTINUOUS
 10
27.612141
 20
54.308395
 11
27.612141
 21
54.578395
  0
LINE
  8
4
  6
CONTINUOUS
 10
27.702141
 20
54.308395
 11
27.702141
 21
54.578395
  0
LINE
  8
4
  6
CONTINUOUS
 10
27.792141
 20
54.308395
 11
27.792141
 21
54.578395
  0
LINE
  8
4
  6
CONTINUOUS
 10
27.972141
 20
54.375895
 11
27.972141
 21
54.510895
  0
LINE
  8
4
  6
CONTINUOUS
 10
27.972141
 20
54.375895
 11
28.872141
 21
54.443395
  0
LINE
  8
4
  6
CONTINUOUS
 10
27.972141
 20
54.510895
 11
28.872141
 21
54.443395
  0
POLYLINE
  8
4
  6
CONTINUOUS
 66
     1
  0
VERTEX
  8
4
  6
CONTINUOUS
 10
13.020599
 20
54.443395
  0
VERTEX
  8
4
  6
CONTINUOUS
 10
27.072141
 20
54.443395
  0
SEQEND
  8
4
  6
CONTINUOUS
  0
LINE
  8
4
  6
CONTINUOUS
 10
13.020599
 20
53.123395
 11
11.820599
 21
53.123395
  0
LINE
  8
4
  6
CONTINUOUS
 10
11.820599
 20
53.243395
 11
11.820599
 21
53.003395
  0
LINE
  8
4
  6
CONTINUOUS
 10
11.844599
 20
53.243395
 11
11.844599
 21
53.003395
  0
LINE
  8
4
  6
CONTINUOUS
 10
11.868599
 20
53.243395
 11
11.868599
 21
53.003395
  0
LINE
  8
4
  6
CONTINUOUS
 10
27.072141
 20
53.123395
 11
27.972141
 21
53.123395
  0
LINE
  8
4
  6
CONTINUOUS
 10
27.522141
 20
52.988395
 11
27.522141
 21
53.258395
  0
LINE
  8
4
  6
CONTINUOUS
 10
27.612141
 20
52.988395
 11
27.612141
 21
53.258395
  0
LINE
  8
4
  6
CONTINUOUS
 10
27.702141
 20
52.988395
 11
27.702141
 21
53.258395
  0
LINE
  8
4
  6
CONTINUOUS
 10
27.792141
 20
52.988395
 11
27.792141
 21
53.258395
  0
LINE
  8
4
  6
CONTINUOUS
 10
27.972141
 20
53.055895
 11
27.972141
 21
53.190895
  0
LINE
  8
4
  6
CONTINUOUS
 10
27.972141
 20
53.055895
 11
28.872141
 21
53.123395
  0
LINE
  8
4
  6
CONTINUOUS
 10
27.972141
 20
53.190895
 11
28.872141
 21
53.123395
  0
POLYLINE
  8
4
  6
CONTINUOUS
 66
     1
  0
VERTEX
  8
4
  6
CONTINUOUS
 10
13.020599
 20
53.123395
  0
VERTEX
  8
4
  6
CONTINUOUS
 10
27.072141
 20
53.123395
  0
SEQEND
  8
4
  6
CONTINUOUS
  0
LINE
  8
4
  6
CONTINUOUS
 10
13.020599
 20
51.803395
 11
11.820599
 21
51.803395
  0
LINE
  8
4
  6
CONTINUOUS
 10
11.820599
 20
51.923395
 11
11.820599
 21
51.683395
  0
LINE
  8
4
  6
CONTINUOUS
 10
11.844599
 20
51.923395
 11
11.844599
 21
51.683395
  0
LINE
  8
4
  6
CONTINUOUS
 10
11.868599
 20
51.923395
 11
11.868599
 21
51.683395
  0
LINE
  8
4
  6
CONTINUOUS
 10
27.072141
 20
51.803395
 11
27.972141
 21
51.803395
  0
LINE
  8
4
  6
CONTINUOUS
 10
27.522141
 20
51.668395
 11
27.522141
 21
51.938395
  0
LINE
  8
4
  6
CONTINUOUS
 10
27.612141
 20
51.668395
 11
27.612141
 21
51.938395
  0
LINE
  8
4
  6
CONTINUOUS
 10
27.702141
 20
51.668395
 11
27.702141
 21
51.938395
  0
LINE
  8
4
  6
CONTINUOUS
 10
27.792141
 20
51.668395
 11
27.792141
 21
51.938395
  0
LINE
  8
4
  6
CONTINUOUS
 10
27.972141
 20
51.735895
 11
27.972141
 21
51.870895
  0
LINE
  8
4
  6
CONTINUOUS
 10
27.972141
 20
51.735895
 11
28.872141
 21
51.803395
  0
LINE
  8
4
  6
CONTINUOUS
 10
27.972141
 20
51.870895
 11
28.872141
 21
51.803395
  0
POLYLINE
  8
4
  6
CONTINUOUS
 66
     1
  0
VERTEX
  8
4
  6
CONTINUOUS
 10
13.020599
 20
51.803395
  0
VERTEX
  8
4
  6
CONTINUOUS
 10
27.072141
 20
51.803395
  0
SEQEND
  8
4
  6
CONTINUOUS
  0
LINE
  8
4
  6
CONTINUOUS
 10
13.191972
 20
50.443395
 11
12.291972
 21
50.443395
  0
LINE
  8
4
  6
CONTINUOUS
 10
12.741972
 20
50.578395
 11
12.741972
 21
50.308395
  0
LINE
  8
4
  6
CONTINUOUS
 10
12.651972
 20
50.578395
 11
12.651972
 21
50.308395
  0
LINE
  8
4
  6
CONTINUOUS
 10
12.561972
 20
50.578395
 11
12.561972
 21
50.308395
  0
LINE
  8
4
  6
CONTINUOUS
 10
12.471972
 20
50.578395
 11
12.471972
 21
50.308395
  0
LINE
  8
4
  6
CONTINUOUS
 10
12.291972
 20
50.510895
 11
12.291972
 21
50.375895
  0
LINE
  8
4
  6
CONTINUOUS
 10
12.291972
 20
50.510895
 11
11.391972
 21
50.443395
  0
LINE
  8
4
  6
CONTINUOUS
 10
12.291972
 20
50.375895
 11
11.391972
 21
50.443395
  0
LINE
  8
4
  6
CONTINUOUS
 10
27.231048
 20
50.443395
 11
28.431048
 21
50.443395
  0
LINE
  8
4
  6
CONTINUOUS
 10
28.431048
 20
50.323395
 11
28.431048
 21
50.563395
  0
LINE
  8
4
  6
CONTINUOUS
 10
28.407048
 20
50.323395
 11
28.407048
 21
50.563395
  0
LINE
  8
4
  6
CONTINUOUS
 10
28.383048
 20
50.323395
 11
28.383048
 21
50.563395
  0
POLYLINE
  8
4
  6
CONTINUOUS
 66
     1
  0
VERTEX
  8
4
  6
CONTINUOUS
 10
27.231048
 20
50.443395
  0
VERTEX
  8
4
  6
CONTINUOUS
 10
13.191972
 20
50.443395
  0
SEQEND
  8
4
  6
CONTINUOUS
  0
LINE
  8
4
  6
CONTINUOUS
 10
13.191972
 20
49.123395
 11
12.291972
 21
49.123395
  0
LINE
  8
4
  6
CONTINUOUS
 10
12.741972
 20
49.258395
 11
12.741972
 21
48.988395
  0
LINE
  8
4
  6
CONTINUOUS
 10
12.651972
 20
49.258395
 11
12.651972
 21
48.988395
  0
LINE
  8
4
  6
CONTINUOUS
 10
12.561972
 20
49.258395
 11
12.561972
 21
48.988395
  0
LINE
  8
4
  6
CONTINUOUS
 10
12.471972
 20
49.258395
 11
12.471972
 21
48.988395
  0
LINE
  8
4
  6
CONTINUOUS
 10
12.291972
 20
49.190895
 11
12.291972
 21
49.055895
  0
LINE
  8
4
  6
CONTINUOUS
 10
12.291972
 20
49.190895
 11
11.391972
 21
49.123395
  0
LINE
  8
4
  6
CONTINUOUS
 10
12.291972
 20
49.055895
 11
11.391972
 21
49.123395
  0
LINE
  8
4
  6
CONTINUOUS
 10
27.231048
 20
49.123395
 11
28.431048
 21
49.123395
  0
LINE
  8
4
  6
CONTINUOUS
 10
28.431048
 20
49.003395
 11
28.431048
 21
49.243395
  0
LINE
  8
4
  6
CONTINUOUS
 10
28.407048
 20
49.003395
 11
28.407048
 21
49.243395
  0
LINE
  8
4
  6
CONTINUOUS
 10
28.383048
 20
49.003395
 11
28.383048
 21
49.243395
  0
POLYLINE
  8
4
  6
CONTINUOUS
 66
     1
  0
VERTEX
  8
4
  6
CONTINUOUS
 10
27.231048
 20
49.123395
  0
VERTEX
  8
4
  6
CONTINUOUS
 10
13.191972
 20
49.123395
  0
SEQEND
  8
4
  6
CONTINUOUS
  0
LINE
  8
4
  6
CONTINUOUS
 10
13.191972
 20
47.803395
 11
12.291972
 21
47.803395
  0
LINE
  8
4
  6
CONTINUOUS
 10
12.741972
 20
47.938395
 11
12.741972
 21
47.668395
  0
LINE
  8
4
  6
CONTINUOUS
 10
12.651972
 20
47.938395
 11
12.651972
 21
47.668395
  0
LINE
  8
4
  6
CONTINUOUS
 10
12.561972
 20
47.938395
 11
12.561972
 21
47.668395
  0
LINE
  8
4
  6
CONTINUOUS
 10
12.471972
 20
47.938395
 11
12.471972
 21
47.668395
  0
LINE
  8
4
  6
CONTINUOUS
 10
12.291972
 20
47.870895
 11
12.291972
 21
47.735895
  0
LINE
  8
4
  6
CONTINUOUS
 10
12.291972
 20
47.870895
 11
11.391972
 21
47.803395
  0
LINE
  8
4
  6
CONTINUOUS
 10
12.291972
 20
47.735895
 11
11.391972
 21
47.803395
  0
LINE
  8
4
  6
CONTINUOUS
 10
27.231048
 20
47.803395
 11
28.431048
 21
47.803395
  0
LINE
  8
4
  6
CONTINUOUS
 10
28.431048
 20
47.683395
 11
28.431048
 21
47.923395
  0
LINE
  8
4
  6
CONTINUOUS
 10
28.407048
 20
47.683395
 11
28.407048
 21
47.923395
  0
LINE
  8
4
  6
CONTINUOUS
 10
28.383048
 20
47.683395
 11
28.383048
 21
47.923395
  0
POLYLINE
  8
4
  6
CONTINUOUS
 66
     1
  0
VERTEX
  8
4
  6
CONTINUOUS
 10
27.231048
 20
47.803395
  0
VERTEX
  8
4
  6
CONTINUOUS
 10
13.191972
 20
47.803395
  0
SEQEND
  8
4
  6
CONTINUOUS
  0
LINE
  8
4
  6
CONTINUOUS
 10
13.362290
 20
46.443395
 11
12.162290
 21
46.443395
  0
LINE
  8
4
  6
CONTINUOUS
 10
12.162290
 20
46.563395
 11
12.162290
 21
46.323395
  0
LINE
  8
4
  6
CONTINUOUS
 10
12.186290
 20
46.563395
 11
12.186290
 21
46.323395
  0
LINE
  8
4
  6
CONTINUOUS
 10
12.210290
 20
46.563395
 11
12.210290
 21
46.323395
  0
LINE
  8
4
  6
CONTINUOUS
 10
27.424228
 20
46.443395
 11
28.324228
 21
46.443395
  0
LINE
  8
4
  6
CONTINUOUS
 10
27.874228
 20
46.308395
 11
27.874228
 21
46.578395
  0
LINE
  8
4
  6
CONTINUOUS
 10
27.964228
 20
46.308395
 11
27.964228
 21
46.578395
  0
LINE
  8
4
  6
CONTINUOUS
 10
28.054228
 20
46.308395
 11
28.054228
 21
46.578395
  0
LINE
  8
4
  6
CONTINUOUS
 10
28.144228
 20
46.308395
 11
28.144228
 21
46.578395
  0
LINE
  8
4
  6
CONTINUOUS
 10
28.324228
 20
46.375895
 11
28.324228
 21
46.510895
  0
LINE
  8
4
  6
CONTINUOUS
 10
28.324228
 20
46.375895
 11
29.224228
 21
46.443395
  0
LINE
  8
4
  6
CONTINUOUS
 10
28.324228
 20
46.510895
 11
29.224228
 21
46.443395
  0
POLYLINE
  8
4
  6
CONTINUOUS
 66
     1
  0
VERTEX
  8
4
  6
CONTINUOUS
 10
13.362290
 20
46.443395
  0
VERTEX
  8
4
  6
CONTINUOUS
 10
27.424228
 20
46.443395
  0
SEQEND
  8
4
  6
CONTINUOUS
  0
LINE
  8
4
  6
CONTINUOUS
 10
13.362290
 20
45.123395
 11
12.162290
 21
45.123395
  0
LINE
  8
4
  6
CONTINUOUS
 10
12.162290
 20
45.243395
 11
12.162290
 21
45.003395
  0
LINE
  8
4
  6
CONTINUOUS
 10
12.186290
 20
45.243395
 11
12.186290
 21
45.003395
  0
LINE
  8
4
  6
CONTINUOUS
 10
12.210290
 20
45.243395
 11
12.210290
 21
45.003395
  0
LINE
  8
4
  6
CONTINUOUS
 10
27.424228
 20
45.123395
 11
28.324228
 21
45.123395
  0
LINE
  8
4
  6
CONTINUOUS
 10
27.874228
 20
44.988395
 11
27.874228
 21
45.258395
  0
LINE
  8
4
  6
CONTINUOUS
 10
27.964228
 20
44.988395
 11
27.964228
 21
45.258395
  0
LINE
  8
4
  6
CONTINUOUS
 10
28.054228
 20
44.988395
 11
28.054228
 21
45.258395
  0
LINE
  8
4
  6
CONTINUOUS
 10
28.144228
 20
44.988395
 11
28.144228
 21
45.258395
  0
LINE
  8
4
  6
CONTINUOUS
 10
28.324228
 20
45.055895
 11
28.324228
 21
45.190895
  0
LINE
  8
4
  6
CONTINUOUS
 10
28.324228
 20
45.055895
 11
29.224228
 21
45.123395
  0
LINE
  8
4
  6
CONTINUOUS
 10
28.324228
 20
45.190895
 11
29.224228
 21
45.123395
  0
POLYLINE
  8
4
  6
CONTINUOUS
 66
     1
  0
VERTEX
  8
4
  6
CONTINUOUS
 10
13.362290
 20
45.123395
  0
VERTEX
  8
4
  6
CONTINUOUS
 10
27.424228
 20
45.123395
  0
SEQEND
  8
4
  6
CONTINUOUS
  0
LINE
  8
4
  6
CONTINUOUS
 10
13.362290
 20
43.803395
 11
12.162290
 21
43.803395
  0
LINE
  8
4
  6
CONTINUOUS
 10
12.162290
 20
43.923395
 11
12.162290
 21
43.683395
  0
LINE
  8
4
  6
CONTINUOUS
 10
12.186290
 20
43.923395
 11
12.186290
 21
43.683395
  0
LINE
  8
4
  6
CONTINUOUS
 10
12.210290
 20
43.923395
 11
12.210290
 21
43.683395
  0
LINE
  8
4
  6
CONTINUOUS
 10
27.424228
 20
43.803395
 11
28.324228
 21
43.803395
  0
LINE
  8
4
  6
CONTINUOUS
 10
27.874228
 20
43.668395
 11
27.874228
 21
43.938395
  0
LINE
  8
4
  6
CONTINUOUS
 10
27.964228
 20
43.668395
 11
27.964228
 21
43.938395
  0
LINE
  8
4
  6
CONTINUOUS
 10
28.054228
 20
43.668395
 11
28.054228
 21
43.938395
  0
LINE
  8
4
  6
CONTINUOUS
 10
28.144228
 20
43.668395
 11
28.144228
 21
43.938395
  0
LINE
  8
4
  6
CONTINUOUS
 10
28.324228
 20
43.735895
 11
28.324228
 21
43.870895
  0
LINE
  8
4
  6
CONTINUOUS
 10
28.324228
 20
43.735895
 11
29.224228
 21
43.803395
  0
LINE
  8
4
  6
CONTINUOUS
 10
28.324228
 20
43.870895
 11
29.224228
 21
43.803395
  0
POLYLINE
  8
4
  6
CONTINUOUS
 66
     1
  0
VERTEX
  8
4
  6
CONTINUOUS
 10
13.362290
 20
43.803395
  0
VERTEX
  8
4
  6
CONTINUOUS
 10
27.424228
 20
43.803395
  0
SEQEND
  8
4
  6
CONTINUOUS
  0
LINE
  8
4
  6
CONTINUOUS
 10
13.533504
 20
42.443395
 11
12.633504
 21
42.443395
  0
LINE
  8
4
  6
CONTINUOUS
 10
12.633504
 20
42.510895
 11
12.633504
 21
42.375895
  0
LINE
  8
4
  6
CONTINUOUS
 10
12.633504
 20
42.510895
 11
11.733504
 21
42.443395
  0
LINE
  8
4
  6
CONTINUOUS
 10
12.633504
 20
42.375895
 11
11.733504
 21
42.443395
  0
LINE
  8
4
  6
CONTINUOUS
 10
12.813504
 20
42.578395
 11
12.813504
 21
42.308395
  0
LINE
  8
4
  6
CONTINUOUS
 10
12.926004
 20
42.578395
 11
12.926004
 21
42.308395
  0
LINE
  8
4
  6
CONTINUOUS
 10
13.038504
 20
42.578395
 11
13.038504
 21
42.308395
  0
LINE
  8
4
  6
CONTINUOUS
 10
27.602458
 20
42.443395
 11
28.802458
 21
42.443395
  0
LINE
  8
4
  6
CONTINUOUS
 10
28.802458
 20
42.323395
 11
28.802458
 21
42.563395
  0
LINE
  8
4
  6
CONTINUOUS
 10
28.778458
 20
42.323395
 11
28.778458
 21
42.563395
  0
LINE
  8
4
  6
CONTINUOUS
 10
28.754458
 20
42.323395
 11
28.754458
 21
42.563395
  0
POLYLINE
  8
4
  6
CONTINUOUS
 66
     1
  0
VERTEX
  8
4
  6
CONTINUOUS
 10
27.602458
 20
42.443395
  0
VERTEX
  8
4
  6
CONTINUOUS
 10
13.533504
 20
42.443395
  0
SEQEND
  8
4
  6
CONTINUOUS
  0
LINE
  8
4
  6
CONTINUOUS
 10
13.533504
 20
41.123395
 11
12.633504
 21
41.123395
  0
LINE
  8
4
  6
CONTINUOUS
 10
12.633504
 20
41.190895
 11
12.633504
 21
41.055895
  0
LINE
  8
4
  6
CONTINUOUS
 10
12.633504
 20
41.190895
 11
11.733504
 21
41.123395
  0
LINE
  8
4
  6
CONTINUOUS
 10
12.633504
 20
41.055895
 11
11.733504
 21
41.123395
  0
LINE
  8
4
  6
CONTINUOUS
 10
12.813504
 20
41.258395
 11
12.813504
 21
40.988395
  0
LINE
  8
4
  6
CONTINUOUS
 10
12.926004
 20
41.258395
 11
12.926004
 21
40.988395
  0
LINE
  8
4
  6
CONTINUOUS
 10
13.038504
 20
41.258395
 11
13.038504
 21
40.988395
  0
LINE
  8
4
  6
CONTINUOUS
 10
27.602458
 20
41.123395
 11
28.802458
 21
41.123395
  0
LINE
  8
4
  6
CONTINUOUS
 10
28.802458
 20
41.003395
 11
28.802458
 21
41.243395
  0
LINE
  8
4
  6
CONTINUOUS
 10
28.778458
 20
41.003395
 11
28.778458
 21
41.243395
  0
LINE
  8
4
  6
CONTINUOUS
 10
28.754458
 20
41.003395
 11
28.754458
 21
41.243395
  0
POLYLINE
  8
4
  6
CONTINUOUS
 66
     1
  0
VERTEX
  8
4
  6
CONTINUOUS
 10
27.602458
 20
41.123395
  0
VERTEX
  8
4
  6
CONTINUOUS
 10
13.533504
 20
41.123395
  0
SEQEND
  8
4
  6
CONTINUOUS
  0
LINE
  8
4
  6
CONTINUOUS
 10
13.533504
 20
39.803395
 11
12.633504
 21
39.803395
  0
LINE
  8
4
  6
CONTINUOUS
 10
12.633504
 20
39.870895
 11
12.633504
 21
39.735895
  0
LINE
  8
4
  6
CONTINUOUS
 10
12.633504
 20
39.870895
 11
11.733504
 21
39.803395
  0
LINE
  8
4
  6
CONTINUOUS
 10
12.633504
 20
39.735895
 11
11.733504
 21
39.803395
  0
LINE
  8
4
  6
CONTINUOUS
 10
12.813504
 20
39.938395
 11
12.813504
 21
39.668395
  0
LINE
  8
4
  6
CONTINUOUS
 10
12.926004
 20
39.938395
 11
12.926004
 21
39.668395
  0
LINE
  8
4
  6
CONTINUOUS
 10
13.038504
 20
39.938395
 11
13.038504
 21
39.668395
  0
LINE
  8
4
  6
CONTINUOUS
 10
27.602458
 20
39.803395
 11
28.802458
 21
39.803395
  0
LINE
  8
4
  6
CONTINUOUS
 10
28.802458
 20
39.683395
 11
28.802458
 21
39.923395
  0
LINE
  8
4
  6
CONTINUOUS
 10
28.778458
 20
39.683395
 11
28.778458
 21
39.923395
  0
LINE
  8
4
  6
CONTINUOUS
 10
28.754458
 20
39.683395
 11
28.754458
 21
39.923395
  0
POLYLINE
  8
4
  6
CONTINUOUS
 66
     1
  0
VERTEX
  8
4
  6
CONTINUOUS
 10
27.602458
 20
39.803395
  0
VERTEX
  8
4
  6
CONTINUOUS
 10
13.533504
 20
39.803395
  0
SEQEND
  8
4
  6
CONTINUOUS
  0
LINE
  8
4
  6
CONTINUOUS
 10
13.703989
 20
38.443395
 11
12.503989
 21
38.443395
  0
LINE
  8
4
  6
CONTINUOUS
 10
12.503989
 20
38.563395
 11
12.503989
 21
38.323395
  0
LINE
  8
4
  6
CONTINUOUS
 10
12.527989
 20
38.563395
 11
12.527989
 21
38.323395
  0
LINE
  8
4
  6
CONTINUOUS
 10
12.551989
 20
38.563395
 11
12.551989
 21
38.323395
  0
LINE
  8
4
  6
CONTINUOUS
 10
27.783676
 20
38.443395
 11
28.683676
 21
38.443395
  0
LINE
  8
4
  6
CONTINUOUS
 10
28.683676
 20
38.375895
 11
28.683676
 21
38.510895
  0
LINE
  8
4
  6
CONTINUOUS
 10
28.683676
 20
38.375895
 11
29.583676
 21
38.443395
  0
LINE
  8
4
  6
CONTINUOUS
 10
28.683676
 20
38.510895
 11
29.583676
 21
38.443395
  0
LINE
  8
4
  6
CONTINUOUS
 10
28.488675
 20
38.308395
 11
28.488675
 21
38.578395
  0
LINE
  8
4
  6
CONTINUOUS
 10
28.338675
 20
38.308395
 11
28.338675
 21
38.578395
  0
POLYLINE
  8
4
  6
CONTINUOUS
 66
     1
  0
VERTEX
  8
4
  6
CONTINUOUS
 10
13.703989
 20
38.443395
  0
VERTEX
  8
4
  6
CONTINUOUS
 10
27.783676
 20
38.443395
  0
SEQEND
  8
4
  6
CONTINUOUS
  0
LINE
  8
4
  6
CONTINUOUS
 10
13.703989
 20
37.123395
 11
12.503989
 21
37.123395
  0
LINE
  8
4
  6
CONTINUOUS
 10
12.503989
 20
37.243395
 11
12.503989
 21
37.003395
  0
LINE
  8
4
  6
CONTINUOUS
 10
12.527989
 20
37.243395
 11
12.527989
 21
37.003395
  0
LINE
  8
4
  6
CONTINUOUS
 10
12.551989
 20
37.243395
 11
12.551989
 21
37.003395
  0
LINE
  8
4
  6
CONTINUOUS
 10
27.783676
 20
37.123395
 11
28.683676
 21
37.123395
  0
LINE
  8
4
  6
CONTINUOUS
 10
28.683676
 20
37.055895
 11
28.683676
 21
37.190895
  0
LINE
  8
4
  6
CONTINUOUS
 10
28.683676
 20
37.055895
 11
29.583676
 21
37.123395
  0
LINE
  8
4
  6
CONTINUOUS
 10
28.683676
 20
37.190895
 11
29.583676
 21
37.123395
  0
LINE
  8
4
  6
CONTINUOUS
 10
28.488675
 20
36.988395
 11
28.488675
 21
37.258395
  0
LINE
  8
4
  6
CONTINUOUS
 10
28.338675
 20
36.988395
 11
28.338675
 21
37.258395
  0
POLYLINE
  8
4
  6
CONTINUOUS
 66
     1
  0
VERTEX
  8
4
  6
CONTINUOUS
 10
13.703989
 20
37.123395
  0
VERTEX
  8
4
  6
CONTINUOUS
 10
27.783676
 20
37.123395
  0
SEQEND
  8
4
  6
CONTINUOUS
  0
LINE
  8
4
  6
CONTINUOUS
 10
13.703989
 20
35.803395
 11
12.503989
 21
35.803395
  0
LINE
  8
4
  6
CONTINUOUS
 10
12.503989
 20
35.923395
 11
12.503989
 21
35.683395
  0
LINE
  8
4
  6
CONTINUOUS
 10
12.527989
 20
35.923395
 11
12.527989
 21
35.683395
  0
LINE
  8
4
  6
CONTINUOUS
 10
12.551989
 20
35.923395
 11
12.551989
 21
35.683395
  0
LINE
  8
4
  6
CONTINUOUS
 10
27.783676
 20
35.803395
 11
28.683676
 21
35.803395
  0
LINE
  8
4
  6
CONTINUOUS
 10
28.683676
 20
35.735895
 11
28.683676
 21
35.870895
  0
LINE
  8
4
  6
CONTINUOUS
 10
28.683676
 20
35.735895
 11
29.583676
 21
35.803395
  0
LINE
  8
4
  6
CONTINUOUS
 10
28.683676
 20
35.870895
 11
29.583676
 21
35.803395
  0
LINE
  8
4
  6
CONTINUOUS
 10
28.488675
 20
35.668395
 11
28.488675
 21
35.938395
  0
LINE
  8
4
  6
CONTINUOUS
 10
28.338675
 20
35.668395
 11
28.338675
 21
35.938395
  0
POLYLINE
  8
4
  6
CONTINUOUS
 66
     1
  0
VERTEX
  8
4
  6
CONTINUOUS
 10
13.703989
 20
35.803395
  0
VERTEX
  8
4
  6
CONTINUOUS
 10
27.783676
 20
35.803395
  0
SEQEND
  8
4
  6
CONTINUOUS
  0
LINE
  8
4
  6
CONTINUOUS
 10
13.888613
 20
33.959501
 11
12.988613
 21
33.959501
  0
LINE
  8
4
  6
CONTINUOUS
 10
12.988613
 20
34.027001
 11
12.988613
 21
33.892001
  0
LINE
  8
4
  6
CONTINUOUS
 10
12.988613
 20
34.027001
 11
12.088613
 21
33.959501
  0
LINE
  8
4
  6
CONTINUOUS
 10
12.988613
 20
33.892001
 11
12.088613
 21
33.959501
  0
LINE
  8
4
  6
CONTINUOUS
 10
13.183615
 20
34.094501
 11
13.183615
 21
33.824501
  0
LINE
  8
4
  6
CONTINUOUS
 10
13.333614
 20
34.094501
 11
13.333614
 21
33.824501
  0
LINE
  8
4
  6
CONTINUOUS
 10
27.933972
 20
33.959501
 11
29.133972
 21
33.959501
  0
LINE
  8
4
  6
CONTINUOUS
 10
29.133972
 20
33.839501
 11
29.133972
 21
34.079501
  0
LINE
  8
4
  6
CONTINUOUS
 10
29.109972
 20
33.839501
 11
29.109972
 21
34.079501
  0
LINE
  8
4
  6
CONTINUOUS
 10
29.085972
 20
33.839501
 11
29.085972
 21
34.079501
  0
POLYLINE
  8
4
  6
CONTINUOUS
 66
     1
  0
VERTEX
  8
4
  6
CONTINUOUS
 10
27.933972
 20
33.959501
  0
VERTEX
  8
4
  6
CONTINUOUS
 10
13.888613
 20
33.959501
  0
SEQEND
  8
4
  6
CONTINUOUS
  0
LINE
  8
4
  6
CONTINUOUS
 10
13.888613
 20
31.659501
 11
12.988613
 21
31.659501
  0
LINE
  8
4
  6
CONTINUOUS
 10
12.988613
 20
31.727001
 11
12.988613
 21
31.592001
  0
LINE
  8
4
  6
CONTINUOUS
 10
12.988613
 20
31.727001
 11
12.088613
 21
31.659501
  0
LINE
  8
4
  6
CONTINUOUS
 10
12.988613
 20
31.592001
 11
12.088613
 21
31.659501
  0
LINE
  8
4
  6
CONTINUOUS
 10
13.183615
 20
31.794501
 11
13.183615
 21
31.524501
  0
LINE
  8
4
  6
CONTINUOUS
 10
13.333614
 20
31.794501
 11
13.333614
 21
31.524501
  0
LINE
  8
4
  6
CONTINUOUS
 10
27.933972
 20
31.659501
 11
29.133972
 21
31.659501
  0
LINE
  8
4
  6
CONTINUOUS
 10
29.133972
 20
31.539501
 11
29.133972
 21
31.779501
  0
LINE
  8
4
  6
CONTINUOUS
 10
29.109972
 20
31.539501
 11
29.109972
 21
31.779501
  0
LINE
  8
4
  6
CONTINUOUS
 10
29.085972
 20
31.539501
 11
29.085972
 21
31.779501
  0
POLYLINE
  8
4
  6
CONTINUOUS
 66
     1
  0
VERTEX
  8
4
  6
CONTINUOUS
 10
27.933972
 20
31.659501
  0
VERTEX
  8
4
  6
CONTINUOUS
 10
13.888613
 20
31.659501
  0
SEQEND
  8
4
  6
CONTINUOUS
  0
LINE
  8
4
  6
CONTINUOUS
 10
31.118336
 20
67.975591
 11
30.218336
 21
67.975591
  0
LINE
  8
4
  6
CONTINUOUS
 10
30.218336
 20
68.043091
 11
30.218336
 21
67.908091
  0
LINE
  8
4
  6
CONTINUOUS
 10
30.218336
 20
68.043091
 11
29.318336
 21
67.975591
  0
LINE
  8
4
  6
CONTINUOUS
 10
30.218336
 20
67.908091
 11
29.318336
 21
67.975591
  0
LINE
  8
4
  6
CONTINUOUS
 10
30.413338
 20
68.110591
 11
30.413338
 21
67.840591
  0
LINE
  8
4
  6
CONTINUOUS
 10
30.563337
 20
68.110591
 11
30.563337
 21
67.840591
  0
LINE
  8
4
  6
CONTINUOUS
 10
50.056962
 20
67.975591
 11
51.256962
 21
67.975591
  0
LINE
  8
4
  6
CONTINUOUS
 10
51.256962
 20
67.855591
 11
51.256962
 21
68.095591
  0
LINE
  8
4
  6
CONTINUOUS
 10
51.232962
 20
67.855591
 11
51.232962
 21
68.095591
  0
LINE
  8
4
  6
CONTINUOUS
 10
51.208962
 20
67.855591
 11
51.208962
 21
68.095591
  0
POLYLINE
  8
4
  6
CONTINUOUS
 66
     1
  0
VERTEX
  8
4
  6
CONTINUOUS
 10
50.056962
 20
67.975591
  0
VERTEX
  8
4
  6
CONTINUOUS
 10
31.118336
 20
67.975591
  0
SEQEND
  8
4
  6
CONTINUOUS
  0
LINE
  8
4
  6
CONTINUOUS
 10
31.118336
 20
66.595591
 11
30.218336
 21
66.595591
  0
LINE
  8
4
  6
CONTINUOUS
 10
30.218336
 20
66.663091
 11
30.218336
 21
66.528091
  0
LINE
  8
4
  6
CONTINUOUS
 10
30.218336
 20
66.663091
 11
29.318336
 21
66.595591
  0
LINE
  8
4
  6
CONTINUOUS
 10
30.218336
 20
66.528091
 11
29.318336
 21
66.595591
  0
LINE
  8
4
  6
CONTINUOUS
 10
30.413338
 20
66.730591
 11
30.413338
 21
66.460591
  0
LINE
  8
4
  6
CONTINUOUS
 10
30.563337
 20
66.730591
 11
30.563337
 21
66.460591
  0
LINE
  8
4
  6
CONTINUOUS
 10
50.056962
 20
66.595591
 11
51.256962
 21
66.595591
  0
LINE
  8
4
  6
CONTINUOUS
 10
51.256962
 20
66.475591
 11
51.256962
 21
66.715591
  0
LINE
  8
4
  6
CONTINUOUS
 10
51.232962
 20
66.475591
 11
51.232962
 21
66.715591
  0
LINE
  8
4
  6
CONTINUOUS
 10
51.208962
 20
66.475591
 11
51.208962
 21
66.715591
  0
POLYLINE
  8
4
  6
CONTINUOUS
 66
     1
  0
VERTEX
  8
4
  6
CONTINUOUS
 10
50.056962
 20
66.595591
  0
VERTEX
  8
4
  6
CONTINUOUS
 10
31.118336
 20
66.595591
  0
SEQEND
  8
4
  6
CONTINUOUS
  0
LINE
  8
4
  6
CONTINUOUS
 10
31.118336
 20
65.215591
 11
30.218336
 21
65.215591
  0
LINE
  8
4
  6
CONTINUOUS
 10
30.218336
 20
65.283091
 11
30.218336
 21
65.148091
  0
LINE
  8
4
  6
CONTINUOUS
 10
30.218336
 20
65.283091
 11
29.318336
 21
65.215591
  0
LINE
  8
4
  6
CONTINUOUS
 10
30.218336
 20
65.148091
 11
29.318336
 21
65.215591
  0
LINE
  8
4
  6
CONTINUOUS
 10
30.413338
 20
65.350591
 11
30.413338
 21
65.080591
  0
LINE
  8
4
  6
CONTINUOUS
 10
30.563337
 20
65.350591
 11
30.563337
 21
65.080591
  0
LINE
  8
4
  6
CONTINUOUS
 10
50.056962
 20
65.215591
 11
51.256962
 21
65.215591
  0
LINE
  8
4
  6
CONTINUOUS
 10
51.256962
 20
65.095591
 11
51.256962
 21
65.335591
  0
LINE
  8
4
  6
CONTINUOUS
 10
51.232962
 20
65.095591
 11
51.232962
 21
65.335591
  0
LINE
  8
4
  6
CONTINUOUS
 10
51.208962
 20
65.095591
 11
51.208962
 21
65.335591
  0
POLYLINE
  8
4
  6
CONTINUOUS
 66
     1
  0
VERTEX
  8
4
  6
CONTINUOUS
 10
50.056962
 20
65.215591
  0
VERTEX
  8
4
  6
CONTINUOUS
 10
31.118336
 20
65.215591
  0
SEQEND
  8
4
  6
CONTINUOUS
  0
LINE
  8
4
  6
CONTINUOUS
 10
31.118336
 20
63.835591
 11
30.218336
 21
63.835591
  0
LINE
  8
4
  6
CONTINUOUS
 10
30.218336
 20
63.903091
 11
30.218336
 21
63.768091
  0
LINE
  8
4
  6
CONTINUOUS
 10
30.218336
 20
63.903091
 11
29.318336
 21
63.835591
  0
LINE
  8
4
  6
CONTINUOUS
 10
30.218336
 20
63.768091
 11
29.318336
 21
63.835591
  0
LINE
  8
4
  6
CONTINUOUS
 10
30.413338
 20
63.970591
 11
30.413338
 21
63.700591
  0
LINE
  8
4
  6
CONTINUOUS
 10
30.563337
 20
63.970591
 11
30.563337
 21
63.700591
  0
LINE
  8
4
  6
CONTINUOUS
 10
50.056962
 20
63.835591
 11
51.256962
 21
63.835591
  0
LINE
  8
4
  6
CONTINUOUS
 10
51.256962
 20
63.715591
 11
51.256962
 21
63.955591
  0
LINE
  8
4
  6
CONTINUOUS
 10
51.232962
 20
63.715591
 11
51.232962
 21
63.955591
  0
LINE
  8
4
  6
CONTINUOUS
 10
51.208962
 20
63.715591
 11
51.208962
 21
63.955591
  0
POLYLINE
  8
4
  6
CONTINUOUS
 66
     1
  0
VERTEX
  8
4
  6
CONTINUOUS
 10
50.056962
 20
63.835591
  0
VERTEX
  8
4
  6
CONTINUOUS
 10
31.118336
 20
63.835591
  0
SEQEND
  8
4
  6
CONTINUOUS
  0
LINE
  8
4
  6
CONTINUOUS
 10
31.194337
 20
62.443395
 11
29.994337
 21
62.443395
  0
LINE
  8
4
  6
CONTINUOUS
 10
29.994337
 20
62.563395
 11
29.994337
 21
62.323395
  0
LINE
  8
4
  6
CONTINUOUS
 10
30.018337
 20
62.563395
 11
30.018337
 21
62.323395
  0
LINE
  8
4
  6
CONTINUOUS
 10
30.042337
 20
62.563395
 11
30.042337
 21
62.323395
  0
LINE
  8
4
  6
CONTINUOUS
 10
49.613120
 20
62.443395
 11
50.513120
 21
62.443395
  0
LINE
  8
4
  6
CONTINUOUS
 10
50.063120
 20
62.308395
 11
50.063120
 21
62.578395
  0
LINE
  8
4
  6
CONTINUOUS
 10
50.153120
 20
62.308395
 11
50.153120
 21
62.578395
  0
LINE
  8
4
  6
CONTINUOUS
 10
50.243120
 20
62.308395
 11
50.243120
 21
62.578395
  0
LINE
  8
4
  6
CONTINUOUS
 10
50.333120
 20
62.308395
 11
50.333120
 21
62.578395
  0
LINE
  8
4
  6
CONTINUOUS
 10
50.513120
 20
62.375895
 11
50.513120
 21
62.510895
  0
LINE
  8
4
  6
CONTINUOUS
 10
50.513120
 20
62.375895
 11
51.413120
 21
62.443395
  0
LINE
  8
4
  6
CONTINUOUS
 10
50.513120
 20
62.510895
 11
51.413120
 21
62.443395
  0
POLYLINE
  8
4
  6
CONTINUOUS
 66
     1
  0
VERTEX
  8
4
  6
CONTINUOUS
 10
31.194337
 20
62.443395
  0
VERTEX
  8
4
  6
CONTINUOUS
 10
49.613120
 20
62.443395
  0
SEQEND
  8
4
  6
CONTINUOUS
  0
LINE
  8
4
  6
CONTINUOUS
 10
31.194337
 20
61.123395
 11
29.994337
 21
61.123395
  0
LINE
  8
4
  6
CONTINUOUS
 10
29.994337
 20
61.243395
 11
29.994337
 21
61.003395
  0
LINE
  8
4
  6
CONTINUOUS
 10
30.018337
 20
61.243395
 11
30.018337
 21
61.003395
  0
LINE
  8
4
  6
CONTINUOUS
 10
30.042337
 20
61.243395
 11
30.042337
 21
61.003395
  0
LINE
  8
4
  6
CONTINUOUS
 10
49.613120
 20
61.123395
 11
50.513120
 21
61.123395
  0
LINE
  8
4
  6
CONTINUOUS
 10
50.063120
 20
60.988395
 11
50.063120
 21
61.258395
  0
LINE
  8
4
  6
CONTINUOUS
 10
50.153120
 20
60.988395
 11
50.153120
 21
61.258395
  0
LINE
  8
4
  6
CONTINUOUS
 10
50.243120
 20
60.988395
 11
50.243120
 21
61.258395
  0
LINE
  8
4
  6
CONTINUOUS
 10
50.333120
 20
60.988395
 11
50.333120
 21
61.258395
  0
LINE
  8
4
  6
CONTINUOUS
 10
50.513120
 20
61.055895
 11
50.513120
 21
61.190895
  0
LINE
  8
4
  6
CONTINUOUS
 10
50.513120
 20
61.055895
 11
51.413120
 21
61.123395
  0
LINE
  8
4
  6
CONTINUOUS
 10
50.513120
 20
61.190895
 11
51.413120
 21
61.123395
  0
POLYLINE
  8
4
  6
CONTINUOUS
 66
     1
  0
VERTEX
  8
4
  6
CONTINUOUS
 10
31.194337
 20
61.123395
  0
VERTEX
  8
4
  6
CONTINUOUS
 10
49.613120
 20
61.123395
  0
SEQEND
  8
4
  6
CONTINUOUS
  0
LINE
  8
4
  6
CONTINUOUS
 10
31.194337
 20
59.803395
 11
29.994337
 21
59.803395
  0
LINE
  8
4
  6
CONTINUOUS
 10
29.994337
 20
59.923395
 11
29.994337
 21
59.683395
  0
LINE
  8
4
  6
CONTINUOUS
 10
30.018337
 20
59.923395
 11
30.018337
 21
59.683395
  0
LINE
  8
4
  6
CONTINUOUS
 10
30.042337
 20
59.923395
 11
30.042337
 21
59.683395
  0
LINE
  8
4
  6
CONTINUOUS
 10
49.613120
 20
59.803395
 11
50.513120
 21
59.803395
  0
LINE
  8
4
  6
CONTINUOUS
 10
50.063120
 20
59.668395
 11
50.063120
 21
59.938395
  0
LINE
  8
4
  6
CONTINUOUS
 10
50.153120
 20
59.668395
 11
50.153120
 21
59.938395
  0
LINE
  8
4
  6
CONTINUOUS
 10
50.243120
 20
59.668395
 11
50.243120
 21
59.938395
  0
LINE
  8
4
  6
CONTINUOUS
 10
50.333120
 20
59.668395
 11
50.333120
 21
59.938395
  0
LINE
  8
4
  6
CONTINUOUS
 10
50.513120
 20
59.735895
 11
50.513120
 21
59.870895
  0
LINE
  8
4
  6
CONTINUOUS
 10
50.513120
 20
59.735895
 11
51.413120
 21
59.803395
  0
LINE
  8
4
  6
CONTINUOUS
 10
50.513120
 20
59.870895
 11
51.413120
 21
59.803395
  0
POLYLINE
  8
4
  6
CONTINUOUS
 66
     1
  0
VERTEX
  8
4
  6
CONTINUOUS
 10
31.194337
 20
59.803395
  0
VERTEX
  8
4
  6
CONTINUOUS
 10
49.613120
 20
59.803395
  0
SEQEND
  8
4
  6
CONTINUOUS
  0
LINE
  8
4
  6
CONTINUOUS
 10
31.463076
 20
58.623395
 11
30.563076
 21
58.623395
  0
LINE
  8
4
  6
CONTINUOUS
 10
31.013076
 20
58.758395
 11
31.013076
 21
58.488395
  0
LINE
  8
4
  6
CONTINUOUS
 10
30.923076
 20
58.758395
 11
30.923076
 21
58.488395
  0
LINE
  8
4
  6
CONTINUOUS
 10
30.833076
 20
58.758395
 11
30.833076
 21
58.488395
  0
LINE
  8
4
  6
CONTINUOUS
 10
30.743076
 20
58.758395
 11
30.743076
 21
58.488395
  0
LINE
  8
4
  6
CONTINUOUS
 10
30.563076
 20
58.690895
 11
30.563076
 21
58.555895
  0
LINE
  8
4
  6
CONTINUOUS
 10
30.563076
 20
58.690895
 11
29.663076
 21
58.623395
  0
LINE
  8
4
  6
CONTINUOUS
 10
30.563076
 20
58.555895
 11
29.663076
 21
58.623395
  0
LINE
  8
4
  6
CONTINUOUS
 10
49.348543
 20
58.623395
 11
50.548543
 21
58.623395
  0
LINE
  8
4
  6
CONTINUOUS
 10
50.548543
 20
58.503395
 11
50.548543
 21
58.743395
  0
LINE
  8
4
  6
CONTINUOUS
 10
50.524543
 20
58.503395
 11
50.524543
 21
58.743395
  0
LINE
  8
4
  6
CONTINUOUS
 10
50.500543
 20
58.503395
 11
50.500543
 21
58.743395
  0
POLYLINE
  8
4
  6
CONTINUOUS
 66
     1
  0
VERTEX
  8
4
  6
CONTINUOUS
 10
49.348543
 20
58.623395
  0
VERTEX
  8
4
  6
CONTINUOUS
 10
31.463076
 20
58.623395
  0
SEQEND
  8
4
  6
CONTINUOUS
  0
LINE
  8
4
  6
CONTINUOUS
 10
31.463076
 20
57.623395
 11
30.563076
 21
57.623395
  0
LINE
  8
4
  6
CONTINUOUS
 10
31.013076
 20
57.758395
 11
31.013076
 21
57.488395
  0
LINE
  8
4
  6
CONTINUOUS
 10
30.923076
 20
57.758395
 11
30.923076
 21
57.488395
  0
LINE
  8
4
  6
CONTINUOUS
 10
30.833076
 20
57.758395
 11
30.833076
 21
57.488395
  0
LINE
  8
4
  6
CONTINUOUS
 10
30.743076
 20
57.758395
 11
30.743076
 21
57.488395
  0
LINE
  8
4
  6
CONTINUOUS
 10
30.563076
 20
57.690895
 11
30.563076
 21
57.555895
  0
LINE
  8
4
  6
CONTINUOUS
 10
30.563076
 20
57.690895
 11
29.663076
 21
57.623395
  0
LINE
  8
4
  6
CONTINUOUS
 10
30.563076
 20
57.555895
 11
29.663076
 21
57.623395
  0
LINE
  8
4
  6
CONTINUOUS
 10
49.348543
 20
57.623395
 11
50.548543
 21
57.623395
  0
LINE
  8
4
  6
CONTINUOUS
 10
50.548543
 20
57.503395
 11
50.548543
 21
57.743395
  0
LINE
  8
4
  6
CONTINUOUS
 10
50.524543
 20
57.503395
 11
50.524543
 21
57.743395
  0
LINE
  8
4
  6
CONTINUOUS
 10
50.500543
 20
57.503395
 11
50.500543
 21
57.743395
  0
POLYLINE
  8
4
  6
CONTINUOUS
 66
     1
  0
VERTEX
  8
4
  6
CONTINUOUS
 10
49.348543
 20
57.623395
  0
VERTEX
  8
4
  6
CONTINUOUS
 10
31.463076
 20
57.623395
  0
SEQEND
  8
4
  6
CONTINUOUS
  0
LINE
  8
4
  6
CONTINUOUS
 10
31.463076
 20
56.623395
 11
30.563076
 21
56.623395
  0
LINE
  8
4
  6
CONTINUOUS
 10
31.013076
 20
56.758395
 11
31.013076
 21
56.488395
  0
LINE
  8
4
  6
CONTINUOUS
 10
30.923076
 20
56.758395
 11
30.923076
 21
56.488395
  0
LINE
  8
4
  6
CONTINUOUS
 10
30.833076
 20
56.758395
 11
30.833076
 21
56.488395
  0
LINE
  8
4
  6
CONTINUOUS
 10
30.743076
 20
56.758395
 11
30.743076
 21
56.488395
  0
LINE
  8
4
  6
CONTINUOUS
 10
30.563076
 20
56.690895
 11
30.563076
 21
56.555895
  0
LINE
  8
4
  6
CONTINUOUS
 10
30.563076
 20
56.690895
 11
29.663076
 21
56.623395
  0
LINE
  8
4
  6
CONTINUOUS
 10
30.563076
 20
56.555895
 11
29.663076
 21
56.623395
  0
LINE
  8
4
  6
CONTINUOUS
 10
49.348543
 20
56.623395
 11
50.548543
 21
56.623395
  0
LINE
  8
4
  6
CONTINUOUS
 10
50.548543
 20
56.503395
 11
50.548543
 21
56.743395
  0
LINE
  8
4
  6
CONTINUOUS
 10
50.524543
 20
56.503395
 11
50.524543
 21
56.743395
  0
LINE
  8
4
  6
CONTINUOUS
 10
50.500543
 20
56.503395
 11
50.500543
 21
56.743395
  0
POLYLINE
  8
4
  6
CONTINUOUS
 66
     1
  0
VERTEX
  8
4
  6
CONTINUOUS
 10
49.348543
 20
56.623395
  0
VERTEX
  8
4
  6
CONTINUOUS
 10
31.463076
 20
56.623395
  0
SEQEND
  8
4
  6
CONTINUOUS
  0
LINE
  8
4
  6
CONTINUOUS
 10
31.463076
 20
55.623395
 11
30.563076
 21
55.623395
  0
LINE
  8
4
  6
CONTINUOUS
 10
31.013076
 20
55.758395
 11
31.013076
 21
55.488395
  0
LINE
  8
4
  6
CONTINUOUS
 10
30.923076
 20
55.758395
 11
30.923076
 21
55.488395
  0
LINE
  8
4
  6
CONTINUOUS
 10
30.833076
 20
55.758395
 11
30.833076
 21
55.488395
  0
LINE
  8
4
  6
CONTINUOUS
 10
30.743076
 20
55.758395
 11
30.743076
 21
55.488395
  0
LINE
  8
4
  6
CONTINUOUS
 10
30.563076
 20
55.690895
 11
30.563076
 21
55.555895
  0
LINE
  8
4
  6
CONTINUOUS
 10
30.563076
 20
55.690895
 11
29.663076
 21
55.623395
  0
LINE
  8
4
  6
CONTINUOUS
 10
30.563076
 20
55.555895
 11
29.663076
 21
55.623395
  0
LINE
  8
4
  6
CONTINUOUS
 10
49.348543
 20
55.623395
 11
50.548543
 21
55.623395
  0
LINE
  8
4
  6
CONTINUOUS
 10
50.548543
 20
55.503395
 11
50.548543
 21
55.743395
  0
LINE
  8
4
  6
CONTINUOUS
 10
50.524543
 20
55.503395
 11
50.524543
 21
55.743395
  0
LINE
  8
4
  6
CONTINUOUS
 10
50.500543
 20
55.503395
 11
50.500543
 21
55.743395
  0
POLYLINE
  8
4
  6
CONTINUOUS
 66
     1
  0
VERTEX
  8
4
  6
CONTINUOUS
 10
49.348543
 20
55.623395
  0
VERTEX
  8
4
  6
CONTINUOUS
 10
31.463076
 20
55.623395
  0
SEQEND
  8
4
  6
CONTINUOUS
  0
LINE
  8
4
  6
CONTINUOUS
 10
31.801462
 20
50.623395
 11
30.901462
 21
50.623395
  0
LINE
  8
4
  6
CONTINUOUS
 10
31.351462
 20
50.758395
 11
31.351462
 21
50.488395
  0
LINE
  8
4
  6
CONTINUOUS
 10
31.261462
 20
50.758395
 11
31.261462
 21
50.488395
  0
LINE
  8
4
  6
CONTINUOUS
 10
31.171462
 20
50.758395
 11
31.171462
 21
50.488395
  0
LINE
  8
4
  6
CONTINUOUS
 10
31.081462
 20
50.758395
 11
31.081462
 21
50.488395
  0
LINE
  8
4
  6
CONTINUOUS
 10
30.901462
 20
50.690895
 11
30.901462
 21
50.555895
  0
LINE
  8
4
  6
CONTINUOUS
 10
30.901462
 20
50.690895
 11
30.001462
 21
50.623395
  0
LINE
  8
4
  6
CONTINUOUS
 10
30.901462
 20
50.555895
 11
30.001462
 21
50.623395
  0
LINE
  8
4
  6
CONTINUOUS
 10
48.639227
 20
50.623395
 11
49.839227
 21
50.623395
  0
LINE
  8
4
  6
CONTINUOUS
 10
49.839227
 20
50.503395
 11
49.839227
 21
50.743395
  0
LINE
  8
4
  6
CONTINUOUS
 10
49.815227
 20
50.503395
 11
49.815227
 21
50.743395
  0
LINE
  8
4
  6
CONTINUOUS
 10
49.791227
 20
50.503395
 11
49.791227
 21
50.743395
  0
POLYLINE
  8
4
  6
CONTINUOUS
 66
     1
  0
VERTEX
  8
4
  6
CONTINUOUS
 10
48.639227
 20
50.623395
  0
VERTEX
  8
4
  6
CONTINUOUS
 10
31.801462
 20
50.623395
  0
SEQEND
  8
4
  6
CONTINUOUS
  0
LINE
  8
4
  6
CONTINUOUS
 10
31.801462
 20
49.623395
 11
30.901462
 21
49.623395
  0
LINE
  8
4
  6
CONTINUOUS
 10
31.351462
 20
49.758395
 11
31.351462
 21
49.488395
  0
LINE
  8
4
  6
CONTINUOUS
 10
31.261462
 20
49.758395
 11
31.261462
 21
49.488395
  0
LINE
  8
4
  6
CONTINUOUS
 10
31.171462
 20
49.758395
 11
31.171462
 21
49.488395
  0
LINE
  8
4
  6
CONTINUOUS
 10
31.081462
 20
49.758395
 11
31.081462
 21
49.488395
  0
LINE
  8
4
  6
CONTINUOUS
 10
30.901462
 20
49.690895
 11
30.901462
 21
49.555895
  0
LINE
  8
4
  6
CONTINUOUS
 10
30.901462
 20
49.690895
 11
30.001462
 21
49.623395
  0
LINE
  8
4
  6
CONTINUOUS
 10
30.901462
 20
49.555895
 11
30.001462
 21
49.623395
  0
LINE
  8
4
  6
CONTINUOUS
 10
48.639227
 20
49.623395
 11
49.839227
 21
49.623395
  0
LINE
  8
4
  6
CONTINUOUS
 10
49.839227
 20
49.503395
 11
49.839227
 21
49.743395
  0
LINE
  8
4
  6
CONTINUOUS
 10
49.815227
 20
49.503395
 11
49.815227
 21
49.743395
  0
LINE
  8
4
  6
CONTINUOUS
 10
49.791227
 20
49.503395
 11
49.791227
 21
49.743395
  0
POLYLINE
  8
4
  6
CONTINUOUS
 66
     1
  0
VERTEX
  8
4
  6
CONTINUOUS
 10
48.639227
 20
49.623395
  0
VERTEX
  8
4
  6
CONTINUOUS
 10
31.801462
 20
49.623395
  0
SEQEND
  8
4
  6
CONTINUOUS
  0
LINE
  8
4
  6
CONTINUOUS
 10
31.801462
 20
48.623395
 11
30.901462
 21
48.623395
  0
LINE
  8
4
  6
CONTINUOUS
 10
31.351462
 20
48.758395
 11
31.351462
 21
48.488395
  0
LINE
  8
4
  6
CONTINUOUS
 10
31.261462
 20
48.758395
 11
31.261462
 21
48.488395
  0
LINE
  8
4
  6
CONTINUOUS
 10
31.171462
 20
48.758395
 11
31.171462
 21
48.488395
  0
LINE
  8
4
  6
CONTINUOUS
 10
31.081462
 20
48.758395
 11
31.081462
 21
48.488395
  0
LINE
  8
4
  6
CONTINUOUS
 10
30.901462
 20
48.690895
 11
30.901462
 21
48.555895
  0
LINE
  8
4
  6
CONTINUOUS
 10
30.901462
 20
48.690895
 11
30.001462
 21
48.623395
  0
LINE
  8
4
  6
CONTINUOUS
 10
30.901462
 20
48.555895
 11
30.001462
 21
48.623395
  0
LINE
  8
4
  6
CONTINUOUS
 10
48.639227
 20
48.623395
 11
49.839227
 21
48.623395
  0
LINE
  8
4
  6
CONTINUOUS
 10
49.839227
 20
48.503395
 11
49.839227
 21
48.743395
  0
LINE
  8
4
  6
CONTINUOUS
 10
49.815227
 20
48.503395
 11
49.815227
 21
48.743395
  0
LINE
  8
4
  6
CONTINUOUS
 10
49.791227
 20
48.503395
 11
49.791227
 21
48.743395
  0
POLYLINE
  8
4
  6
CONTINUOUS
 66
     1
  0
VERTEX
  8
4
  6
CONTINUOUS
 10
48.639227
 20
48.623395
  0
VERTEX
  8
4
  6
CONTINUOUS
 10
31.801462
 20
48.623395
  0
SEQEND
  8
4
  6
CONTINUOUS
  0
LINE
  8
4
  6
CONTINUOUS
 10
31.801462
 20
47.623395
 11
30.901462
 21
47.623395
  0
LINE
  8
4
  6
CONTINUOUS
 10
31.351462
 20
47.758395
 11
31.351462
 21
47.488395
  0
LINE
  8
4
  6
CONTINUOUS
 10
31.261462
 20
47.758395
 11
31.261462
 21
47.488395
  0
LINE
  8
4
  6
CONTINUOUS
 10
31.171462
 20
47.758395
 11
31.171462
 21
47.488395
  0
LINE
  8
4
  6
CONTINUOUS
 10
31.081462
 20
47.758395
 11
31.081462
 21
47.488395
  0
LINE
  8
4
  6
CONTINUOUS
 10
30.901462
 20
47.690895
 11
30.901462
 21
47.555895
  0
LINE
  8
4
  6
CONTINUOUS
 10
30.901462
 20
47.690895
 11
30.001462
 21
47.623395
  0
LINE
  8
4
  6
CONTINUOUS
 10
30.901462
 20
47.555895
 11
30.001462
 21
47.623395
  0
LINE
  8
4
  6
CONTINUOUS
 10
48.639227
 20
47.623395
 11
49.839227
 21
47.623395
  0
LINE
  8
4
  6
CONTINUOUS
 10
49.839227
 20
47.503395
 11
49.839227
 21
47.743395
  0
LINE
  8
4
  6
CONTINUOUS
 10
49.815227
 20
47.503395
 11
49.815227
 21
47.743395
  0
LINE
  8
4
  6
CONTINUOUS
 10
49.791227
 20
47.503395
 11
49.791227
 21
47.743395
  0
POLYLINE
  8
4
  6
CONTINUOUS
 66
     1
  0
VERTEX
  8
4
  6
CONTINUOUS
 10
48.639227
 20
47.623395
  0
VERTEX
  8
4
  6
CONTINUOUS
 10
31.801462
 20
47.623395
  0
SEQEND
  8
4
  6
CONTINUOUS
  0
LINE
  8
4
  6
CONTINUOUS
 10
32.145878
 20
42.723395
 11
31.245878
 21
42.723395
  0
LINE
  8
4
  6
CONTINUOUS
 10
31.245878
 20
42.790895
 11
31.245878
 21
42.655895
  0
LINE
  8
4
  6
CONTINUOUS
 10
31.245878
 20
42.790895
 11
30.345878
 21
42.723395
  0
LINE
  8
4
  6
CONTINUOUS
 10
31.245878
 20
42.655895
 11
30.345878
 21
42.723395
  0
LINE
  8
4
  6
CONTINUOUS
 10
31.425878
 20
42.858395
 11
31.425878
 21
42.588395
  0
LINE
  8
4
  6
CONTINUOUS
 10
31.538378
 20
42.858395
 11
31.538378
 21
42.588395
  0
LINE
  8
4
  6
CONTINUOUS
 10
31.650878
 20
42.858395
 11
31.650878
 21
42.588395
  0
LINE
  8
4
  6
CONTINUOUS
 10
47.931730
 20
42.723395
 11
49.131730
 21
42.723395
  0
LINE
  8
4
  6
CONTINUOUS
 10
49.131730
 20
42.603395
 11
49.131730
 21
42.843395
  0
LINE
  8
4
  6
CONTINUOUS
 10
49.107730
 20
42.603395
 11
49.107730
 21
42.843395
  0
LINE
  8
4
  6
CONTINUOUS
 10
49.083730
 20
42.603395
 11
49.083730
 21
42.843395
  0
POLYLINE
  8
4
  6
CONTINUOUS
 66
     1
  0
VERTEX
  8
4
  6
CONTINUOUS
 10
47.931730
 20
42.723395
  0
VERTEX
  8
4
  6
CONTINUOUS
 10
32.145878
 20
42.723395
  0
SEQEND
  8
4
  6
CONTINUOUS
  0
LINE
  8
4
  6
CONTINUOUS
 10
32.145878
 20
41.923395
 11
31.245878
 21
41.923395
  0
LINE
  8
4
  6
CONTINUOUS
 10
31.245878
 20
41.990895
 11
31.245878
 21
41.855895
  0
LINE
  8
4
  6
CONTINUOUS
 10
31.245878
 20
41.990895
 11
30.345878
 21
41.923395
  0
LINE
  8
4
  6
CONTINUOUS
 10
31.245878
 20
41.855895
 11
30.345878
 21
41.923395
  0
LINE
  8
4
  6
CONTINUOUS
 10
31.425878
 20
42.058395
 11
31.425878
 21
41.788395
  0
LINE
  8
4
  6
CONTINUOUS
 10
31.538378
 20
42.058395
 11
31.538378
 21
41.788395
  0
LINE
  8
4
  6
CONTINUOUS
 10
31.650878
 20
42.058395
 11
31.650878
 21
41.788395
  0
LINE
  8
4
  6
CONTINUOUS
 10
47.931730
 20
41.923395
 11
49.131730
 21
41.923395
  0
LINE
  8
4
  6
CONTINUOUS
 10
49.131730
 20
41.803395
 11
49.131730
 21
42.043395
  0
LINE
  8
4
  6
CONTINUOUS
 10
49.107730
 20
41.803395
 11
49.107730
 21
42.043395
  0
LINE
  8
4
  6
CONTINUOUS
 10
49.083730
 20
41.803395
 11
49.083730
 21
42.043395
  0
POLYLINE
  8
4
  6
CONTINUOUS
 66
     1
  0
VERTEX
  8
4
  6
CONTINUOUS
 10
47.931730
 20
41.923395
  0
VERTEX
  8
4
  6
CONTINUOUS
 10
32.145878
 20
41.923395
  0
SEQEND
  8
4
  6
CONTINUOUS
  0
LINE
  8
4
  6
CONTINUOUS
 10
32.145878
 20
41.123395
 11
31.245878
 21
41.123395
  0
LINE
  8
4
  6
CONTINUOUS
 10
31.245878
 20
41.190895
 11
31.245878
 21
41.055895
  0
LINE
  8
4
  6
CONTINUOUS
 10
31.245878
 20
41.190895
 11
30.345878
 21
41.123395
  0
LINE
  8
4
  6
CONTINUOUS
 10
31.245878
 20
41.055895
 11
30.345878
 21
41.123395
  0
LINE
  8
4
  6
CONTINUOUS
 10
31.425878
 20
41.258395
 11
31.425878
 21
40.988395
  0
LINE
  8
4
  6
CONTINUOUS
 10
31.538378
 20
41.258395
 11
31.538378
 21
40.988395
  0
LINE
  8
4
  6
CONTINUOUS
 10
31.650878
 20
41.258395
 11
31.650878
 21
40.988395
  0
LINE
  8
4
  6
CONTINUOUS
 10
47.931730
 20
41.123395
 11
49.131730
 21
41.123395
  0
LINE
  8
4
  6
CONTINUOUS
 10
49.131730
 20
41.003395
 11
49.131730
 21
41.243395
  0
LINE
  8
4
  6
CONTINUOUS
 10
49.107730
 20
41.003395
 11
49.107730
 21
41.243395
  0
LINE
  8
4
  6
CONTINUOUS
 10
49.083730
 20
41.003395
 11
49.083730
 21
41.243395
  0
POLYLINE
  8
4
  6
CONTINUOUS
 66
     1
  0
VERTEX
  8
4
  6
CONTINUOUS
 10
47.931730
 20
41.123395
  0
VERTEX
  8
4
  6
CONTINUOUS
 10
32.145878
 20
41.123395
  0
SEQEND
  8
4
  6
CONTINUOUS
  0
LINE
  8
4
  6
CONTINUOUS
 10
32.145878
 20
40.323395
 11
31.245878
 21
40.323395
  0
LINE
  8
4
  6
CONTINUOUS
 10
31.245878
 20
40.390895
 11
31.245878
 21
40.255895
  0
LINE
  8
4
  6
CONTINUOUS
 10
31.245878
 20
40.390895
 11
30.345878
 21
40.323395
  0
LINE
  8
4
  6
CONTINUOUS
 10
31.245878
 20
40.255895
 11
30.345878
 21
40.323395
  0
LINE
  8
4
  6
CONTINUOUS
 10
31.425878
 20
40.458395
 11
31.425878
 21
40.188395
  0
LINE
  8
4
  6
CONTINUOUS
 10
31.538378
 20
40.458395
 11
31.538378
 21
40.188395
  0
LINE
  8
4
  6
CONTINUOUS
 10
31.650878
 20
40.458395
 11
31.650878
 21
40.188395
  0
LINE
  8
4
  6
CONTINUOUS
 10
47.931730
 20
40.323395
 11
49.131730
 21
40.323395
  0
LINE
  8
4
  6
CONTINUOUS
 10
49.131730
 20
40.203395
 11
49.131730
 21
40.443395
  0
LINE
  8
4
  6
CONTINUOUS
 10
49.107730
 20
40.203395
 11
49.107730
 21
40.443395
  0
LINE
  8
4
  6
CONTINUOUS
 10
49.083730
 20
40.203395
 11
49.083730
 21
40.443395
  0
POLYLINE
  8
4
  6
CONTINUOUS
 66
     1
  0
VERTEX
  8
4
  6
CONTINUOUS
 10
47.931730
 20
40.323395
  0
VERTEX
  8
4
  6
CONTINUOUS
 10
32.145878
 20
40.323395
  0
SEQEND
  8
4
  6
CONTINUOUS
  0
LINE
  8
4
  6
CONTINUOUS
 10
32.145878
 20
39.523395
 11
31.245878
 21
39.523395
  0
LINE
  8
4
  6
CONTINUOUS
 10
31.245878
 20
39.590895
 11
31.245878
 21
39.455895
  0
LINE
  8
4
  6
CONTINUOUS
 10
31.245878
 20
39.590895
 11
30.345878
 21
39.523395
  0
LINE
  8
4
  6
CONTINUOUS
 10
31.245878
 20
39.455895
 11
30.345878
 21
39.523395
  0
LINE
  8
4
  6
CONTINUOUS
 10
31.425878
 20
39.658395
 11
31.425878
 21
39.388395
  0
LINE
  8
4
  6
CONTINUOUS
 10
31.538378
 20
39.658395
 11
31.538378
 21
39.388395
  0
LINE
  8
4
  6
CONTINUOUS
 10
31.650878
 20
39.658395
 11
31.650878
 21
39.388395
  0
LINE
  8
4
  6
CONTINUOUS
 10
47.931730
 20
39.523395
 11
49.131730
 21
39.523395
  0
LINE
  8
4
  6
CONTINUOUS
 10
49.131730
 20
39.403395
 11
49.131730
 21
39.643395
  0
LINE
  8
4
  6
CONTINUOUS
 10
49.107730
 20
39.403395
 11
49.107730
 21
39.643395
  0
LINE
  8
4
  6
CONTINUOUS
 10
49.083730
 20
39.403395
 11
49.083730
 21
39.643395
  0
POLYLINE
  8
4
  6
CONTINUOUS
 66
     1
  0
VERTEX
  8
4
  6
CONTINUOUS
 10
47.931730
 20
39.523395
  0
VERTEX
  8
4
  6
CONTINUOUS
 10
32.145878
 20
39.523395
  0
SEQEND
  8
4
  6
CONTINUOUS
  0
LINE
  8
4
  6
CONTINUOUS
 10
32.486328
 20
34.443395
 11
31.586328
 21
34.443395
  0
LINE
  8
4
  6
CONTINUOUS
 10
32.036328
 20
34.578395
 11
32.036328
 21
34.308395
  0
LINE
  8
4
  6
CONTINUOUS
 10
31.946328
 20
34.578395
 11
31.946328
 21
34.308395
  0
LINE
  8
4
  6
CONTINUOUS
 10
31.856328
 20
34.578395
 11
31.856328
 21
34.308395
  0
LINE
  8
4
  6
CONTINUOUS
 10
31.766328
 20
34.578395
 11
31.766328
 21
34.308395
  0
LINE
  8
4
  6
CONTINUOUS
 10
31.586328
 20
34.510895
 11
31.586328
 21
34.375895
  0
LINE
  8
4
  6
CONTINUOUS
 10
31.586328
 20
34.510895
 11
30.686328
 21
34.443395
  0
LINE
  8
4
  6
CONTINUOUS
 10
31.586328
 20
34.375895
 11
30.686328
 21
34.443395
  0
LINE
  8
4
  6
CONTINUOUS
 10
47.219515
 20
34.443395
 11
48.419515
 21
34.443395
  0
LINE
  8
4
  6
CONTINUOUS
 10
48.419515
 20
34.323395
 11
48.419515
 21
34.563395
  0
LINE
  8
4
  6
CONTINUOUS
 10
48.395515
 20
34.323395
 11
48.395515
 21
34.563395
  0
LINE
  8
4
  6
CONTINUOUS
 10
48.371515
 20
34.323395
 11
48.371515
 21
34.563395
  0
POLYLINE
  8
4
  6
CONTINUOUS
 66
     1
  0
VERTEX
  8
4
  6
CONTINUOUS
 10
47.219515
 20
34.443395
  0
VERTEX
  8
4
  6
CONTINUOUS
 10
32.486328
 20
34.443395
  0
SEQEND
  8
4
  6
CONTINUOUS
  0
LINE
  8
4
  6
CONTINUOUS
 10
32.486328
 20
33.123395
 11
31.586328
 21
33.123395
  0
LINE
  8
4
  6
CONTINUOUS
 10
32.036328
 20
33.258395
 11
32.036328
 21
32.988395
  0
LINE
  8
4
  6
CONTINUOUS
 10
31.946328
 20
33.258395
 11
31.946328
 21
32.988395
  0
LINE
  8
4
  6
CONTINUOUS
 10
31.856328
 20
33.258395
 11
31.856328
 21
32.988395
  0
LINE
  8
4
  6
CONTINUOUS
 10
31.766328
 20
33.258395
 11
31.766328
 21
32.988395
  0
LINE
  8
4
  6
CONTINUOUS
 10
31.586328
 20
33.190895
 11
31.586328
 21
33.055895
  0
LINE
  8
4
  6
CONTINUOUS
 10
31.586328
 20
33.190895
 11
30.686328
 21
33.123395
  0
LINE
  8
4
  6
CONTINUOUS
 10
31.586328
 20
33.055895
 11
30.686328
 21
33.123395
  0
LINE
  8
4
  6
CONTINUOUS
 10
47.219515
 20
33.123395
 11
48.419515
 21
33.123395
  0
LINE
  8
4
  6
CONTINUOUS
 10
48.419515
 20
33.003395
 11
48.419515
 21
33.243395
  0
LINE
  8
4
  6
CONTINUOUS
 10
48.395515
 20
33.003395
 11
48.395515
 21
33.243395
  0
LINE
  8
4
  6
CONTINUOUS
 10
48.371515
 20
33.003395
 11
48.371515
 21
33.243395
  0
POLYLINE
  8
4
  6
CONTINUOUS
 66
     1
  0
VERTEX
  8
4
  6
CONTINUOUS
 10
47.219515
 20
33.123395
  0
VERTEX
  8
4
  6
CONTINUOUS
 10
32.486328
 20
33.123395
  0
SEQEND
  8
4
  6
CONTINUOUS
  0
LINE
  8
4
  6
CONTINUOUS
 10
32.486328
 20
31.803395
 11
31.586328
 21
31.803395
  0
LINE
  8
4
  6
CONTINUOUS
 10
32.036328
 20
31.938395
 11
32.036328
 21
31.668395
  0
LINE
  8
4
  6
CONTINUOUS
 10
31.946328
 20
31.938395
 11
31.946328
 21
31.668395
  0
LINE
  8
4
  6
CONTINUOUS
 10
31.856328
 20
31.938395
 11
31.856328
 21
31.668395
  0
LINE
  8
4
  6
CONTINUOUS
 10
31.766328
 20
31.938395
 11
31.766328
 21
31.668395
  0
LINE
  8
4
  6
CONTINUOUS
 10
31.586328
 20
31.870895
 11
31.586328
 21
31.735895
  0
LINE
  8
4
  6
CONTINUOUS
 10
31.586328
 20
31.870895
 11
30.686328
 21
31.803395
  0
LINE
  8
4
  6
CONTINUOUS
 10
31.586328
 20
31.735895
 11
30.686328
 21
31.803395
  0
LINE
  8
4
  6
CONTINUOUS
 10
47.219515
 20
31.803395
 11
48.419515
 21
31.803395
  0
LINE
  8
4
  6
CONTINUOUS
 10
48.419515
 20
31.683395
 11
48.419515
 21
31.923395
  0
LINE
  8
4
  6
CONTINUOUS
 10
48.395515
 20
31.683395
 11
48.395515
 21
31.923395
  0
LINE
  8
4
  6
CONTINUOUS
 10
48.371515
 20
31.683395
 11
48.371515
 21
31.923395
  0
POLYLINE
  8
4
  6
CONTINUOUS
 66
     1
  0
VERTEX
  8
4
  6
CONTINUOUS
 10
47.219515
 20
31.803395
  0
VERTEX
  8
4
  6
CONTINUOUS
 10
32.486328
 20
31.803395
  0
SEQEND
  8
4
  6
CONTINUOUS
  0
LINE
  8
4
  6
CONTINUOUS
 10
31.532078
 20
54.623395
 11
30.332078
 21
54.623395
  0
LINE
  8
4
  6
CONTINUOUS
 10
30.332078
 20
54.743395
 11
30.332078
 21
54.503395
  0
LINE
  8
4
  6
CONTINUOUS
 10
30.356078
 20
54.743395
 11
30.356078
 21
54.503395
  0
LINE
  8
4
  6
CONTINUOUS
 10
30.380078
 20
54.743395
 11
30.380078
 21
54.503395
  0
LINE
  8
4
  6
CONTINUOUS
 10
48.894508
 20
54.623395
 11
49.794508
 21
54.623395
  0
LINE
  8
4
  6
CONTINUOUS
 10
49.344508
 20
54.488395
 11
49.344508
 21
54.758395
  0
LINE
  8
4
  6
CONTINUOUS
 10
49.434508
 20
54.488395
 11
49.434508
 21
54.758395
  0
LINE
  8
4
  6
CONTINUOUS
 10
49.524508
 20
54.488395
 11
49.524508
 21
54.758395
  0
LINE
  8
4
  6
CONTINUOUS
 10
49.614508
 20
54.488395
 11
49.614508
 21
54.758395
  0
LINE
  8
4
  6
CONTINUOUS
 10
49.794508
 20
54.555895
 11
49.794508
 21
54.690895
  0
LINE
  8
4
  6
CONTINUOUS
 10
49.794508
 20
54.555895
 11
50.694508
 21
54.623395
  0
LINE
  8
4
  6
CONTINUOUS
 10
49.794508
 20
54.690895
 11
50.694508
 21
54.623395
  0
POLYLINE
  8
4
  6
CONTINUOUS
 66
     1
  0
VERTEX
  8
4
  6
CONTINUOUS
 10
31.532078
 20
54.623395
  0
VERTEX
  8
4
  6
CONTINUOUS
 10
48.894508
 20
54.623395
  0
SEQEND
  8
4
  6
CONTINUOUS
  0
LINE
  8
4
  6
CONTINUOUS
 10
31.532078
 20
53.623395
 11
30.332078
 21
53.623395
  0
LINE
  8
4
  6
CONTINUOUS
 10
30.332078
 20
53.743395
 11
30.332078
 21
53.503395
  0
LINE
  8
4
  6
CONTINUOUS
 10
30.356078
 20
53.743395
 11
30.356078
 21
53.503395
  0
LINE
  8
4
  6
CONTINUOUS
 10
30.380078
 20
53.743395
 11
30.380078
 21
53.503395
  0
LINE
  8
4
  6
CONTINUOUS
 10
48.894508
 20
53.623395
 11
49.794508
 21
53.623395
  0
LINE
  8
4
  6
CONTINUOUS
 10
49.344508
 20
53.488395
 11
49.344508
 21
53.758395
  0
LINE
  8
4
  6
CONTINUOUS
 10
49.434508
 20
53.488395
 11
49.434508
 21
53.758395
  0
LINE
  8
4
  6
CONTINUOUS
 10
49.524508
 20
53.488395
 11
49.524508
 21
53.758395
  0
LINE
  8
4
  6
CONTINUOUS
 10
49.614508
 20
53.488395
 11
49.614508
 21
53.758395
  0
LINE
  8
4
  6
CONTINUOUS
 10
49.794508
 20
53.555895
 11
49.794508
 21
53.690895
  0
LINE
  8
4
  6
CONTINUOUS
 10
49.794508
 20
53.555895
 11
50.694508
 21
53.623395
  0
LINE
  8
4
  6
CONTINUOUS
 10
49.794508
 20
53.690895
 11
50.694508
 21
53.623395
  0
POLYLINE
  8
4
  6
CONTINUOUS
 66
     1
  0
VERTEX
  8
4
  6
CONTINUOUS
 10
31.532078
 20
53.623395
  0
VERTEX
  8
4
  6
CONTINUOUS
 10
48.894508
 20
53.623395
  0
SEQEND
  8
4
  6
CONTINUOUS
  0
LINE
  8
4
  6
CONTINUOUS
 10
31.532078
 20
52.623395
 11
30.332078
 21
52.623395
  0
LINE
  8
4
  6
CONTINUOUS
 10
30.332078
 20
52.743395
 11
30.332078
 21
52.503395
  0
LINE
  8
4
  6
CONTINUOUS
 10
30.356078
 20
52.743395
 11
30.356078
 21
52.503395
  0
LINE
  8
4
  6
CONTINUOUS
 10
30.380078
 20
52.743395
 11
30.380078
 21
52.503395
  0
LINE
  8
4
  6
CONTINUOUS
 10
48.894508
 20
52.623395
 11
49.794508
 21
52.623395
  0
LINE
  8
4
  6
CONTINUOUS
 10
49.344508
 20
52.488395
 11
49.344508
 21
52.758395
  0
LINE
  8
4
  6
CONTINUOUS
 10
49.434508
 20
52.488395
 11
49.434508
 21
52.758395
  0
LINE
  8
4
  6
CONTINUOUS
 10
49.524508
 20
52.488395
 11
49.524508
 21
52.758395
  0
LINE
  8
4
  6
CONTINUOUS
 10
49.614508
 20
52.488395
 11
49.614508
 21
52.758395
  0
LINE
  8
4
  6
CONTINUOUS
 10
49.794508
 20
52.555895
 11
49.794508
 21
52.690895
  0
LINE
  8
4
  6
CONTINUOUS
 10
49.794508
 20
52.555895
 11
50.694508
 21
52.623395
  0
LINE
  8
4
  6
CONTINUOUS
 10
49.794508
 20
52.690895
 11
50.694508
 21
52.623395
  0
POLYLINE
  8
4
  6
CONTINUOUS
 66
     1
  0
VERTEX
  8
4
  6
CONTINUOUS
 10
31.532078
 20
52.623395
  0
VERTEX
  8
4
  6
CONTINUOUS
 10
48.894508
 20
52.623395
  0
SEQEND
  8
4
  6
CONTINUOUS
  0
LINE
  8
4
  6
CONTINUOUS
 10
31.532078
 20
51.623395
 11
30.332078
 21
51.623395
  0
LINE
  8
4
  6
CONTINUOUS
 10
30.332078
 20
51.743395
 11
30.332078
 21
51.503395
  0
LINE
  8
4
  6
CONTINUOUS
 10
30.356078
 20
51.743395
 11
30.356078
 21
51.503395
  0
LINE
  8
4
  6
CONTINUOUS
 10
30.380078
 20
51.743395
 11
30.380078
 21
51.503395
  0
LINE
  8
4
  6
CONTINUOUS
 10
48.894508
 20
51.623395
 11
49.794508
 21
51.623395
  0
LINE
  8
4
  6
CONTINUOUS
 10
49.344508
 20
51.488395
 11
49.344508
 21
51.758395
  0
LINE
  8
4
  6
CONTINUOUS
 10
49.434508
 20
51.488395
 11
49.434508
 21
51.758395
  0
LINE
  8
4
  6
CONTINUOUS
 10
49.524508
 20
51.488395
 11
49.524508
 21
51.758395
  0
LINE
  8
4
  6
CONTINUOUS
 10
49.614508
 20
51.488395
 11
49.614508
 21
51.758395
  0
LINE
  8
4
  6
CONTINUOUS
 10
49.794508
 20
51.555895
 11
49.794508
 21
51.690895
  0
LINE
  8
4
  6
CONTINUOUS
 10
49.794508
 20
51.555895
 11
50.694508
 21
51.623395
  0
LINE
  8
4
  6
CONTINUOUS
 10
49.794508
 20
51.690895
 11
50.694508
 21
51.623395
  0
POLYLINE
  8
4
  6
CONTINUOUS
 66
     1
  0
VERTEX
  8
4
  6
CONTINUOUS
 10
31.532078
 20
51.623395
  0
VERTEX
  8
4
  6
CONTINUOUS
 10
48.894508
 20
51.623395
  0
SEQEND
  8
4
  6
CONTINUOUS
  0
LINE
  8
4
  6
CONTINUOUS
 10
31.873239
 20
46.623395
 11
30.673239
 21
46.623395
  0
LINE
  8
4
  6
CONTINUOUS
 10
30.673239
 20
46.743395
 11
30.673239
 21
46.503395
  0
LINE
  8
4
  6
CONTINUOUS
 10
30.697239
 20
46.743395
 11
30.697239
 21
46.503395
  0
LINE
  8
4
  6
CONTINUOUS
 10
30.721239
 20
46.743395
 11
30.721239
 21
46.503395
  0
LINE
  8
4
  6
CONTINUOUS
 10
48.184303
 20
46.623395
 11
49.084303
 21
46.623395
  0
LINE
  8
4
  6
CONTINUOUS
 10
48.634303
 20
46.488395
 11
48.634303
 21
46.758395
  0
LINE
  8
4
  6
CONTINUOUS
 10
48.724303
 20
46.488395
 11
48.724303
 21
46.758395
  0
LINE
  8
4
  6
CONTINUOUS
 10
48.814303
 20
46.488395
 11
48.814303
 21
46.758395
  0
LINE
  8
4
  6
CONTINUOUS
 10
48.904303
 20
46.488395
 11
48.904303
 21
46.758395
  0
LINE
  8
4
  6
CONTINUOUS
 10
49.084303
 20
46.555895
 11
49.084303
 21
46.690895
  0
LINE
  8
4
  6
CONTINUOUS
 10
49.084303
 20
46.555895
 11
49.984303
 21
46.623395
  0
LINE
  8
4
  6
CONTINUOUS
 10
49.084303
 20
46.690895
 11
49.984303
 21
46.623395
  0
POLYLINE
  8
4
  6
CONTINUOUS
 66
     1
  0
VERTEX
  8
4
  6
CONTINUOUS
 10
31.873239
 20
46.623395
  0
VERTEX
  8
4
  6
CONTINUOUS
 10
48.184303
 20
46.623395
  0
SEQEND
  8
4
  6
CONTINUOUS
  0
LINE
  8
4
  6
CONTINUOUS
 10
31.873239
 20
45.623395
 11
30.673239
 21
45.623395
  0
LINE
  8
4
  6
CONTINUOUS
 10
30.673239
 20
45.743395
 11
30.673239
 21
45.503395
  0
LINE
  8
4
  6
CONTINUOUS
 10
30.697239
 20
45.743395
 11
30.697239
 21
45.503395
  0
LINE
  8
4
  6
CONTINUOUS
 10
30.721239
 20
45.743395
 11
30.721239
 21
45.503395
  0
LINE
  8
4
  6
CONTINUOUS
 10
48.184303
 20
45.623395
 11
49.084303
 21
45.623395
  0
LINE
  8
4
  6
CONTINUOUS
 10
48.634303
 20
45.488395
 11
48.634303
 21
45.758395
  0
LINE
  8
4
  6
CONTINUOUS
 10
48.724303
 20
45.488395
 11
48.724303
 21
45.758395
  0
LINE
  8
4
  6
CONTINUOUS
 10
48.814303
 20
45.488395
 11
48.814303
 21
45.758395
  0
LINE
  8
4
  6
CONTINUOUS
 10
48.904303
 20
45.488395
 11
48.904303
 21
45.758395
  0
LINE
  8
4
  6
CONTINUOUS
 10
49.084303
 20
45.555895
 11
49.084303
 21
45.690895
  0
LINE
  8
4
  6
CONTINUOUS
 10
49.084303
 20
45.555895
 11
49.984303
 21
45.623395
  0
LINE
  8
4
  6
CONTINUOUS
 10
49.084303
 20
45.690895
 11
49.984303
 21
45.623395
  0
POLYLINE
  8
4
  6
CONTINUOUS
 66
     1
  0
VERTEX
  8
4
  6
CONTINUOUS
 10
31.873239
 20
45.623395
  0
VERTEX
  8
4
  6
CONTINUOUS
 10
48.184303
 20
45.623395
  0
SEQEND
  8
4
  6
CONTINUOUS
  0
LINE
  8
4
  6
CONTINUOUS
 10
31.873239
 20
44.623395
 11
30.673239
 21
44.623395
  0
LINE
  8
4
  6
CONTINUOUS
 10
30.673239
 20
44.743395
 11
30.673239
 21
44.503395
  0
LINE
  8
4
  6
CONTINUOUS
 10
30.697239
 20
44.743395
 11
30.697239
 21
44.503395
  0
LINE
  8
4
  6
CONTINUOUS
 10
30.721239
 20
44.743395
 11
30.721239
 21
44.503395
  0
LINE
  8
4
  6
CONTINUOUS
 10
48.184303
 20
44.623395
 11
49.084303
 21
44.623395
  0
LINE
  8
4
  6
CONTINUOUS
 10
48.634303
 20
44.488395
 11
48.634303
 21
44.758395
  0
LINE
  8
4
  6
CONTINUOUS
 10
48.724303
 20
44.488395
 11
48.724303
 21
44.758395
  0
LINE
  8
4
  6
CONTINUOUS
 10
48.814303
 20
44.488395
 11
48.814303
 21
44.758395
  0
LINE
  8
4
  6
CONTINUOUS
 10
48.904303
 20
44.488395
 11
48.904303
 21
44.758395
  0
LINE
  8
4
  6
CONTINUOUS
 10
49.084303
 20
44.555895
 11
49.084303
 21
44.690895
  0
LINE
  8
4
  6
CONTINUOUS
 10
49.084303
 20
44.555895
 11
49.984303
 21
44.623395
  0
LINE
  8
4
  6
CONTINUOUS
 10
49.084303
 20
44.690895
 11
49.984303
 21
44.623395
  0
POLYLINE
  8
4
  6
CONTINUOUS
 66
     1
  0
VERTEX
  8
4
  6
CONTINUOUS
 10
31.873239
 20
44.623395
  0
VERTEX
  8
4
  6
CONTINUOUS
 10
48.184303
 20
44.623395
  0
SEQEND
  8
4
  6
CONTINUOUS
  0
LINE
  8
4
  6
CONTINUOUS
 10
31.873239
 20
43.623395
 11
30.673239
 21
43.623395
  0
LINE
  8
4
  6
CONTINUOUS
 10
30.673239
 20
43.743395
 11
30.673239
 21
43.503395
  0
LINE
  8
4
  6
CONTINUOUS
 10
30.697239
 20
43.743395
 11
30.697239
 21
43.503395
  0
LINE
  8
4
  6
CONTINUOUS
 10
30.721239
 20
43.743395
 11
30.721239
 21
43.503395
  0
LINE
  8
4
  6
CONTINUOUS
 10
48.184303
 20
43.623395
 11
49.084303
 21
43.623395
  0
LINE
  8
4
  6
CONTINUOUS
 10
48.634303
 20
43.488395
 11
48.634303
 21
43.758395
  0
LINE
  8
4
  6
CONTINUOUS
 10
48.724303
 20
43.488395
 11
48.724303
 21
43.758395
  0
LINE
  8
4
  6
CONTINUOUS
 10
48.814303
 20
43.488395
 11
48.814303
 21
43.758395
  0
LINE
  8
4
  6
CONTINUOUS
 10
48.904303
 20
43.488395
 11
48.904303
 21
43.758395
  0
LINE
  8
4
  6
CONTINUOUS
 10
49.084303
 20
43.555895
 11
49.084303
 21
43.690895
  0
LINE
  8
4
  6
CONTINUOUS
 10
49.084303
 20
43.555895
 11
49.984303
 21
43.623395
  0
LINE
  8
4
  6
CONTINUOUS
 10
49.084303
 20
43.690895
 11
49.984303
 21
43.623395
  0
POLYLINE
  8
4
  6
CONTINUOUS
 66
     1
  0
VERTEX
  8
4
  6
CONTINUOUS
 10
31.873239
 20
43.623395
  0
VERTEX
  8
4
  6
CONTINUOUS
 10
48.184303
 20
43.623395
  0
SEQEND
  8
4
  6
CONTINUOUS
  0
LINE
  8
4
  6
CONTINUOUS
 10
32.214943
 20
38.443395
 11
31.014943
 21
38.443395
  0
LINE
  8
4
  6
CONTINUOUS
 10
31.014943
 20
38.563395
 11
31.014943
 21
38.323395
  0
LINE
  8
4
  6
CONTINUOUS
 10
31.038943
 20
38.563395
 11
31.038943
 21
38.323395
  0
LINE
  8
4
  6
CONTINUOUS
 10
31.062943
 20
38.563395
 11
31.062943
 21
38.323395
  0
LINE
  8
4
  6
CONTINUOUS
 10
47.474444
 20
38.443395
 11
48.374444
 21
38.443395
  0
LINE
  8
4
  6
CONTINUOUS
 10
47.924444
 20
38.308395
 11
47.924444
 21
38.578395
  0
LINE
  8
4
  6
CONTINUOUS
 10
48.014444
 20
38.308395
 11
48.014444
 21
38.578395
  0
LINE
  8
4
  6
CONTINUOUS
 10
48.104444
 20
38.308395
 11
48.104444
 21
38.578395
  0
LINE
  8
4
  6
CONTINUOUS
 10
48.194444
 20
38.308395
 11
48.194444
 21
38.578395
  0
LINE
  8
4
  6
CONTINUOUS
 10
48.374444
 20
38.375895
 11
48.374444
 21
38.510895
  0
LINE
  8
4
  6
CONTINUOUS
 10
48.374444
 20
38.375895
 11
49.274444
 21
38.443395
  0
LINE
  8
4
  6
CONTINUOUS
 10
48.374444
 20
38.510895
 11
49.274444
 21
38.443395
  0
POLYLINE
  8
4
  6
CONTINUOUS
 66
     1
  0
VERTEX
  8
4
  6
CONTINUOUS
 10
32.214943
 20
38.443395
  0
VERTEX
  8
4
  6
CONTINUOUS
 10
47.474444
 20
38.443395
  0
SEQEND
  8
4
  6
CONTINUOUS
  0
LINE
  8
4
  6
CONTINUOUS
 10
32.214943
 20
37.123395
 11
31.014943
 21
37.123395
  0
LINE
  8
4
  6
CONTINUOUS
 10
31.014943
 20
37.243395
 11
31.014943
 21
37.003395
  0
LINE
  8
4
  6
CONTINUOUS
 10
31.038943
 20
37.243395
 11
31.038943
 21
37.003395
  0
LINE
  8
4
  6
CONTINUOUS
 10
31.062943
 20
37.243395
 11
31.062943
 21
37.003395
  0
LINE
  8
4
  6
CONTINUOUS
 10
47.474444
 20
37.123395
 11
48.374444
 21
37.123395
  0
LINE
  8
4
  6
CONTINUOUS
 10
47.924444
 20
36.988395
 11
47.924444
 21
37.258395
  0
LINE
  8
4
  6
CONTINUOUS
 10
48.014444
 20
36.988395
 11
48.014444
 21
37.258395
  0
LINE
  8
4
  6
CONTINUOUS
 10
48.104444
 20
36.988395
 11
48.104444
 21
37.258395
  0
LINE
  8
4
  6
CONTINUOUS
 10
48.194444
 20
36.988395
 11
48.194444
 21
37.258395
  0
LINE
  8
4
  6
CONTINUOUS
 10
48.374444
 20
37.055895
 11
48.374444
 21
37.190895
  0
LINE
  8
4
  6
CONTINUOUS
 10
48.374444
 20
37.055895
 11
49.274444
 21
37.123395
  0
LINE
  8
4
  6
CONTINUOUS
 10
48.374444
 20
37.190895
 11
49.274444
 21
37.123395
  0
POLYLINE
  8
4
  6
CONTINUOUS
 66
     1
  0
VERTEX
  8
4
  6
CONTINUOUS
 10
32.214943
 20
37.123395
  0
VERTEX
  8
4
  6
CONTINUOUS
 10
47.474444
 20
37.123395
  0
SEQEND
  8
4
  6
CONTINUOUS
  0
LINE
  8
4
  6
CONTINUOUS
 10
32.214943
 20
35.803395
 11
31.014943
 21
35.803395
  0
LINE
  8
4
  6
CONTINUOUS
 10
31.014943
 20
35.923395
 11
31.014943
 21
35.683395
  0
LINE
  8
4
  6
CONTINUOUS
 10
31.038943
 20
35.923395
 11
31.038943
 21
35.683395
  0
LINE
  8
4
  6
CONTINUOUS
 10
31.062943
 20
35.923395
 11
31.062943
 21
35.683395
  0
LINE
  8
4
  6
CONTINUOUS
 10
47.474444
 20
35.803395
 11
48.374444
 21
35.803395
  0
LINE
  8
4
  6
CONTINUOUS
 10
47.924444
 20
35.668395
 11
47.924444
 21
35.938395
  0
LINE
  8
4
  6
CONTINUOUS
 10
48.014444
 20
35.668395
 11
48.014444
 21
35.938395
  0
LINE
  8
4
  6
CONTINUOUS
 10
48.104444
 20
35.668395
 11
48.104444
 21
35.938395
  0
LINE
  8
4
  6
CONTINUOUS
 10
48.194444
 20
35.668395
 11
48.194444
 21
35.938395
  0
LINE
  8
4
  6
CONTINUOUS
 10
48.374444
 20
35.735895
 11
48.374444
 21
35.870895
  0
LINE
  8
4
  6
CONTINUOUS
 10
48.374444
 20
35.735895
 11
49.274444
 21
35.803395
  0
LINE
  8
4
  6
CONTINUOUS
 10
48.374444
 20
35.870895
 11
49.274444
 21
35.803395
  0
POLYLINE
  8
4
  6
CONTINUOUS
 66
     1
  0
VERTEX
  8
4
  6
CONTINUOUS
 10
32.214943
 20
35.803395
  0
VERTEX
  8
4
  6
CONTINUOUS
 10
47.474444
 20
35.803395
  0
SEQEND
  8
4
  6
CONTINUOUS
  0
LINE
  8
4
  6
CONTINUOUS
 10
32.556651
 20
29.922072
 11
31.356651
 21
29.922072
  0
LINE
  8
4
  6
CONTINUOUS
 10
31.356651
 20
30.042072
 11
31.356651
 21
29.802072
  0
LINE
  8
4
  6
CONTINUOUS
 10
31.380651
 20
30.042072
 11
31.380651
 21
29.802072
  0
LINE
  8
4
  6
CONTINUOUS
 10
31.404651
 20
30.042072
 11
31.404651
 21
29.802072
  0
LINE
  8
4
  6
CONTINUOUS
 10
46.664571
 20
29.922072
 11
47.564571
 21
29.922072
  0
LINE
  8
4
  6
CONTINUOUS
 10
47.564571
 20
29.854572
 11
47.564571
 21
29.989572
  0
LINE
  8
4
  6
CONTINUOUS
 10
47.564571
 20
29.854572
 11
48.464571
 21
29.922072
  0
LINE
  8
4
  6
CONTINUOUS
 10
47.564571
 20
29.989572
 11
48.464571
 21
29.922072
  0
LINE
  8
4
  6
CONTINUOUS
 10
47.384571
 20
29.787072
 11
47.384571
 21
30.057072
  0
LINE
  8
4
  6
CONTINUOUS
 10
47.272071
 20
29.787072
 11
47.272071
 21
30.057072
  0
LINE
  8
4
  6
CONTINUOUS
 10
47.159571
 20
29.787072
 11
47.159571
 21
30.057072
  0
POLYLINE
  8
4
  6
CONTINUOUS
 66
     1
  0
VERTEX
  8
4
  6
CONTINUOUS
 10
32.556651
 20
29.922072
  0
VERTEX
  8
4
  6
CONTINUOUS
 10
46.664571
 20
29.922072
  0
SEQEND
  8
4
  6
CONTINUOUS
  0
LINE
  8
4
  6
CONTINUOUS
 10
32.556651
 20
27.542072
 11
31.356651
 21
27.542072
  0
LINE
  8
4
  6
CONTINUOUS
 10
31.356651
 20
27.662072
 11
31.356651
 21
27.422072
  0
LINE
  8
4
  6
CONTINUOUS
 10
31.380651
 20
27.662072
 11
31.380651
 21
27.422072
  0
LINE
  8
4
  6
CONTINUOUS
 10
31.404651
 20
27.662072
 11
31.404651
 21
27.422072
  0
LINE
  8
4
  6
CONTINUOUS
 10
46.664571
 20
27.542072
 11
47.564571
 21
27.542072
  0
LINE
  8
4
  6
CONTINUOUS
 10
47.564571
 20
27.474572
 11
47.564571
 21
27.609572
  0
LINE
  8
4
  6
CONTINUOUS
 10
47.564571
 20
27.474572
 11
48.464571
 21
27.542072
  0
LINE
  8
4
  6
CONTINUOUS
 10
47.564571
 20
27.609572
 11
48.464571
 21
27.542072
  0
LINE
  8
4
  6
CONTINUOUS
 10
47.384571
 20
27.407072
 11
47.384571
 21
27.677072
  0
LINE
  8
4
  6
CONTINUOUS
 10
47.272071
 20
27.407072
 11
47.272071
 21
27.677072
  0
LINE
  8
4
  6
CONTINUOUS
 10
47.159571
 20
27.407072
 11
47.159571
 21
27.677072
  0
POLYLINE
  8
4
  6
CONTINUOUS
 66
     1
  0
VERTEX
  8
4
  6
CONTINUOUS
 10
32.556651
 20
27.542072
  0
VERTEX
  8
4
  6
CONTINUOUS
 10
46.664571
 20
27.542072
  0
SEQEND
  8
4
  6
CONTINUOUS
  0
LINE
  8
1
  6
CONTINUOUS
 10
88.138850
 20
72.859450
 11
107.562578
 21
72.859450
  0
LINE
  8
1
  6
CONTINUOUS
 10
88.138850
 20
72.859450
 11
88.138850
 21
71.859450
  0
LINE
  8
1
  6
CONTINUOUS
 10
88.138850
 20
71.859450
 11
104.428130
 21
71.859450
  0
LINE
  8
1
  6
CONTINUOUS
 10
88.138850
 20
71.859450
 11
88.138850
 21
70.859450
  0
LINE
  8
1
  6
CONTINUOUS
 10
90.627966
 20
71.859450
 11
90.627966
 21
70.859450
  0
LINE
  8
1
  6
CONTINUOUS
 10
92.765679
 20
71.859450
 11
92.765679
 21
70.859450
  0
LINE
  8
1
  6
CONTINUOUS
 10
94.141046
 20
71.859450
 11
94.141046
 21
70.859450
  0
LINE
  8
1
  6
CONTINUOUS
 10
98.305559
 20
71.359450
 11
98.305559
 21
70.859450
  0
LINE
  8
1
  6
CONTINUOUS
 10
101.293682
 20
71.859450
 11
101.293682
 21
70.859450
  0
LINE
  8
1
  6
CONTINUOUS
 10
102.338497
 20
71.359450
 11
102.338498
 21
70.859450
  0
LINE
  8
1
  6
CONTINUOUS
 10
103.383314
 20
71.359450
 11
103.383314
 21
70.859450
  0
LINE
  8
1
  6
CONTINUOUS
 10
104.428130
 20
71.859450
 11
104.428130
 21
70.859450
  0
LINE
  8
1
  6
CONTINUOUS
 10
88.138850
 20
70.859450
 11
107.562578
 21
70.859450
  0
LINE
  8
1
  6
CONTINUOUS
 10
94.141046
 20
71.359450
 11
98.305559
 21
71.359450
  0
LINE
  8
1
  6
CONTINUOUS
 10
98.305559
 20
71.359450
 11
101.293682
 21
71.359450
  0
LINE
  8
1
  6
CONTINUOUS
 10
101.293682
 20
71.359450
 11
102.338498
 21
71.359450
  0
LINE
  8
1
  6
CONTINUOUS
 10
102.338498
 20
71.359450
 11
103.383314
 21
71.359450
  0
LINE
  8
1
  6
CONTINUOUS
 10
103.383314
 20
71.359450
 11
107.562578
 21
71.359450
  0
LINE
  8
1
  6
CONTINUOUS
 10
107.562578
 20
70.859450
 11
107.562578
 21
72.859450
  0
LINE
  8
1
  6
CONTINUOUS
 10
105.995354
 20
71.359450
 11
105.995354
 21
70.859450
  0
LINE
  8
1
  6
CONTINUOUS
 10
104.428130
 20
71.859450
 11
107.562578
 21
71.859450
  0
LINE
  8
1
  6
CONTINUOUS
 10
88.138850
 20
70.859450
 11
88.138850
 21
70.359449
  0
LINE
  8
1
  6
CONTINUOUS
 10
88.138850
 20
70.359449
 11
107.562578
 21
70.359449
  0
LINE
  8
1
  6
CONTINUOUS
 10
90.627966
 20
70.859450
 11
90.627966
 21
70.359449
  0
LINE
  8
1
  6
CONTINUOUS
 10
92.765679
 20
70.859450
 11
92.765679
 21
70.359449
  0
LINE
  8
1
  6
CONTINUOUS
 10
94.141046
 20
70.859450
 11
94.141046
 21
70.359449
  0
LINE
  8
1
  6
CONTINUOUS
 10
98.305559
 20
70.859450
 11
98.305559
 21
70.359449
  0
LINE
  8
1
  6
CONTINUOUS
 10
101.293682
 20
70.859450
 11
101.293682
 21
70.359449
  0
LINE
  8
1
  6
CONTINUOUS
 10
102.338498
 20
70.859450
 11
102.338498
 21
70.359449
  0
LINE
  8
1
  6
CONTINUOUS
 10
103.383314
 20
70.859450
 11
103.383314
 21
70.359449
  0
LINE
  8
1
  6
CONTINUOUS
 10
104.428130
 20
70.859450
 11
104.428130
 21
70.359449
  0
LINE
  8
1
  6
CONTINUOUS
 10
104.428130
 20
70.359449
 11
104.428130
 21
70.859450
  0
LINE
  8
1
  6
CONTINUOUS
 10
104.428130
 20
70.859450
 11
104.428130
 21
70.359449
  0
LINE
  8
1
  6
CONTINUOUS
 10
105.995354
 20
70.859450
 11
105.995354
 21
70.359449
  0
LINE
  8
1
  6
CONTINUOUS
 10
107.562578
 20
70.859450
 11
107.562578
 21
70.359449
  0
LINE
  8
1
  6
CONTINUOUS
 10
88.138850
 20
70.359449
 11
88.138850
 21
69.859449
  0
LINE
  8
1
  6
CONTINUOUS
 10
88.138850
 20
69.859449
 11
107.562578
 21
69.859449
  0
LINE
  8
1
  6
CONTINUOUS
 10
90.627966
 20
70.359449
 11
90.627966
 21
69.859449
  0
LINE
  8
1
  6
CONTINUOUS
 10
92.765679
 20
70.359449
 11
92.765679
 21
69.859449
  0
LINE
  8
1
  6
CONTINUOUS
 10
94.141046
 20
70.359449
 11
94.141046
 21
69.859449
  0
LINE
  8
1
  6
CONTINUOUS
 10
98.305559
 20
70.359449
 11
98.305559
 21
69.859449
  0
LINE
  8
1
  6
CONTINUOUS
 10
101.293682
 20
70.359449
 11
101.293682
 21
69.859449
  0
LINE
  8
1
  6
CONTINUOUS
 10
102.338498
 20
70.359449
 11
102.338498
 21
69.859449
  0
LINE
  8
1
  6
CONTINUOUS
 10
103.383314
 20
70.359449
 11
103.383314
 21
69.859449
  0
LINE
  8
1
  6
CONTINUOUS
 10
104.428130
 20
70.359449
 11
104.428130
 21
69.859449
  0
LINE
  8
1
  6
CONTINUOUS
 10
104.428130
 20
69.859449
 11
104.428130
 21
70.359449
  0
LINE
  8
1
  6
CONTINUOUS
 10
104.428130
 20
70.359449
 11
104.428130
 21
69.859449
  0
LINE
  8
1
  6
CONTINUOUS
 10
105.995354
 20
70.359449
 11
105.995354
 21
69.859449
  0
LINE
  8
1
  6
CONTINUOUS
 10
107.562578
 20
70.359449
 11
107.562578
 21
69.859449
  0
LINE
  8
1
  6
CONTINUOUS
 10
88.138850
 20
69.859448
 11
88.138850
 21
69.359448
  0
LINE
  8
1
  6
CONTINUOUS
 10
88.138850
 20
69.359448
 11
107.562578
 21
69.359448
  0
LINE
  8
1
  6
CONTINUOUS
 10
90.627966
 20
69.859448
 11
90.627966
 21
69.359448
  0
LINE
  8
1
  6
CONTINUOUS
 10
92.765679
 20
69.859448
 11
92.765679
 21
69.359448
  0
LINE
  8
1
  6
CONTINUOUS
 10
94.141046
 20
69.859448
 11
94.141046
 21
69.359448
  0
LINE
  8
1
  6
CONTINUOUS
 10
98.305559
 20
69.859448
 11
98.305559
 21
69.359448
  0
LINE
  8
1
  6
CONTINUOUS
 10
101.293682
 20
69.859448
 11
101.293682
 21
69.359448
  0
LINE
  8
1
  6
CONTINUOUS
 10
102.338498
 20
69.859448
 11
102.338498
 21
69.359448
  0
LINE
  8
1
  6
CONTINUOUS
 10
103.383314
 20
69.859448
 11
103.383314
 21
69.359448
  0
LINE
  8
1
  6
CONTINUOUS
 10
104.428130
 20
69.859448
 11
104.428130
 21
69.359448
  0
LINE
  8
1
  6
CONTINUOUS
 10
104.428130
 20
69.359448
 11
104.428130
 21
69.859448
  0
LINE
  8
1
  6
CONTINUOUS
 10
104.428130
 20
69.859449
 11
104.428130
 21
69.359448
  0
LINE
  8
1
  6
CONTINUOUS
 10
105.995354
 20
69.859448
 11
105.995354
 21
69.359448
  0
LINE
  8
1
  6
CONTINUOUS
 10
107.562578
 20
69.859448
 11
107.562578
 21
69.359448
  0
LINE
  8
1
  6
CONTINUOUS
 10
88.138850
 20
69.359447
 11
88.138850
 21
68.859447
  0
LINE
  8
1
  6
CONTINUOUS
 10
88.138850
 20
68.859447
 11
107.562578
 21
68.859447
  0
LINE
  8
1
  6
CONTINUOUS
 10
90.627966
 20
69.359447
 11
90.627966
 21
68.859447
  0
LINE
  8
1
  6
CONTINUOUS
 10
92.765679
 20
69.359447
 11
92.765679
 21
68.859447
  0
LINE
  8
1
  6
CONTINUOUS
 10
94.141046
 20
69.359447
 11
94.141046
 21
68.859447
  0
LINE
  8
1
  6
CONTINUOUS
 10
98.305559
 20
69.359447
 11
98.305559
 21
68.859447
  0
LINE
  8
1
  6
CONTINUOUS
 10
101.293682
 20
69.359447
 11
101.293682
 21
68.859447
  0
LINE
  8
1
  6
CONTINUOUS
 10
102.338498
 20
69.359447
 11
102.338498
 21
68.859447
  0
LINE
  8
1
  6
CONTINUOUS
 10
103.383314
 20
69.359447
 11
103.383314
 21
68.859447
  0
LINE
  8
1
  6
CONTINUOUS
 10
104.428130
 20
69.359447
 11
104.428130
 21
68.859447
  0
LINE
  8
1
  6
CONTINUOUS
 10
104.428130
 20
68.859447
 11
104.428130
 21
69.359447
  0
LINE
  8
1
  6
CONTINUOUS
 10
104.428130
 20
69.359448
 11
104.428130
 21
68.859447
  0
LINE
  8
1
  6
CONTINUOUS
 10
105.995354
 20
69.359447
 11
105.995354
 21
68.859447
  0
LINE
  8
1
  6
CONTINUOUS
 10
107.562578
 20
69.359447
 11
107.562578
 21
68.859447
  0
LINE
  8
1
  6
CONTINUOUS
 10
88.138850
 20
68.859447
 11
88.138850
 21
68.359447
  0
LINE
  8
1
  6
CONTINUOUS
 10
88.138850
 20
68.359447
 11
107.562578
 21
68.359447
  0
LINE
  8
1
  6
CONTINUOUS
 10
90.627966
 20
68.859447
 11
90.627966
 21
68.359447
  0
LINE
  8
1
  6
CONTINUOUS
 10
92.765679
 20
68.859447
 11
92.765679
 21
68.359447
  0
LINE
  8
1
  6
CONTINUOUS
 10
94.141046
 20
68.859447
 11
94.141046
 21
68.359447
  0
LINE
  8
1
  6
CONTINUOUS
 10
98.305559
 20
68.859447
 11
98.305559
 21
68.359447
  0
LINE
  8
1
  6
CONTINUOUS
 10
101.293682
 20
68.859447
 11
101.293682
 21
68.359447
  0
LINE
  8
1
  6
CONTINUOUS
 10
102.338498
 20
68.859447
 11
102.338498
 21
68.359447
  0
LINE
  8
1
  6
CONTINUOUS
 10
103.383314
 20
68.859447
 11
103.383314
 21
68.359447
  0
LINE
  8
1
  6
CONTINUOUS
 10
104.428130
 20
68.859447
 11
104.428130
 21
68.359447
  0
LINE
  8
1
  6
CONTINUOUS
 10
104.428130
 20
68.359447
 11
104.428130
 21
68.859447
  0
LINE
  8
1
  6
CONTINUOUS
 10
104.428130
 20
68.859447
 11
104.428130
 21
68.359446
  0
LINE
  8
1
  6
CONTINUOUS
 10
105.995354
 20
68.859447
 11
105.995354
 21
68.359447
  0
LINE
  8
1
  6
CONTINUOUS
 10
107.562578
 20
68.859447
 11
107.562578
 21
68.359447
  0
LINE
  8
1
  6
CONTINUOUS
 10
88.138850
 20
68.359446
 11
88.138850
 21
67.859446
  0
LINE
  8
1
  6
CONTINUOUS
 10
88.138850
 20
67.859446
 11
107.562578
 21
67.859446
  0
LINE
  8
1
  6
CONTINUOUS
 10
90.627966
 20
68.359446
 11
90.627966
 21
67.859446
  0
LINE
  8
1
  6
CONTINUOUS
 10
92.765679
 20
68.359446
 11
92.765679
 21
67.859446
  0
LINE
  8
1
  6
CONTINUOUS
 10
94.141046
 20
68.359446
 11
94.141046
 21
67.859446
  0
LINE
  8
1
  6
CONTINUOUS
 10
98.305559
 20
68.359446
 11
98.305559
 21
67.859446
  0
LINE
  8
1
  6
CONTINUOUS
 10
101.293682
 20
68.359446
 11
101.293682
 21
67.859446
  0
LINE
  8
1
  6
CONTINUOUS
 10
102.338498
 20
68.359446
 11
102.338498
 21
67.859446
  0
LINE
  8
1
  6
CONTINUOUS
 10
103.383314
 20
68.359446
 11
103.383314
 21
67.859446
  0
LINE
  8
1
  6
CONTINUOUS
 10
104.428130
 20
68.359446
 11
104.428130
 21
67.859446
  0
LINE
  8
1
  6
CONTINUOUS
 10
104.428130
 20
67.859446
 11
104.428130
 21
68.359446
  0
LINE
  8
1
  6
CONTINUOUS
 10
104.428130
 20
68.359446
 11
104.428130
 21
67.859446
  0
LINE
  8
1
  6
CONTINUOUS
 10
105.995354
 20
68.359446
 11
105.995354
 21
67.859446
  0
LINE
  8
1
  6
CONTINUOUS
 10
107.562578
 20
68.359446
 11
107.562578
 21
67.859446
  0
LINE
  8
1
  6
CONTINUOUS
 10
88.138850
 20
67.859445
 11
88.138850
 21
67.359445
  0
LINE
  8
1
  6
CONTINUOUS
 10
88.138850
 20
67.359445
 11
107.562578
 21
67.359445
  0
LINE
  8
1
  6
CONTINUOUS
 10
90.627966
 20
67.859445
 11
90.627966
 21
67.359445
  0
LINE
  8
1
  6
CONTINUOUS
 10
92.765679
 20
67.859445
 11
92.765679
 21
67.359445
  0
LINE
  8
1
  6
CONTINUOUS
 10
94.141046
 20
67.859445
 11
94.141046
 21
67.359445
  0
LINE
  8
1
  6
CONTINUOUS
 10
98.305559
 20
67.859445
 11
98.305559
 21
67.359445
  0
LINE
  8
1
  6
CONTINUOUS
 10
101.293682
 20
67.859445
 11
101.293682
 21
67.359445
  0
LINE
  8
1
  6
CONTINUOUS
 10
102.338498
 20
67.859445
 11
102.338498
 21
67.359445
  0
LINE
  8
1
  6
CONTINUOUS
 10
103.383314
 20
67.859445
 11
103.383314
 21
67.359445
  0
LINE
  8
1
  6
CONTINUOUS
 10
104.428130
 20
67.859445
 11
104.428130
 21
67.359445
  0
LINE
  8
1
  6
CONTINUOUS
 10
104.428130
 20
67.359445
 11
104.428130
 21
67.859445
  0
LINE
  8
1
  6
CONTINUOUS
 10
104.428130
 20
67.859446
 11
104.428130
 21
67.359445
  0
LINE
  8
1
  6
CONTINUOUS
 10
105.995354
 20
67.859445
 11
105.995354
 21
67.359445
  0
LINE
  8
1
  6
CONTINUOUS
 10
107.562578
 20
67.859445
 11
107.562578
 21
67.359445
  0
LINE
  8
1
  6
CONTINUOUS
 10
88.138850
 20
67.359445
 11
88.138850
 21
66.859444
  0
LINE
  8
1
  6
CONTINUOUS
 10
88.138850
 20
66.859444
 11
107.562578
 21
66.859444
  0
LINE
  8
1
  6
CONTINUOUS
 10
90.627966
 20
67.359445
 11
90.627966
 21
66.859444
  0
LINE
  8
1
  6
CONTINUOUS
 10
92.765679
 20
67.359445
 11
92.765679
 21
66.859444
  0
LINE
  8
1
  6
CONTINUOUS
 10
94.141046
 20
67.359445
 11
94.141046
 21
66.859444
  0
LINE
  8
1
  6
CONTINUOUS
 10
98.305559
 20
67.359445
 11
98.305559
 21
66.859444
  0
LINE
  8
1
  6
CONTINUOUS
 10
101.293682
 20
67.359445
 11
101.293682
 21
66.859444
  0
LINE
  8
1
  6
CONTINUOUS
 10
102.338498
 20
67.359445
 11
102.338498
 21
66.859444
  0
LINE
  8
1
  6
CONTINUOUS
 10
103.383314
 20
67.359445
 11
103.383314
 21
66.859444
  0
LINE
  8
1
  6
CONTINUOUS
 10
104.428130
 20
67.359445
 11
104.428130
 21
66.859444
  0
LINE
  8
1
  6
CONTINUOUS
 10
104.428130
 20
66.859444
 11
104.428130
 21
67.359445
  0
LINE
  8
1
  6
CONTINUOUS
 10
104.428130
 20
67.359445
 11
104.428130
 21
66.859444
  0
LINE
  8
1
  6
CONTINUOUS
 10
105.995354
 20
67.359445
 11
105.995354
 21
66.859444
  0
LINE
  8
1
  6
CONTINUOUS
 10
107.562578
 20
67.359445
 11
107.562578
 21
66.859444
  0
LINE
  8
1
  6
CONTINUOUS
 10
88.138850
 20
66.859444
 11
88.138850
 21
66.359444
  0
LINE
  8
1
  6
CONTINUOUS
 10
88.138850
 20
66.359444
 11
107.562578
 21
66.359444
  0
LINE
  8
1
  6
CONTINUOUS
 10
90.627966
 20
66.859444
 11
90.627966
 21
66.359444
  0
LINE
  8
1
  6
CONTINUOUS
 10
92.765679
 20
66.859444
 11
92.765679
 21
66.359444
  0
LINE
  8
1
  6
CONTINUOUS
 10
94.141046
 20
66.859444
 11
94.141046
 21
66.359444
  0
LINE
  8
1
  6
CONTINUOUS
 10
98.305559
 20
66.859444
 11
98.305559
 21
66.359444
  0
LINE
  8
1
  6
CONTINUOUS
 10
101.293682
 20
66.859444
 11
101.293682
 21
66.359444
  0
LINE
  8
1
  6
CONTINUOUS
 10
102.338498
 20
66.859444
 11
102.338498
 21
66.359444
  0
LINE
  8
1
  6
CONTINUOUS
 10
103.383314
 20
66.859444
 11
103.383314
 21
66.359444
  0
LINE
  8
1
  6
CONTINUOUS
 10
104.428130
 20
66.859444
 11
104.428130
 21
66.359444
  0
LINE
  8
1
  6
CONTINUOUS
 10
104.428130
 20
66.359444
 11
104.428130
 21
66.859444
  0
LINE
  8
1
  6
CONTINUOUS
 10
104.428130
 20
66.859444
 11
104.428130
 21
66.359444
  0
LINE
  8
1
  6
CONTINUOUS
 10
105.995354
 20
66.859444
 11
105.995354
 21
66.359444
  0
LINE
  8
1
  6
CONTINUOUS
 10
107.562578
 20
66.859444
 11
107.562578
 21
66.359444
  0
LINE
  8
1
  6
CONTINUOUS
 10
88.138850
 20
66.359443
 11
88.138850
 21
65.859443
  0
LINE
  8
1
  6
CONTINUOUS
 10
88.138850
 20
65.859443
 11
107.562578
 21
65.859443
  0
LINE
  8
1
  6
CONTINUOUS
 10
90.627966
 20
66.359443
 11
90.627966
 21
65.859443
  0
LINE
  8
1
  6
CONTINUOUS
 10
92.765679
 20
66.359443
 11
92.765679
 21
65.859443
  0
LINE
  8
1
  6
CONTINUOUS
 10
94.141046
 20
66.359443
 11
94.141046
 21
65.859443
  0
LINE
  8
1
  6
CONTINUOUS
 10
98.305559
 20
66.359443
 11
98.305559
 21
65.859443
  0
LINE
  8
1
  6
CONTINUOUS
 10
101.293682
 20
66.359443
 11
101.293682
 21
65.859443
  0
LINE
  8
1
  6
CONTINUOUS
 10
102.338498
 20
66.359443
 11
102.338498
 21
65.859443
  0
LINE
  8
1
  6
CONTINUOUS
 10
103.383314
 20
66.359443
 11
103.383314
 21
65.859443
  0
LINE
  8
1
  6
CONTINUOUS
 10
104.428130
 20
66.359443
 11
104.428130
 21
65.859443
  0
LINE
  8
1
  6
CONTINUOUS
 10
104.428130
 20
65.859443
 11
104.428130
 21
66.359443
  0
LINE
  8
1
  6
CONTINUOUS
 10
104.428130
 20
66.359444
 11
104.428130
 21
65.859443
  0
LINE
  8
1
  6
CONTINUOUS
 10
105.995354
 20
66.359443
 11
105.995354
 21
65.859443
  0
LINE
  8
1
  6
CONTINUOUS
 10
107.562578
 20
66.359443
 11
107.562578
 21
65.859443
  0
LINE
  8
1
  6
CONTINUOUS
 10
88.138850
 20
65.859442
 11
88.138850
 21
65.359442
  0
LINE
  8
1
  6
CONTINUOUS
 10
88.138850
 20
65.359442
 11
107.562578
 21
65.359442
  0
LINE
  8
1
  6
CONTINUOUS
 10
90.627966
 20
65.859442
 11
90.627966
 21
65.359442
  0
LINE
  8
1
  6
CONTINUOUS
 10
92.765679
 20
65.859442
 11
92.765679
 21
65.359442
  0
LINE
  8
1
  6
CONTINUOUS
 10
94.141046
 20
65.859442
 11
94.141046
 21
65.359442
  0
LINE
  8
1
  6
CONTINUOUS
 10
98.305559
 20
65.859442
 11
98.305559
 21
65.359442
  0
LINE
  8
1
  6
CONTINUOUS
 10
101.293682
 20
65.859442
 11
101.293682
 21
65.359442
  0
LINE
  8
1
  6
CONTINUOUS
 10
102.338498
 20
65.859442
 11
102.338498
 21
65.359442
  0
LINE
  8
1
  6
CONTINUOUS
 10
103.383314
 20
65.859442
 11
103.383314
 21
65.359442
  0
LINE
  8
1
  6
CONTINUOUS
 10
104.428130
 20
65.859442
 11
104.428130
 21
65.359442
  0
LINE
  8
1
  6
CONTINUOUS
 10
104.428130
 20
65.359442
 11
104.428130
 21
65.859442
  0
LINE
  8
1
  6
CONTINUOUS
 10
104.428130
 20
65.859443
 11
104.428130
 21
65.359442
  0
LINE
  8
1
  6
CONTINUOUS
 10
105.995354
 20
65.859442
 11
105.995354
 21
65.359442
  0
LINE
  8
1
  6
CONTINUOUS
 10
107.562578
 20
65.859442
 11
107.562578
 21
65.359442
  0
LINE
  8
1
  6
CONTINUOUS
 10
88.138850
 20
65.359442
 11
88.138850
 21
64.859442
  0
LINE
  8
1
  6
CONTINUOUS
 10
88.138850
 20
64.859442
 11
107.562578
 21
64.859442
  0
LINE
  8
1
  6
CONTINUOUS
 10
90.627966
 20
65.359442
 11
90.627966
 21
64.859442
  0
LINE
  8
1
  6
CONTINUOUS
 10
92.765679
 20
65.359442
 11
92.765679
 21
64.859442
  0
LINE
  8
1
  6
CONTINUOUS
 10
94.141046
 20
65.359442
 11
94.141046
 21
64.859442
  0
LINE
  8
1
  6
CONTINUOUS
 10
98.305559
 20
65.359442
 11
98.305559
 21
64.859442
  0
LINE
  8
1
  6
CONTINUOUS
 10
101.293682
 20
65.359442
 11
101.293682
 21
64.859442
  0
LINE
  8
1
  6
CONTINUOUS
 10
102.338498
 20
65.359442
 11
102.338498
 21
64.859442
  0
LINE
  8
1
  6
CONTINUOUS
 10
103.383314
 20
65.359442
 11
103.383314
 21
64.859442
  0
LINE
  8
1
  6
CONTINUOUS
 10
104.428130
 20
65.359442
 11
104.428130
 21
64.859442
  0
LINE
  8
1
  6
CONTINUOUS
 10
104.428130
 20
64.859442
 11
104.428130
 21
65.359442
  0
LINE
  8
1
  6
CONTINUOUS
 10
104.428130
 20
65.359442
 11
104.428130
 21
64.859441
  0
LINE
  8
1
  6
CONTINUOUS
 10
105.995354
 20
65.359442
 11
105.995354
 21
64.859442
  0
LINE
  8
1
  6
CONTINUOUS
 10
107.562578
 20
65.359442
 11
107.562578
 21
64.859442
  0
LINE
  8
1
  6
CONTINUOUS
 10
88.138850
 20
64.859441
 11
88.138850
 21
64.359441
  0
LINE
  8
1
  6
CONTINUOUS
 10
88.138850
 20
64.359441
 11
107.562578
 21
64.359441
  0
LINE
  8
1
  6
CONTINUOUS
 10
90.627966
 20
64.859441
 11
90.627966
 21
64.359441
  0
LINE
  8
1
  6
CONTINUOUS
 10
92.765679
 20
64.859441
 11
92.765679
 21
64.359441
  0
LINE
  8
1
  6
CONTINUOUS
 10
94.141046
 20
64.859441
 11
94.141046
 21
64.359441
  0
LINE
  8
1
  6
CONTINUOUS
 10
98.305559
 20
64.859441
 11
98.305559
 21
64.359441
  0
LINE
  8
1
  6
CONTINUOUS
 10
101.293682
 20
64.859441
 11
101.293682
 21
64.359441
  0
LINE
  8
1
  6
CONTINUOUS
 10
102.338498
 20
64.859441
 11
102.338498
 21
64.359441
  0
LINE
  8
1
  6
CONTINUOUS
 10
103.383314
 20
64.859441
 11
103.383314
 21
64.359441
  0
LINE
  8
1
  6
CONTINUOUS
 10
104.428130
 20
64.859441
 11
104.428130
 21
64.359441
  0
LINE
  8
1
  6
CONTINUOUS
 10
104.428130
 20
64.359441
 11
104.428130
 21
64.859441
  0
LINE
  8
1
  6
CONTINUOUS
 10
104.428130
 20
64.859441
 11
104.428130
 21
64.359441
  0
LINE
  8
1
  6
CONTINUOUS
 10
105.995354
 20
64.859441
 11
105.995354
 21
64.359441
  0
LINE
  8
1
  6
CONTINUOUS
 10
107.562578
 20
64.859441
 11
107.562578
 21
64.359441
  0
LINE
  8
1
  6
CONTINUOUS
 10
88.138850
 20
64.359440
 11
88.138850
 21
63.859440
  0
LINE
  8
1
  6
CONTINUOUS
 10
88.138850
 20
63.859440
 11
107.562578
 21
63.859440
  0
LINE
  8
1
  6
CONTINUOUS
 10
90.627966
 20
64.359440
 11
90.627966
 21
63.859440
  0
LINE
  8
1
  6
CONTINUOUS
 10
92.765679
 20
64.359440
 11
92.765679
 21
63.859440
  0
LINE
  8
1
  6
CONTINUOUS
 10
94.141046
 20
64.359440
 11
94.141046
 21
63.859440
  0
LINE
  8
1
  6
CONTINUOUS
 10
98.305559
 20
64.359440
 11
98.305559
 21
63.859440
  0
LINE
  8
1
  6
CONTINUOUS
 10
101.293682
 20
64.359440
 11
101.293682
 21
63.859440
  0
LINE
  8
1
  6
CONTINUOUS
 10
102.338498
 20
64.359440
 11
102.338498
 21
63.859440
  0
LINE
  8
1
  6
CONTINUOUS
 10
103.383314
 20
64.359440
 11
103.383314
 21
63.859440
  0
LINE
  8
1
  6
CONTINUOUS
 10
104.428130
 20
64.359440
 11
104.428130
 21
63.859440
  0
LINE
  8
1
  6
CONTINUOUS
 10
104.428130
 20
63.859440
 11
104.428130
 21
64.359440
  0
LINE
  8
1
  6
CONTINUOUS
 10
104.428130
 20
64.359441
 11
104.428130
 21
63.859440
  0
LINE
  8
1
  6
CONTINUOUS
 10
105.995354
 20
64.359440
 11
105.995354
 21
63.859440
  0
LINE
  8
1
  6
CONTINUOUS
 10
107.562578
 20
64.359440
 11
107.562578
 21
63.859440
  0
LINE
  8
1
  6
CONTINUOUS
 10
88.138850
 20
63.859440
 11
88.138850
 21
63.359439
  0
LINE
  8
1
  6
CONTINUOUS
 10
88.138850
 20
63.359439
 11
107.562578
 21
63.359439
  0
LINE
  8
1
  6
CONTINUOUS
 10
90.627966
 20
63.859440
 11
90.627966
 21
63.359439
  0
LINE
  8
1
  6
CONTINUOUS
 10
92.765679
 20
63.859440
 11
92.765679
 21
63.359439
  0
LINE
  8
1
  6
CONTINUOUS
 10
94.141046
 20
63.859440
 11
94.141046
 21
63.359439
  0
LINE
  8
1
  6
CONTINUOUS
 10
98.305559
 20
63.859440
 11
98.305559
 21
63.359439
  0
LINE
  8
1
  6
CONTINUOUS
 10
101.293682
 20
63.859440
 11
101.293682
 21
63.359439
  0
LINE
  8
1
  6
CONTINUOUS
 10
102.338498
 20
63.859440
 11
102.338498
 21
63.359439
  0
LINE
  8
1
  6
CONTINUOUS
 10
103.383314
 20
63.859440
 11
103.383314
 21
63.359439
  0
LINE
  8
1
  6
CONTINUOUS
 10
104.428130
 20
63.859440
 11
104.428130
 21
63.359439
  0
LINE
  8
1
  6
CONTINUOUS
 10
104.428130
 20
63.359439
 11
104.428130
 21
63.859440
  0
LINE
  8
1
  6
CONTINUOUS
 10
104.428130
 20
63.859440
 11
104.428130
 21
63.359439
  0
LINE
  8
1
  6
CONTINUOUS
 10
105.995354
 20
63.859440
 11
105.995354
 21
63.359439
  0
LINE
  8
1
  6
CONTINUOUS
 10
107.562578
 20
63.859440
 11
107.562578
 21
63.359439
  0
LINE
  8
1
  6
CONTINUOUS
 10
88.138850
 20
63.359439
 11
88.138850
 21
62.859439
  0
LINE
  8
1
  6
CONTINUOUS
 10
88.138850
 20
62.859439
 11
107.562578
 21
62.859439
  0
LINE
  8
1
  6
CONTINUOUS
 10
90.627966
 20
63.359439
 11
90.627966
 21
62.859439
  0
LINE
  8
1
  6
CONTINUOUS
 10
92.765679
 20
63.359439
 11
92.765679
 21
62.859439
  0
LINE
  8
1
  6
CONTINUOUS
 10
94.141046
 20
63.359439
 11
94.141046
 21
62.859439
  0
LINE
  8
1
  6
CONTINUOUS
 10
98.305559
 20
63.359439
 11
98.305559
 21
62.859439
  0
LINE
  8
1
  6
CONTINUOUS
 10
101.293682
 20
63.359439
 11
101.293682
 21
62.859439
  0
LINE
  8
1
  6
CONTINUOUS
 10
102.338498
 20
63.359439
 11
102.338498
 21
62.859439
  0
LINE
  8
1
  6
CONTINUOUS
 10
103.383314
 20
63.359439
 11
103.383314
 21
62.859439
  0
LINE
  8
1
  6
CONTINUOUS
 10
104.428130
 20
63.359439
 11
104.428130
 21
62.859439
  0
LINE
  8
1
  6
CONTINUOUS
 10
104.428130
 20
62.859439
 11
104.428130
 21
63.359439
  0
LINE
  8
1
  6
CONTINUOUS
 10
104.428130
 20
63.359439
 11
104.428130
 21
62.859439
  0
LINE
  8
1
  6
CONTINUOUS
 10
105.995354
 20
63.359439
 11
105.995354
 21
62.859439
  0
LINE
  8
1
  6
CONTINUOUS
 10
107.562578
 20
63.359439
 11
107.562578
 21
62.859439
  0
LINE
  8
1
  6
CONTINUOUS
 10
88.138850
 20
62.859438
 11
88.138850
 21
62.359438
  0
LINE
  8
1
  6
CONTINUOUS
 10
88.138850
 20
62.359438
 11
107.562578
 21
62.359438
  0
LINE
  8
1
  6
CONTINUOUS
 10
90.627966
 20
62.859438
 11
90.627966
 21
62.359438
  0
LINE
  8
1
  6
CONTINUOUS
 10
92.765679
 20
62.859438
 11
92.765679
 21
62.359438
  0
LINE
  8
1
  6
CONTINUOUS
 10
94.141046
 20
62.859438
 11
94.141046
 21
62.359438
  0
LINE
  8
1
  6
CONTINUOUS
 10
98.305559
 20
62.859438
 11
98.305559
 21
62.359438
  0
LINE
  8
1
  6
CONTINUOUS
 10
101.293682
 20
62.859438
 11
101.293682
 21
62.359438
  0
LINE
  8
1
  6
CONTINUOUS
 10
102.338498
 20
62.859438
 11
102.338498
 21
62.359438
  0
LINE
  8
1
  6
CONTINUOUS
 10
103.383314
 20
62.859438
 11
103.383314
 21
62.359438
  0
LINE
  8
1
  6
CONTINUOUS
 10
104.428130
 20
62.859438
 11
104.428130
 21
62.359438
  0
LINE
  8
1
  6
CONTINUOUS
 10
104.428130
 20
62.359438
 11
104.428130
 21
62.859438
  0
LINE
  8
1
  6
CONTINUOUS
 10
104.428130
 20
62.859439
 11
104.428130
 21
62.359438
  0
LINE
  8
1
  6
CONTINUOUS
 10
105.995354
 20
62.859438
 11
105.995354
 21
62.359438
  0
LINE
  8
1
  6
CONTINUOUS
 10
107.562578
 20
62.859438
 11
107.562578
 21
62.359438
  0
LINE
  8
1
  6
CONTINUOUS
 10
88.138850
 20
62.359437
 11
88.138850
 21
61.859437
  0
LINE
  8
1
  6
CONTINUOUS
 10
88.138850
 20
61.859437
 11
107.562578
 21
61.859437
  0
LINE
  8
1
  6
CONTINUOUS
 10
90.627966
 20
62.359437
 11
90.627966
 21
61.859437
  0
LINE
  8
1
  6
CONTINUOUS
 10
92.765679
 20
62.359437
 11
92.765679
 21
61.859437
  0
LINE
  8
1
  6
CONTINUOUS
 10
94.141046
 20
62.359437
 11
94.141046
 21
61.859437
  0
LINE
  8
1
  6
CONTINUOUS
 10
98.305559
 20
62.359437
 11
98.305559
 21
61.859437
  0
LINE
  8
1
  6
CONTINUOUS
 10
101.293682
 20
62.359437
 11
101.293682
 21
61.859437
  0
LINE
  8
1
  6
CONTINUOUS
 10
102.338498
 20
62.359437
 11
102.338498
 21
61.859437
  0
LINE
  8
1
  6
CONTINUOUS
 10
103.383314
 20
62.359437
 11
103.383314
 21
61.859437
  0
LINE
  8
1
  6
CONTINUOUS
 10
104.428130
 20
62.359437
 11
104.428130
 21
61.859437
  0
LINE
  8
1
  6
CONTINUOUS
 10
104.428130
 20
61.859437
 11
104.428130
 21
62.359437
  0
LINE
  8
1
  6
CONTINUOUS
 10
104.428130
 20
62.359438
 11
104.428130
 21
61.859437
  0
LINE
  8
1
  6
CONTINUOUS
 10
105.995354
 20
62.359437
 11
105.995354
 21
61.859437
  0
LINE
  8
1
  6
CONTINUOUS
 10
107.562578
 20
62.359437
 11
107.562578
 21
61.859437
  0
LINE
  8
1
  6
CONTINUOUS
 10
88.138850
 20
61.859437
 11
88.138850
 21
61.359437
  0
LINE
  8
1
  6
CONTINUOUS
 10
88.138850
 20
61.359437
 11
107.562578
 21
61.359437
  0
LINE
  8
1
  6
CONTINUOUS
 10
90.627966
 20
61.859437
 11
90.627966
 21
61.359437
  0
LINE
  8
1
  6
CONTINUOUS
 10
92.765679
 20
61.859437
 11
92.765679
 21
61.359437
  0
LINE
  8
1
  6
CONTINUOUS
 10
94.141046
 20
61.859437
 11
94.141046
 21
61.359437
  0
LINE
  8
1
  6
CONTINUOUS
 10
98.305559
 20
61.859437
 11
98.305559
 21
61.359437
  0
LINE
  8
1
  6
CONTINUOUS
 10
101.293682
 20
61.859437
 11
101.293682
 21
61.359437
  0
LINE
  8
1
  6
CONTINUOUS
 10
102.338498
 20
61.859437
 11
102.338498
 21
61.359437
  0
LINE
  8
1
  6
CONTINUOUS
 10
103.383314
 20
61.859437
 11
103.383314
 21
61.359437
  0
LINE
  8
1
  6
CONTINUOUS
 10
104.428130
 20
61.859437
 11
104.428130
 21
61.359437
  0
LINE
  8
1
  6
CONTINUOUS
 10
104.428130
 20
61.359437
 11
104.428130
 21
61.859437
  0
LINE
  8
1
  6
CONTINUOUS
 10
104.428130
 20
61.859437
 11
104.428130
 21
61.359436
  0
LINE
  8
1
  6
CONTINUOUS
 10
105.995354
 20
61.859437
 11
105.995354
 21
61.359437
  0
LINE
  8
1
  6
CONTINUOUS
 10
107.562578
 20
61.859437
 11
107.562578
 21
61.359437
  0
LINE
  8
1
  6
CONTINUOUS
 10
88.138850
 20
61.359436
 11
88.138850
 21
60.859436
  0
LINE
  8
1
  6
CONTINUOUS
 10
88.138850
 20
60.859436
 11
107.562578
 21
60.859436
  0
LINE
  8
1
  6
CONTINUOUS
 10
90.627966
 20
61.359436
 11
90.627966
 21
60.859436
  0
LINE
  8
1
  6
CONTINUOUS
 10
92.765679
 20
61.359436
 11
92.765679
 21
60.859436
  0
LINE
  8
1
  6
CONTINUOUS
 10
94.141046
 20
61.359436
 11
94.141046
 21
60.859436
  0
LINE
  8
1
  6
CONTINUOUS
 10
98.305559
 20
61.359436
 11
98.305559
 21
60.859436
  0
LINE
  8
1
  6
CONTINUOUS
 10
101.293682
 20
61.359436
 11
101.293682
 21
60.859436
  0
LINE
  8
1
  6
CONTINUOUS
 10
102.338498
 20
61.359436
 11
102.338498
 21
60.859436
  0
LINE
  8
1
  6
CONTINUOUS
 10
103.383314
 20
61.359436
 11
103.383314
 21
60.859436
  0
LINE
  8
1
  6
CONTINUOUS
 10
104.428130
 20
61.359436
 11
104.428130
 21
60.859436
  0
LINE
  8
1
  6
CONTINUOUS
 10
104.428130
 20
60.859436
 11
104.428130
 21
61.359436
  0
LINE
  8
1
  6
CONTINUOUS
 10
104.428130
 20
61.359436
 11
104.428130
 21
60.859436
  0
LINE
  8
1
  6
CONTINUOUS
 10
105.995354
 20
61.359436
 11
105.995354
 21
60.859436
  0
LINE
  8
1
  6
CONTINUOUS
 10
107.562578
 20
61.359436
 11
107.562578
 21
60.859436
  0
LINE
  8
1
  6
CONTINUOUS
 10
88.138850
 20
60.859435
 11
88.138850
 21
60.359435
  0
LINE
  8
1
  6
CONTINUOUS
 10
88.138850
 20
60.359435
 11
107.562578
 21
60.359435
  0
LINE
  8
1
  6
CONTINUOUS
 10
90.627966
 20
60.859435
 11
90.627966
 21
60.359435
  0
LINE
  8
1
  6
CONTINUOUS
 10
92.765679
 20
60.859435
 11
92.765679
 21
60.359435
  0
LINE
  8
1
  6
CONTINUOUS
 10
94.141046
 20
60.859435
 11
94.141046
 21
60.359435
  0
LINE
  8
1
  6
CONTINUOUS
 10
98.305559
 20
60.859435
 11
98.305559
 21
60.359435
  0
LINE
  8
1
  6
CONTINUOUS
 10
101.293682
 20
60.859435
 11
101.293682
 21
60.359435
  0
LINE
  8
1
  6
CONTINUOUS
 10
102.338498
 20
60.859435
 11
102.338498
 21
60.359435
  0
LINE
  8
1
  6
CONTINUOUS
 10
103.383314
 20
60.859435
 11
103.383314
 21
60.359435
  0
LINE
  8
1
  6
CONTINUOUS
 10
104.428130
 20
60.859435
 11
104.428130
 21
60.359435
  0
LINE
  8
1
  6
CONTINUOUS
 10
104.428130
 20
60.359435
 11
104.428130
 21
60.859435
  0
LINE
  8
1
  6
CONTINUOUS
 10
104.428130
 20
60.859436
 11
104.428130
 21
60.359435
  0
LINE
  8
1
  6
CONTINUOUS
 10
105.995354
 20
60.859435
 11
105.995354
 21
60.359435
  0
LINE
  8
1
  6
CONTINUOUS
 10
107.562578
 20
60.859435
 11
107.562578
 21
60.359435
  0
LINE
  8
1
  6
CONTINUOUS
 10
88.138850
 20
60.359435
 11
88.138850
 21
59.859434
  0
LINE
  8
1
  6
CONTINUOUS
 10
88.138850
 20
59.859434
 11
107.562578
 21
59.859434
  0
LINE
  8
1
  6
CONTINUOUS
 10
90.627966
 20
60.359435
 11
90.627966
 21
59.859434
  0
LINE
  8
1
  6
CONTINUOUS
 10
92.765679
 20
60.359435
 11
92.765679
 21
59.859434
  0
LINE
  8
1
  6
CONTINUOUS
 10
94.141046
 20
60.359435
 11
94.141046
 21
59.859434
  0
LINE
  8
1
  6
CONTINUOUS
 10
98.305559
 20
60.359435
 11
98.305559
 21
59.859434
  0
LINE
  8
1
  6
CONTINUOUS
 10
101.293682
 20
60.359435
 11
101.293682
 21
59.859434
  0
LINE
  8
1
  6
CONTINUOUS
 10
102.338498
 20
60.359435
 11
102.338498
 21
59.859434
  0
LINE
  8
1
  6
CONTINUOUS
 10
103.383314
 20
60.359435
 11
103.383314
 21
59.859434
  0
LINE
  8
1
  6
CONTINUOUS
 10
104.428130
 20
60.359435
 11
104.428130
 21
59.859434
  0
LINE
  8
1
  6
CONTINUOUS
 10
104.428130
 20
59.859434
 11
104.428130
 21
60.359435
  0
LINE
  8
1
  6
CONTINUOUS
 10
104.428130
 20
60.359435
 11
104.428130
 21
59.859434
  0
LINE
  8
1
  6
CONTINUOUS
 10
105.995354
 20
60.359435
 11
105.995354
 21
59.859434
  0
LINE
  8
1
  6
CONTINUOUS
 10
107.562578
 20
60.359435
 11
107.562578
 21
59.859434
  0
LINE
  8
1
  6
CONTINUOUS
 10
88.138850
 20
59.859434
 11
88.138850
 21
59.359434
  0
LINE
  8
1
  6
CONTINUOUS
 10
88.138850
 20
59.359434
 11
107.562578
 21
59.359434
  0
LINE
  8
1
  6
CONTINUOUS
 10
90.627966
 20
59.859434
 11
90.627966
 21
59.359434
  0
LINE
  8
1
  6
CONTINUOUS
 10
92.765679
 20
59.859434
 11
92.765679
 21
59.359434
  0
LINE
  8
1
  6
CONTINUOUS
 10
94.141046
 20
59.859434
 11
94.141046
 21
59.359434
  0
LINE
  8
1
  6
CONTINUOUS
 10
98.305559
 20
59.859434
 11
98.305559
 21
59.359434
  0
LINE
  8
1
  6
CONTINUOUS
 10
101.293682
 20
59.859434
 11
101.293682
 21
59.359434
  0
LINE
  8
1
  6
CONTINUOUS
 10
102.338498
 20
59.859434
 11
102.338498
 21
59.359434
  0
LINE
  8
1
  6
CONTINUOUS
 10
103.383314
 20
59.859434
 11
103.383314
 21
59.359434
  0
LINE
  8
1
  6
CONTINUOUS
 10
104.428130
 20
59.859434
 11
104.428130
 21
59.359434
  0
LINE
  8
1
  6
CONTINUOUS
 10
104.428130
 20
59.359434
 11
104.428130
 21
59.859434
  0
LINE
  8
1
  6
CONTINUOUS
 10
104.428130
 20
59.859434
 11
104.428130
 21
59.359434
  0
LINE
  8
1
  6
CONTINUOUS
 10
105.995354
 20
59.859434
 11
105.995354
 21
59.359434
  0
LINE
  8
1
  6
CONTINUOUS
 10
107.562578
 20
59.859434
 11
107.562578
 21
59.359434
  0
LINE
  8
1
  6
CONTINUOUS
 10
88.138850
 20
59.359433
 11
88.138850
 21
58.859433
  0
LINE
  8
1
  6
CONTINUOUS
 10
88.138850
 20
58.859433
 11
107.562578
 21
58.859433
  0
LINE
  8
1
  6
CONTINUOUS
 10
90.627966
 20
59.359433
 11
90.627966
 21
58.859433
  0
LINE
  8
1
  6
CONTINUOUS
 10
92.765679
 20
59.359433
 11
92.765679
 21
58.859433
  0
LINE
  8
1
  6
CONTINUOUS
 10
94.141046
 20
59.359433
 11
94.141046
 21
58.859433
  0
LINE
  8
1
  6
CONTINUOUS
 10
98.305559
 20
59.359433
 11
98.305559
 21
58.859433
  0
LINE
  8
1
  6
CONTINUOUS
 10
101.293682
 20
59.359433
 11
101.293682
 21
58.859433
  0
LINE
  8
1
  6
CONTINUOUS
 10
102.338498
 20
59.359433
 11
102.338498
 21
58.859433
  0
LINE
  8
1
  6
CONTINUOUS
 10
103.383314
 20
59.359433
 11
103.383314
 21
58.859433
  0
LINE
  8
1
  6
CONTINUOUS
 10
104.428130
 20
59.359433
 11
104.428130
 21
58.859433
  0
LINE
  8
1
  6
CONTINUOUS
 10
104.428130
 20
58.859433
 11
104.428130
 21
59.359433
  0
LINE
  8
1
  6
CONTINUOUS
 10
104.428130
 20
59.359434
 11
104.428130
 21
58.859433
  0
LINE
  8
1
  6
CONTINUOUS
 10
105.995354
 20
59.359433
 11
105.995354
 21
58.859433
  0
LINE
  8
1
  6
CONTINUOUS
 10
107.562578
 20
59.359433
 11
107.562578
 21
58.859433
  0
LINE
  8
1
  6
CONTINUOUS
 10
88.138850
 20
58.859432
 11
88.138850
 21
58.359432
  0
LINE
  8
1
  6
CONTINUOUS
 10
88.138850
 20
58.359432
 11
107.562578
 21
58.359432
  0
LINE
  8
1
  6
CONTINUOUS
 10
90.627966
 20
58.859432
 11
90.627966
 21
58.359432
  0
LINE
  8
1
  6
CONTINUOUS
 10
92.765679
 20
58.859432
 11
92.765679
 21
58.359432
  0
LINE
  8
1
  6
CONTINUOUS
 10
94.141046
 20
58.859432
 11
94.141046
 21
58.359432
  0
LINE
  8
1
  6
CONTINUOUS
 10
98.305559
 20
58.859432
 11
98.305559
 21
58.359432
  0
LINE
  8
1
  6
CONTINUOUS
 10
101.293682
 20
58.859432
 11
101.293682
 21
58.359432
  0
LINE
  8
1
  6
CONTINUOUS
 10
102.338498
 20
58.859432
 11
102.338498
 21
58.359432
  0
LINE
  8
1
  6
CONTINUOUS
 10
103.383314
 20
58.859432
 11
103.383314
 21
58.359432
  0
LINE
  8
1
  6
CONTINUOUS
 10
104.428130
 20
58.859432
 11
104.428130
 21
58.359432
  0
LINE
  8
1
  6
CONTINUOUS
 10
104.428130
 20
58.359432
 11
104.428130
 21
58.859432
  0
LINE
  8
1
  6
CONTINUOUS
 10
104.428130
 20
58.859433
 11
104.428130
 21
58.359432
  0
LINE
  8
1
  6
CONTINUOUS
 10
105.995354
 20
58.859432
 11
105.995354
 21
58.359432
  0
LINE
  8
1
  6
CONTINUOUS
 10
107.562578
 20
58.859432
 11
107.562578
 21
58.359432
  0
LINE
  8
1
  6
CONTINUOUS
 10
88.138850
 20
58.359432
 11
88.138850
 21
57.859432
  0
LINE
  8
1
  6
CONTINUOUS
 10
88.138850
 20
57.859432
 11
107.562578
 21
57.859432
  0
LINE
  8
1
  6
CONTINUOUS
 10
90.627966
 20
58.359432
 11
90.627966
 21
57.859432
  0
LINE
  8
1
  6
CONTINUOUS
 10
92.765679
 20
58.359432
 11
92.765679
 21
57.859432
  0
LINE
  8
1
  6
CONTINUOUS
 10
94.141046
 20
58.359432
 11
94.141046
 21
57.859432
  0
LINE
  8
1
  6
CONTINUOUS
 10
98.305559
 20
58.359432
 11
98.305559
 21
57.859432
  0
LINE
  8
1
  6
CONTINUOUS
 10
101.293682
 20
58.359432
 11
101.293682
 21
57.859432
  0
LINE
  8
1
  6
CONTINUOUS
 10
102.338498
 20
58.359432
 11
102.338498
 21
57.859432
  0
LINE
  8
1
  6
CONTINUOUS
 10
103.383314
 20
58.359432
 11
103.383314
 21
57.859432
  0
LINE
  8
1
  6
CONTINUOUS
 10
104.428130
 20
58.359432
 11
104.428130
 21
57.859432
  0
LINE
  8
1
  6
CONTINUOUS
 10
104.428130
 20
57.859432
 11
104.428130
 21
58.359432
  0
LINE
  8
1
  6
CONTINUOUS
 10
104.428130
 20
58.359432
 11
104.428130
 21
57.859431
  0
LINE
  8
1
  6
CONTINUOUS
 10
105.995354
 20
58.359432
 11
105.995354
 21
57.859432
  0
LINE
  8
1
  6
CONTINUOUS
 10
107.562578
 20
58.359432
 11
107.562578
 21
57.859432
  0
LINE
  8
1
  6
CONTINUOUS
 10
88.138850
 20
57.859431
 11
88.138850
 21
57.359431
  0
LINE
  8
1
  6
CONTINUOUS
 10
88.138850
 20
57.359431
 11
107.562578
 21
57.359431
  0
LINE
  8
1
  6
CONTINUOUS
 10
90.627966
 20
57.859431
 11
90.627966
 21
57.359431
  0
LINE
  8
1
  6
CONTINUOUS
 10
92.765679
 20
57.859431
 11
92.765679
 21
57.359431
  0
LINE
  8
1
  6
CONTINUOUS
 10
94.141046
 20
57.859431
 11
94.141046
 21
57.359431
  0
LINE
  8
1
  6
CONTINUOUS
 10
98.305559
 20
57.859431
 11
98.305559
 21
57.359431
  0
LINE
  8
1
  6
CONTINUOUS
 10
101.293682
 20
57.859431
 11
101.293682
 21
57.359431
  0
LINE
  8
1
  6
CONTINUOUS
 10
102.338498
 20
57.859431
 11
102.338498
 21
57.359431
  0
LINE
  8
1
  6
CONTINUOUS
 10
103.383314
 20
57.859431
 11
103.383314
 21
57.359431
  0
LINE
  8
1
  6
CONTINUOUS
 10
104.428130
 20
57.859431
 11
104.428130
 21
57.359431
  0
LINE
  8
1
  6
CONTINUOUS
 10
104.428130
 20
57.359431
 11
104.428130
 21
57.859431
  0
LINE
  8
1
  6
CONTINUOUS
 10
104.428130
 20
57.859431
 11
104.428130
 21
57.359431
  0
LINE
  8
1
  6
CONTINUOUS
 10
105.995354
 20
57.859431
 11
105.995354
 21
57.359431
  0
LINE
  8
1
  6
CONTINUOUS
 10
107.562578
 20
57.859431
 11
107.562578
 21
57.359431
  0
LINE
  8
1
  6
CONTINUOUS
 10
88.138850
 20
57.359430
 11
88.138850
 21
56.859430
  0
LINE
  8
1
  6
CONTINUOUS
 10
88.138850
 20
56.859430
 11
107.562578
 21
56.859430
  0
LINE
  8
1
  6
CONTINUOUS
 10
90.627966
 20
57.359430
 11
90.627966
 21
56.859430
  0
LINE
  8
1
  6
CONTINUOUS
 10
92.765679
 20
57.359430
 11
92.765679
 21
56.859430
  0
LINE
  8
1
  6
CONTINUOUS
 10
94.141046
 20
57.359430
 11
94.141046
 21
56.859430
  0
LINE
  8
1
  6
CONTINUOUS
 10
98.305559
 20
57.359430
 11
98.305559
 21
56.859430
  0
LINE
  8
1
  6
CONTINUOUS
 10
101.293682
 20
57.359430
 11
101.293682
 21
56.859430
  0
LINE
  8
1
  6
CONTINUOUS
 10
102.338498
 20
57.359430
 11
102.338498
 21
56.859430
  0
LINE
  8
1
  6
CONTINUOUS
 10
103.383314
 20
57.359430
 11
103.383314
 21
56.859430
  0
LINE
  8
1
  6
CONTINUOUS
 10
104.428130
 20
57.359430
 11
104.428130
 21
56.859430
  0
LINE
  8
1
  6
CONTINUOUS
 10
104.428130
 20
56.859430
 11
104.428130
 21
57.359430
  0
LINE
  8
1
  6
CONTINUOUS
 10
104.428130
 20
57.359431
 11
104.428130
 21
56.859430
  0
LINE
  8
1
  6
CONTINUOUS
 10
105.995354
 20
57.359430
 11
105.995354
 21
56.859430
  0
LINE
  8
1
  6
CONTINUOUS
 10
107.562578
 20
57.359430
 11
107.562578
 21
56.859430
  0
LINE
  8
1
  6
CONTINUOUS
 10
88.138850
 20
56.859430
 11
88.138850
 21
56.359429
  0
LINE
  8
1
  6
CONTINUOUS
 10
88.138850
 20
56.359429
 11
107.562578
 21
56.359429
  0
LINE
  8
1
  6
CONTINUOUS
 10
90.627966
 20
56.859430
 11
90.627966
 21
56.359429
  0
LINE
  8
1
  6
CONTINUOUS
 10
92.765679
 20
56.859430
 11
92.765679
 21
56.359429
  0
LINE
  8
1
  6
CONTINUOUS
 10
94.141046
 20
56.859430
 11
94.141046
 21
56.359429
  0
LINE
  8
1
  6
CONTINUOUS
 10
98.305559
 20
56.859430
 11
98.305559
 21
56.359429
  0
LINE
  8
1
  6
CONTINUOUS
 10
101.293682
 20
56.859430
 11
101.293682
 21
56.359429
  0
LINE
  8
1
  6
CONTINUOUS
 10
102.338498
 20
56.859430
 11
102.338498
 21
56.359429
  0
LINE
  8
1
  6
CONTINUOUS
 10
103.383314
 20
56.859430
 11
103.383314
 21
56.359429
  0
LINE
  8
1
  6
CONTINUOUS
 10
104.428130
 20
56.859430
 11
104.428130
 21
56.359429
  0
LINE
  8
1
  6
CONTINUOUS
 10
104.428130
 20
56.359429
 11
104.428130
 21
56.859430
  0
LINE
  8
1
  6
CONTINUOUS
 10
104.428130
 20
56.859430
 11
104.428130
 21
56.359429
  0
LINE
  8
1
  6
CONTINUOUS
 10
105.995354
 20
56.859430
 11
105.995354
 21
56.359429
  0
LINE
  8
1
  6
CONTINUOUS
 10
107.562578
 20
56.859430
 11
107.562578
 21
56.359429
  0
LINE
  8
1
  6
CONTINUOUS
 10
88.138850
 20
56.359429
 11
88.138850
 21
55.859429
  0
LINE
  8
1
  6
CONTINUOUS
 10
88.138850
 20
55.859429
 11
107.562578
 21
55.859429
  0
LINE
  8
1
  6
CONTINUOUS
 10
90.627966
 20
56.359429
 11
90.627966
 21
55.859429
  0
LINE
  8
1
  6
CONTINUOUS
 10
92.765679
 20
56.359429
 11
92.765679
 21
55.859429
  0
LINE
  8
1
  6
CONTINUOUS
 10
94.141046
 20
56.359429
 11
94.141046
 21
55.859429
  0
LINE
  8
1
  6
CONTINUOUS
 10
98.305559
 20
56.359429
 11
98.305559
 21
55.859429
  0
LINE
  8
1
  6
CONTINUOUS
 10
101.293682
 20
56.359429
 11
101.293682
 21
55.859429
  0
LINE
  8
1
  6
CONTINUOUS
 10
102.338498
 20
56.359429
 11
102.338498
 21
55.859429
  0
LINE
  8
1
  6
CONTINUOUS
 10
103.383314
 20
56.359429
 11
103.383314
 21
55.859429
  0
LINE
  8
1
  6
CONTINUOUS
 10
104.428130
 20
56.359429
 11
104.428130
 21
55.859429
  0
LINE
  8
1
  6
CONTINUOUS
 10
104.428130
 20
55.859429
 11
104.428130
 21
56.359429
  0
LINE
  8
1
  6
CONTINUOUS
 10
104.428130
 20
56.359429
 11
104.428130
 21
55.859429
  0
LINE
  8
1
  6
CONTINUOUS
 10
105.995354
 20
56.359429
 11
105.995354
 21
55.859429
  0
LINE
  8
1
  6
CONTINUOUS
 10
107.562578
 20
56.359429
 11
107.562578
 21
55.859429
  0
LINE
  8
1
  6
CONTINUOUS
 10
88.138850
 20
55.859428
 11
88.138850
 21
55.359428
  0
LINE
  8
1
  6
CONTINUOUS
 10
88.138850
 20
55.359428
 11
107.562578
 21
55.359428
  0
LINE
  8
1
  6
CONTINUOUS
 10
90.627966
 20
55.859428
 11
90.627966
 21
55.359428
  0
LINE
  8
1
  6
CONTINUOUS
 10
92.765679
 20
55.859428
 11
92.765679
 21
55.359428
  0
LINE
  8
1
  6
CONTINUOUS
 10
94.141046
 20
55.859428
 11
94.141046
 21
55.359428
  0
LINE
  8
1
  6
CONTINUOUS
 10
98.305559
 20
55.859428
 11
98.305559
 21
55.359428
  0
LINE
  8
1
  6
CONTINUOUS
 10
101.293682
 20
55.859428
 11
101.293682
 21
55.359428
  0
LINE
  8
1
  6
CONTINUOUS
 10
102.338498
 20
55.859428
 11
102.338498
 21
55.359428
  0
LINE
  8
1
  6
CONTINUOUS
 10
103.383314
 20
55.859428
 11
103.383314
 21
55.359428
  0
LINE
  8
1
  6
CONTINUOUS
 10
104.428130
 20
55.859428
 11
104.428130
 21
55.359428
  0
LINE
  8
1
  6
CONTINUOUS
 10
104.428130
 20
55.359428
 11
104.428130
 21
55.859428
  0
LINE
  8
1
  6
CONTINUOUS
 10
104.428130
 20
55.859429
 11
104.428130
 21
55.359428
  0
LINE
  8
1
  6
CONTINUOUS
 10
105.995354
 20
55.859428
 11
105.995354
 21
55.359428
  0
LINE
  8
1
  6
CONTINUOUS
 10
107.562578
 20
55.859428
 11
107.562578
 21
55.359428
  0
LINE
  8
1
  6
CONTINUOUS
 10
88.138850
 20
55.359427
 11
88.138850
 21
54.859427
  0
LINE
  8
1
  6
CONTINUOUS
 10
88.138850
 20
54.859427
 11
107.562578
 21
54.859427
  0
LINE
  8
1
  6
CONTINUOUS
 10
90.627966
 20
55.359427
 11
90.627966
 21
54.859427
  0
LINE
  8
1
  6
CONTINUOUS
 10
92.765679
 20
55.359427
 11
92.765679
 21
54.859427
  0
LINE
  8
1
  6
CONTINUOUS
 10
94.141046
 20
55.359427
 11
94.141046
 21
54.859427
  0
LINE
  8
1
  6
CONTINUOUS
 10
98.305559
 20
55.359427
 11
98.305559
 21
54.859427
  0
LINE
  8
1
  6
CONTINUOUS
 10
101.293682
 20
55.359427
 11
101.293682
 21
54.859427
  0
LINE
  8
1
  6
CONTINUOUS
 10
102.338498
 20
55.359427
 11
102.338498
 21
54.859427
  0
LINE
  8
1
  6
CONTINUOUS
 10
103.383314
 20
55.359427
 11
103.383314
 21
54.859427
  0
LINE
  8
1
  6
CONTINUOUS
 10
104.428130
 20
55.359427
 11
104.428130
 21
54.859427
  0
LINE
  8
1
  6
CONTINUOUS
 10
104.428130
 20
54.859427
 11
104.428130
 21
55.359427
  0
LINE
  8
1
  6
CONTINUOUS
 10
104.428130
 20
55.359428
 11
104.428130
 21
54.859427
  0
LINE
  8
1
  6
CONTINUOUS
 10
105.995354
 20
55.359427
 11
105.995354
 21
54.859427
  0
LINE
  8
1
  6
CONTINUOUS
 10
107.562578
 20
55.359427
 11
107.562578
 21
54.859427
  0
LINE
  8
1
  6
CONTINUOUS
 10
88.138850
 20
54.859427
 11
88.138850
 21
54.359427
  0
LINE
  8
1
  6
CONTINUOUS
 10
88.138850
 20
54.359427
 11
107.562578
 21
54.359427
  0
LINE
  8
1
  6
CONTINUOUS
 10
90.627966
 20
54.859427
 11
90.627966
 21
54.359427
  0
LINE
  8
1
  6
CONTINUOUS
 10
92.765679
 20
54.859427
 11
92.765679
 21
54.359427
  0
LINE
  8
1
  6
CONTINUOUS
 10
94.141046
 20
54.859427
 11
94.141046
 21
54.359427
  0
LINE
  8
1
  6
CONTINUOUS
 10
98.305559
 20
54.859427
 11
98.305559
 21
54.359427
  0
LINE
  8
1
  6
CONTINUOUS
 10
101.293682
 20
54.859427
 11
101.293682
 21
54.359427
  0
LINE
  8
1
  6
CONTINUOUS
 10
102.338498
 20
54.859427
 11
102.338498
 21
54.359427
  0
LINE
  8
1
  6
CONTINUOUS
 10
103.383314
 20
54.859427
 11
103.383314
 21
54.359427
  0
LINE
  8
1
  6
CONTINUOUS
 10
104.428130
 20
54.859427
 11
104.428130
 21
54.359427
  0
LINE
  8
1
  6
CONTINUOUS
 10
104.428130
 20
54.359427
 11
104.428130
 21
54.859427
  0
LINE
  8
1
  6
CONTINUOUS
 10
104.428130
 20
54.859427
 11
104.428130
 21
54.359426
  0
LINE
  8
1
  6
CONTINUOUS
 10
105.995354
 20
54.859427
 11
105.995354
 21
54.359427
  0
LINE
  8
1
  6
CONTINUOUS
 10
107.562578
 20
54.859427
 11
107.562578
 21
54.359427
  0
LINE
  8
1
  6
CONTINUOUS
 10
88.138850
 20
54.359426
 11
88.138850
 21
53.859426
  0
LINE
  8
1
  6
CONTINUOUS
 10
88.138850
 20
53.859426
 11
107.562578
 21
53.859426
  0
LINE
  8
1
  6
CONTINUOUS
 10
90.627966
 20
54.359426
 11
90.627966
 21
53.859426
  0
LINE
  8
1
  6
CONTINUOUS
 10
92.765679
 20
54.359426
 11
92.765679
 21
53.859426
  0
LINE
  8
1
  6
CONTINUOUS
 10
94.141046
 20
54.359426
 11
94.141046
 21
53.859426
  0
LINE
  8
1
  6
CONTINUOUS
 10
98.305559
 20
54.359426
 11
98.305559
 21
53.859426
  0
LINE
  8
1
  6
CONTINUOUS
 10
101.293682
 20
54.359426
 11
101.293682
 21
53.859426
  0
LINE
  8
1
  6
CONTINUOUS
 10
102.338498
 20
54.359426
 11
102.338498
 21
53.859426
  0
LINE
  8
1
  6
CONTINUOUS
 10
103.383314
 20
54.359426
 11
103.383314
 21
53.859426
  0
LINE
  8
1
  6
CONTINUOUS
 10
104.428130
 20
54.359426
 11
104.428130
 21
53.859426
  0
LINE
  8
1
  6
CONTINUOUS
 10
104.428130
 20
53.859426
 11
104.428130
 21
54.359426
  0
LINE
  8
1
  6
CONTINUOUS
 10
104.428130
 20
54.359426
 11
104.428130
 21
53.859426
  0
LINE
  8
1
  6
CONTINUOUS
 10
105.995354
 20
54.359426
 11
105.995354
 21
53.859426
  0
LINE
  8
1
  6
CONTINUOUS
 10
107.562578
 20
54.359426
 11
107.562578
 21
53.859426
  0
LINE
  8
1
  6
CONTINUOUS
 10
88.138850
 20
53.859425
 11
88.138850
 21
53.359425
  0
LINE
  8
1
  6
CONTINUOUS
 10
88.138850
 20
53.359425
 11
107.562578
 21
53.359425
  0
LINE
  8
1
  6
CONTINUOUS
 10
90.627966
 20
53.859425
 11
90.627966
 21
53.359425
  0
LINE
  8
1
  6
CONTINUOUS
 10
92.765679
 20
53.859425
 11
92.765679
 21
53.359425
  0
LINE
  8
1
  6
CONTINUOUS
 10
94.141046
 20
53.859425
 11
94.141046
 21
53.359425
  0
LINE
  8
1
  6
CONTINUOUS
 10
98.305559
 20
53.859425
 11
98.305559
 21
53.359425
  0
LINE
  8
1
  6
CONTINUOUS
 10
101.293682
 20
53.859425
 11
101.293682
 21
53.359425
  0
LINE
  8
1
  6
CONTINUOUS
 10
102.338498
 20
53.859425
 11
102.338498
 21
53.359425
  0
LINE
  8
1
  6
CONTINUOUS
 10
103.383314
 20
53.859425
 11
103.383314
 21
53.359425
  0
LINE
  8
1
  6
CONTINUOUS
 10
104.428130
 20
53.859425
 11
104.428130
 21
53.359425
  0
LINE
  8
1
  6
CONTINUOUS
 10
104.428130
 20
53.359425
 11
104.428130
 21
53.859425
  0
LINE
  8
1
  6
CONTINUOUS
 10
104.428130
 20
53.859426
 11
104.428130
 21
53.359425
  0
LINE
  8
1
  6
CONTINUOUS
 10
105.995354
 20
53.859425
 11
105.995354
 21
53.359425
  0
LINE
  8
1
  6
CONTINUOUS
 10
107.562578
 20
53.859425
 11
107.562578
 21
53.359425
  0
LINE
  8
1
  6
CONTINUOUS
 10
88.138850
 20
53.359425
 11
88.138850
 21
52.859424
  0
LINE
  8
1
  6
CONTINUOUS
 10
88.138850
 20
52.859424
 11
107.562578
 21
52.859424
  0
LINE
  8
1
  6
CONTINUOUS
 10
90.627966
 20
53.359425
 11
90.627966
 21
52.859424
  0
LINE
  8
1
  6
CONTINUOUS
 10
92.765679
 20
53.359425
 11
92.765679
 21
52.859424
  0
LINE
  8
1
  6
CONTINUOUS
 10
94.141046
 20
53.359425
 11
94.141046
 21
52.859424
  0
LINE
  8
1
  6
CONTINUOUS
 10
98.305559
 20
53.359425
 11
98.305559
 21
52.859424
  0
LINE
  8
1
  6
CONTINUOUS
 10
101.293682
 20
53.359425
 11
101.293682
 21
52.859424
  0
LINE
  8
1
  6
CONTINUOUS
 10
102.338498
 20
53.359425
 11
102.338498
 21
52.859424
  0
LINE
  8
1
  6
CONTINUOUS
 10
103.383314
 20
53.359425
 11
103.383314
 21
52.859424
  0
LINE
  8
1
  6
CONTINUOUS
 10
104.428130
 20
53.359425
 11
104.428130
 21
52.859424
  0
LINE
  8
1
  6
CONTINUOUS
 10
104.428130
 20
52.859424
 11
104.428130
 21
53.359425
  0
LINE
  8
1
  6
CONTINUOUS
 10
104.428130
 20
53.359425
 11
104.428130
 21
52.859424
  0
LINE
  8
1
  6
CONTINUOUS
 10
105.995354
 20
53.359425
 11
105.995354
 21
52.859424
  0
LINE
  8
1
  6
CONTINUOUS
 10
107.562578
 20
53.359425
 11
107.562578
 21
52.859424
  0
LINE
  8
1
  6
CONTINUOUS
 10
88.138850
 20
52.859424
 11
88.138850
 21
52.359424
  0
LINE
  8
1
  6
CONTINUOUS
 10
88.138850
 20
52.359424
 11
107.562578
 21
52.359424
  0
LINE
  8
1
  6
CONTINUOUS
 10
90.627966
 20
52.859424
 11
90.627966
 21
52.359424
  0
LINE
  8
1
  6
CONTINUOUS
 10
92.765679
 20
52.859424
 11
92.765679
 21
52.359424
  0
LINE
  8
1
  6
CONTINUOUS
 10
94.141046
 20
52.859424
 11
94.141046
 21
52.359424
  0
LINE
  8
1
  6
CONTINUOUS
 10
98.305559
 20
52.859424
 11
98.305559
 21
52.359424
  0
LINE
  8
1
  6
CONTINUOUS
 10
101.293682
 20
52.859424
 11
101.293682
 21
52.359424
  0
LINE
  8
1
  6
CONTINUOUS
 10
102.338498
 20
52.859424
 11
102.338498
 21
52.359424
  0
LINE
  8
1
  6
CONTINUOUS
 10
103.383314
 20
52.859424
 11
103.383314
 21
52.359424
  0
LINE
  8
1
  6
CONTINUOUS
 10
104.428130
 20
52.859424
 11
104.428130
 21
52.359424
  0
LINE
  8
1
  6
CONTINUOUS
 10
104.428130
 20
52.359424
 11
104.428130
 21
52.859424
  0
LINE
  8
1
  6
CONTINUOUS
 10
104.428130
 20
52.859424
 11
104.428130
 21
52.359424
  0
LINE
  8
1
  6
CONTINUOUS
 10
105.995354
 20
52.859424
 11
105.995354
 21
52.359424
  0
LINE
  8
1
  6
CONTINUOUS
 10
107.562578
 20
52.859424
 11
107.562578
 21
52.359424
  0
LINE
  8
1
  6
CONTINUOUS
 10
88.138850
 20
52.359423
 11
88.138850
 21
51.859423
  0
LINE
  8
1
  6
CONTINUOUS
 10
88.138850
 20
51.859423
 11
107.562578
 21
51.859423
  0
LINE
  8
1
  6
CONTINUOUS
 10
90.627966
 20
52.359423
 11
90.627966
 21
51.859423
  0
LINE
  8
1
  6
CONTINUOUS
 10
92.765679
 20
52.359423
 11
92.765679
 21
51.859423
  0
LINE
  8
1
  6
CONTINUOUS
 10
94.141046
 20
52.359423
 11
94.141046
 21
51.859423
  0
LINE
  8
1
  6
CONTINUOUS
 10
98.305559
 20
52.359423
 11
98.305559
 21
51.859423
  0
LINE
  8
1
  6
CONTINUOUS
 10
101.293682
 20
52.359423
 11
101.293682
 21
51.859423
  0
LINE
  8
1
  6
CONTINUOUS
 10
102.338498
 20
52.359423
 11
102.338498
 21
51.859423
  0
LINE
  8
1
  6
CONTINUOUS
 10
103.383314
 20
52.359423
 11
103.383314
 21
51.859423
  0
LINE
  8
1
  6
CONTINUOUS
 10
104.428130
 20
52.359423
 11
104.428130
 21
51.859423
  0
LINE
  8
1
  6
CONTINUOUS
 10
104.428130
 20
51.859423
 11
104.428130
 21
52.359423
  0
LINE
  8
1
  6
CONTINUOUS
 10
104.428130
 20
52.359424
 11
104.428130
 21
51.859423
  0
LINE
  8
1
  6
CONTINUOUS
 10
105.995354
 20
52.359423
 11
105.995354
 21
51.859423
  0
LINE
  8
1
  6
CONTINUOUS
 10
107.562578
 20
52.359423
 11
107.562578
 21
51.859423
  0
LINE
  8
1
  6
CONTINUOUS
 10
88.138850
 20
51.859422
 11
88.138850
 21
51.359422
  0
LINE
  8
1
  6
CONTINUOUS
 10
88.138850
 20
51.359422
 11
107.562578
 21
51.359422
  0
LINE
  8
1
  6
CONTINUOUS
 10
90.627966
 20
51.859422
 11
90.627966
 21
51.359422
  0
LINE
  8
1
  6
CONTINUOUS
 10
92.765679
 20
51.859422
 11
92.765679
 21
51.359422
  0
LINE
  8
1
  6
CONTINUOUS
 10
94.141046
 20
51.859422
 11
94.141046
 21
51.359422
  0
LINE
  8
1
  6
CONTINUOUS
 10
98.305559
 20
51.859422
 11
98.305559
 21
51.359422
  0
LINE
  8
1
  6
CONTINUOUS
 10
101.293682
 20
51.859422
 11
101.293682
 21
51.359422
  0
LINE
  8
1
  6
CONTINUOUS
 10
102.338498
 20
51.859422
 11
102.338498
 21
51.359422
  0
LINE
  8
1
  6
CONTINUOUS
 10
103.383314
 20
51.859422
 11
103.383314
 21
51.359422
  0
LINE
  8
1
  6
CONTINUOUS
 10
104.428130
 20
51.859422
 11
104.428130
 21
51.359422
  0
LINE
  8
1
  6
CONTINUOUS
 10
104.428130
 20
51.359422
 11
104.428130
 21
51.859422
  0
LINE
  8
1
  6
CONTINUOUS
 10
104.428130
 20
51.859423
 11
104.428130
 21
51.359422
  0
LINE
  8
1
  6
CONTINUOUS
 10
105.995354
 20
51.859422
 11
105.995354
 21
51.359422
  0
LINE
  8
1
  6
CONTINUOUS
 10
107.562578
 20
51.859422
 11
107.562578
 21
51.359422
  0
LINE
  8
1
  6
CONTINUOUS
 10
88.138850
 20
51.359422
 11
88.138850
 21
50.859422
  0
LINE
  8
1
  6
CONTINUOUS
 10
88.138850
 20
50.859422
 11
107.562578
 21
50.859422
  0
LINE
  8
1
  6
CONTINUOUS
 10
90.627966
 20
51.359422
 11
90.627966
 21
50.859422
  0
LINE
  8
1
  6
CONTINUOUS
 10
92.765679
 20
51.359422
 11
92.765679
 21
50.859422
  0
LINE
  8
1
  6
CONTINUOUS
 10
94.141046
 20
51.359422
 11
94.141046
 21
50.859422
  0
LINE
  8
1
  6
CONTINUOUS
 10
98.305559
 20
51.359422
 11
98.305559
 21
50.859422
  0
LINE
  8
1
  6
CONTINUOUS
 10
101.293682
 20
51.359422
 11
101.293682
 21
50.859422
  0
LINE
  8
1
  6
CONTINUOUS
 10
102.338498
 20
51.359422
 11
102.338498
 21
50.859422
  0
LINE
  8
1
  6
CONTINUOUS
 10
103.383314
 20
51.359422
 11
103.383314
 21
50.859422
  0
LINE
  8
1
  6
CONTINUOUS
 10
104.428130
 20
51.359422
 11
104.428130
 21
50.859422
  0
LINE
  8
1
  6
CONTINUOUS
 10
104.428130
 20
50.859422
 11
104.428130
 21
51.359422
  0
LINE
  8
1
  6
CONTINUOUS
 10
104.428130
 20
51.359422
 11
104.428130
 21
50.859421
  0
LINE
  8
1
  6
CONTINUOUS
 10
105.995354
 20
51.359422
 11
105.995354
 21
50.859422
  0
LINE
  8
1
  6
CONTINUOUS
 10
107.562578
 20
51.359422
 11
107.562578
 21
50.859422
  0
LINE
  8
1
  6
CONTINUOUS
 10
88.138850
 20
50.859421
 11
88.138850
 21
50.359421
  0
LINE
  8
1
  6
CONTINUOUS
 10
88.138850
 20
50.359421
 11
107.562578
 21
50.359421
  0
LINE
  8
1
  6
CONTINUOUS
 10
90.627966
 20
50.859421
 11
90.627966
 21
50.359421
  0
LINE
  8
1
  6
CONTINUOUS
 10
92.765679
 20
50.859421
 11
92.765679
 21
50.359421
  0
LINE
  8
1
  6
CONTINUOUS
 10
94.141046
 20
50.859421
 11
94.141046
 21
50.359421
  0
LINE
  8
1
  6
CONTINUOUS
 10
98.305559
 20
50.859421
 11
98.305559
 21
50.359421
  0
LINE
  8
1
  6
CONTINUOUS
 10
101.293682
 20
50.859421
 11
101.293682
 21
50.359421
  0
LINE
  8
1
  6
CONTINUOUS
 10
102.338498
 20
50.859421
 11
102.338498
 21
50.359421
  0
LINE
  8
1
  6
CONTINUOUS
 10
103.383314
 20
50.859421
 11
103.383314
 21
50.359421
  0
LINE
  8
1
  6
CONTINUOUS
 10
104.428130
 20
50.859421
 11
104.428130
 21
50.359421
  0
LINE
  8
1
  6
CONTINUOUS
 10
104.428130
 20
50.359421
 11
104.428130
 21
50.859421
  0
LINE
  8
1
  6
CONTINUOUS
 10
104.428130
 20
50.859421
 11
104.428130
 21
50.359421
  0
LINE
  8
1
  6
CONTINUOUS
 10
105.995354
 20
50.859421
 11
105.995354
 21
50.359421
  0
LINE
  8
1
  6
CONTINUOUS
 10
107.562578
 20
50.859421
 11
107.562578
 21
50.359421
  0
LINE
  8
1
  6
CONTINUOUS
 10
88.138850
 20
50.359420
 11
88.138850
 21
49.859420
  0
LINE
  8
1
  6
CONTINUOUS
 10
88.138850
 20
49.859420
 11
107.562578
 21
49.859420
  0
LINE
  8
1
  6
CONTINUOUS
 10
90.627966
 20
50.359420
 11
90.627966
 21
49.859420
  0
LINE
  8
1
  6
CONTINUOUS
 10
92.765679
 20
50.359420
 11
92.765679
 21
49.859420
  0
LINE
  8
1
  6
CONTINUOUS
 10
94.141046
 20
50.359420
 11
94.141046
 21
49.859420
  0
LINE
  8
1
  6
CONTINUOUS
 10
98.305559
 20
50.359420
 11
98.305559
 21
49.859420
  0
LINE
  8
1
  6
CONTINUOUS
 10
101.293682
 20
50.359420
 11
101.293682
 21
49.859420
  0
LINE
  8
1
  6
CONTINUOUS
 10
102.338498
 20
50.359420
 11
102.338498
 21
49.859420
  0
LINE
  8
1
  6
CONTINUOUS
 10
103.383314
 20
50.359420
 11
103.383314
 21
49.859420
  0
LINE
  8
1
  6
CONTINUOUS
 10
104.428130
 20
50.359420
 11
104.428130
 21
49.859420
  0
LINE
  8
1
  6
CONTINUOUS
 10
104.428130
 20
49.859420
 11
104.428130
 21
50.359420
  0
LINE
  8
1
  6
CONTINUOUS
 10
104.428130
 20
50.359421
 11
104.428130
 21
49.859420
  0
LINE
  8
1
  6
CONTINUOUS
 10
105.995354
 20
50.359420
 11
105.995354
 21
49.859420
  0
LINE
  8
1
  6
CONTINUOUS
 10
107.562578
 20
50.359420
 11
107.562578
 21
49.859420
  0
LINE
  8
1
  6
CONTINUOUS
 10
88.138850
 20
49.859420
 11
88.138850
 21
49.359419
  0
LINE
  8
1
  6
CONTINUOUS
 10
88.138850
 20
49.359419
 11
107.562578
 21
49.359419
  0
LINE
  8
1
  6
CONTINUOUS
 10
90.627966
 20
49.859420
 11
90.627966
 21
49.359419
  0
LINE
  8
1
  6
CONTINUOUS
 10
92.765679
 20
49.859420
 11
92.765679
 21
49.359419
  0
LINE
  8
1
  6
CONTINUOUS
 10
94.141046
 20
49.859420
 11
94.141046
 21
49.359419
  0
LINE
  8
1
  6
CONTINUOUS
 10
98.305559
 20
49.859420
 11
98.305559
 21
49.359419
  0
LINE
  8
1
  6
CONTINUOUS
 10
101.293682
 20
49.859420
 11
101.293682
 21
49.359419
  0
LINE
  8
1
  6
CONTINUOUS
 10
102.338498
 20
49.859420
 11
102.338498
 21
49.359419
  0
LINE
  8
1
  6
CONTINUOUS
 10
103.383314
 20
49.859420
 11
103.383314
 21
49.359419
  0
LINE
  8
1
  6
CONTINUOUS
 10
104.428130
 20
49.859420
 11
104.428130
 21
49.359419
  0
LINE
  8
1
  6
CONTINUOUS
 10
104.428130
 20
49.359419
 11
104.428130
 21
49.859420
  0
LINE
  8
1
  6
CONTINUOUS
 10
104.428130
 20
49.859420
 11
104.428130
 21
49.359419
  0
LINE
  8
1
  6
CONTINUOUS
 10
105.995354
 20
49.859420
 11
105.995354
 21
49.359419
  0
LINE
  8
1
  6
CONTINUOUS
 10
107.562578
 20
49.859420
 11
107.562578
 21
49.359419
  0
LINE
  8
1
  6
CONTINUOUS
 10
88.138850
 20
49.359419
 11
88.138850
 21
48.859419
  0
LINE
  8
1
  6
CONTINUOUS
 10
88.138850
 20
48.859419
 11
107.562578
 21
48.859419
  0
LINE
  8
1
  6
CONTINUOUS
 10
90.627966
 20
49.359419
 11
90.627966
 21
48.859419
  0
LINE
  8
1
  6
CONTINUOUS
 10
92.765679
 20
49.359419
 11
92.765679
 21
48.859419
  0
LINE
  8
1
  6
CONTINUOUS
 10
94.141046
 20
49.359419
 11
94.141046
 21
48.859419
  0
LINE
  8
1
  6
CONTINUOUS
 10
98.305559
 20
49.359419
 11
98.305559
 21
48.859419
  0
LINE
  8
1
  6
CONTINUOUS
 10
101.293682
 20
49.359419
 11
101.293682
 21
48.859419
  0
LINE
  8
1
  6
CONTINUOUS
 10
102.338498
 20
49.359419
 11
102.338498
 21
48.859419
  0
LINE
  8
1
  6
CONTINUOUS
 10
103.383314
 20
49.359419
 11
103.383314
 21
48.859419
  0
LINE
  8
1
  6
CONTINUOUS
 10
104.428130
 20
49.359419
 11
104.428130
 21
48.859419
  0
LINE
  8
1
  6
CONTINUOUS
 10
104.428130
 20
48.859419
 11
104.428130
 21
49.359419
  0
LINE
  8
1
  6
CONTINUOUS
 10
104.428130
 20
49.359419
 11
104.428130
 21
48.859419
  0
LINE
  8
1
  6
CONTINUOUS
 10
105.995354
 20
49.359419
 11
105.995354
 21
48.859419
  0
LINE
  8
1
  6
CONTINUOUS
 10
107.562578
 20
49.359419
 11
107.562578
 21
48.859419
  0
LINE
  8
1
  6
CONTINUOUS
 10
88.138850
 20
48.859418
 11
88.138850
 21
48.359418
  0
LINE
  8
1
  6
CONTINUOUS
 10
88.138850
 20
48.359418
 11
107.562578
 21
48.359418
  0
LINE
  8
1
  6
CONTINUOUS
 10
90.627966
 20
48.859418
 11
90.627966
 21
48.359418
  0
LINE
  8
1
  6
CONTINUOUS
 10
92.765679
 20
48.859418
 11
92.765679
 21
48.359418
  0
LINE
  8
1
  6
CONTINUOUS
 10
94.141046
 20
48.859418
 11
94.141046
 21
48.359418
  0
LINE
  8
1
  6
CONTINUOUS
 10
98.305559
 20
48.859418
 11
98.305559
 21
48.359418
  0
LINE
  8
1
  6
CONTINUOUS
 10
101.293682
 20
48.859418
 11
101.293682
 21
48.359418
  0
LINE
  8
1
  6
CONTINUOUS
 10
102.338498
 20
48.859418
 11
102.338498
 21
48.359418
  0
LINE
  8
1
  6
CONTINUOUS
 10
103.383314
 20
48.859418
 11
103.383314
 21
48.359418
  0
LINE
  8
1
  6
CONTINUOUS
 10
104.428130
 20
48.859418
 11
104.428130
 21
48.359418
  0
LINE
  8
1
  6
CONTINUOUS
 10
104.428130
 20
48.359418
 11
104.428130
 21
48.859418
  0
LINE
  8
1
  6
CONTINUOUS
 10
104.428130
 20
48.859419
 11
104.428130
 21
48.359418
  0
LINE
  8
1
  6
CONTINUOUS
 10
105.995354
 20
48.859418
 11
105.995354
 21
48.359418
  0
LINE
  8
1
  6
CONTINUOUS
 10
107.562578
 20
48.859418
 11
107.562578
 21
48.359418
  0
LINE
  8
1
  6
CONTINUOUS
 10
88.138850
 20
48.359417
 11
88.138850
 21
47.859417
  0
LINE
  8
1
  6
CONTINUOUS
 10
88.138850
 20
47.859417
 11
107.562578
 21
47.859417
  0
LINE
  8
1
  6
CONTINUOUS
 10
90.627966
 20
48.359417
 11
90.627966
 21
47.859417
  0
LINE
  8
1
  6
CONTINUOUS
 10
92.765679
 20
48.359417
 11
92.765679
 21
47.859417
  0
LINE
  8
1
  6
CONTINUOUS
 10
94.141046
 20
48.359417
 11
94.141046
 21
47.859417
  0
LINE
  8
1
  6
CONTINUOUS
 10
98.305559
 20
48.359417
 11
98.305559
 21
47.859417
  0
LINE
  8
1
  6
CONTINUOUS
 10
101.293682
 20
48.359417
 11
101.293682
 21
47.859417
  0
LINE
  8
1
  6
CONTINUOUS
 10
102.338498
 20
48.359417
 11
102.338498
 21
47.859417
  0
LINE
  8
1
  6
CONTINUOUS
 10
103.383314
 20
48.359417
 11
103.383314
 21
47.859417
  0
LINE
  8
1
  6
CONTINUOUS
 10
104.428130
 20
48.359417
 11
104.428130
 21
47.859417
  0
LINE
  8
1
  6
CONTINUOUS
 10
104.428130
 20
47.859417
 11
104.428130
 21
48.359417
  0
LINE
  8
1
  6
CONTINUOUS
 10
104.428130
 20
48.359418
 11
104.428130
 21
47.859417
  0
LINE
  8
1
  6
CONTINUOUS
 10
105.995354
 20
48.359417
 11
105.995354
 21
47.859417
  0
LINE
  8
1
  6
CONTINUOUS
 10
107.562578
 20
48.359417
 11
107.562578
 21
47.859417
  0
LINE
  8
1
  6
CONTINUOUS
 10
88.138850
 20
47.859417
 11
88.138850
 21
47.359417
  0
LINE
  8
1
  6
CONTINUOUS
 10
88.138850
 20
47.359417
 11
107.562578
 21
47.359417
  0
LINE
  8
1
  6
CONTINUOUS
 10
90.627966
 20
47.859417
 11
90.627966
 21
47.359417
  0
LINE
  8
1
  6
CONTINUOUS
 10
92.765679
 20
47.859417
 11
92.765679
 21
47.359417
  0
LINE
  8
1
  6
CONTINUOUS
 10
94.141046
 20
47.859417
 11
94.141046
 21
47.359417
  0
LINE
  8
1
  6
CONTINUOUS
 10
98.305559
 20
47.859417
 11
98.305559
 21
47.359417
  0
LINE
  8
1
  6
CONTINUOUS
 10
101.293682
 20
47.859417
 11
101.293682
 21
47.359417
  0
LINE
  8
1
  6
CONTINUOUS
 10
102.338498
 20
47.859417
 11
102.338498
 21
47.359417
  0
LINE
  8
1
  6
CONTINUOUS
 10
103.383314
 20
47.859417
 11
103.383314
 21
47.359417
  0
LINE
  8
1
  6
CONTINUOUS
 10
104.428130
 20
47.859417
 11
104.428130
 21
47.359417
  0
LINE
  8
1
  6
CONTINUOUS
 10
104.428130
 20
47.359417
 11
104.428130
 21
47.859417
  0
LINE
  8
1
  6
CONTINUOUS
 10
104.428130
 20
47.859417
 11
104.428130
 21
47.359416
  0
LINE
  8
1
  6
CONTINUOUS
 10
105.995354
 20
47.859417
 11
105.995354
 21
47.359417
  0
LINE
  8
1
  6
CONTINUOUS
 10
107.562578
 20
47.859417
 11
107.562578
 21
47.359417
  0
LINE
  8
1
  6
CONTINUOUS
 10
88.138850
 20
47.359416
 11
88.138850
 21
46.859416
  0
LINE
  8
1
  6
CONTINUOUS
 10
88.138850
 20
46.859416
 11
107.562578
 21
46.859416
  0
LINE
  8
1
  6
CONTINUOUS
 10
90.627966
 20
47.359416
 11
90.627966
 21
46.859416
  0
LINE
  8
1
  6
CONTINUOUS
 10
92.765679
 20
47.359416
 11
92.765679
 21
46.859416
  0
LINE
  8
1
  6
CONTINUOUS
 10
94.141046
 20
47.359416
 11
94.141046
 21
46.859416
  0
LINE
  8
1
  6
CONTINUOUS
 10
98.305559
 20
47.359416
 11
98.305559
 21
46.859416
  0
LINE
  8
1
  6
CONTINUOUS
 10
101.293682
 20
47.359416
 11
101.293682
 21
46.859416
  0
LINE
  8
1
  6
CONTINUOUS
 10
102.338498
 20
47.359416
 11
102.338498
 21
46.859416
  0
LINE
  8
1
  6
CONTINUOUS
 10
103.383314
 20
47.359416
 11
103.383314
 21
46.859416
  0
LINE
  8
1
  6
CONTINUOUS
 10
104.428130
 20
47.359416
 11
104.428130
 21
46.859416
  0
LINE
  8
1
  6
CONTINUOUS
 10
104.428130
 20
46.859416
 11
104.428130
 21
47.359416
  0
LINE
  8
1
  6
CONTINUOUS
 10
104.428130
 20
47.359416
 11
104.428130
 21
46.859416
  0
LINE
  8
1
  6
CONTINUOUS
 10
105.995354
 20
47.359416
 11
105.995354
 21
46.859416
  0
LINE
  8
1
  6
CONTINUOUS
 10
107.562578
 20
47.359416
 11
107.562578
 21
46.859416
  0
LINE
  8
1
  6
CONTINUOUS
 10
88.138850
 20
46.859415
 11
88.138850
 21
46.359415
  0
LINE
  8
1
  6
CONTINUOUS
 10
88.138850
 20
46.359415
 11
107.562578
 21
46.359415
  0
LINE
  8
1
  6
CONTINUOUS
 10
90.627966
 20
46.859415
 11
90.627966
 21
46.359415
  0
LINE
  8
1
  6
CONTINUOUS
 10
92.765679
 20
46.859415
 11
92.765679
 21
46.359415
  0
LINE
  8
1
  6
CONTINUOUS
 10
94.141046
 20
46.859415
 11
94.141046
 21
46.359415
  0
LINE
  8
1
  6
CONTINUOUS
 10
98.305559
 20
46.859415
 11
98.305559
 21
46.359415
  0
LINE
  8
1
  6
CONTINUOUS
 10
101.293682
 20
46.859415
 11
101.293682
 21
46.359415
  0
LINE
  8
1
  6
CONTINUOUS
 10
102.338498
 20
46.859415
 11
102.338498
 21
46.359415
  0
LINE
  8
1
  6
CONTINUOUS
 10
103.383314
 20
46.859415
 11
103.383314
 21
46.359415
  0
LINE
  8
1
  6
CONTINUOUS
 10
104.428130
 20
46.859415
 11
104.428130
 21
46.359415
  0
LINE
  8
1
  6
CONTINUOUS
 10
104.428130
 20
46.359415
 11
104.428130
 21
46.859415
  0
LINE
  8
1
  6
CONTINUOUS
 10
104.428130
 20
46.859416
 11
104.428130
 21
46.359415
  0
LINE
  8
1
  6
CONTINUOUS
 10
105.995354
 20
46.859415
 11
105.995354
 21
46.359415
  0
LINE
  8
1
  6
CONTINUOUS
 10
107.562578
 20
46.859415
 11
107.562578
 21
46.359415
  0
LINE
  8
1
  6
CONTINUOUS
 10
88.138850
 20
46.359415
 11
88.138850
 21
45.859414
  0
LINE
  8
1
  6
CONTINUOUS
 10
88.138850
 20
45.859414
 11
107.562578
 21
45.859414
  0
LINE
  8
1
  6
CONTINUOUS
 10
90.627966
 20
46.359415
 11
90.627966
 21
45.859414
  0
LINE
  8
1
  6
CONTINUOUS
 10
92.765679
 20
46.359415
 11
92.765679
 21
45.859414
  0
LINE
  8
1
  6
CONTINUOUS
 10
94.141046
 20
46.359415
 11
94.141046
 21
45.859414
  0
LINE
  8
1
  6
CONTINUOUS
 10
98.305559
 20
46.359415
 11
98.305559
 21
45.859414
  0
LINE
  8
1
  6
CONTINUOUS
 10
101.293682
 20
46.359415
 11
101.293682
 21
45.859414
  0
LINE
  8
1
  6
CONTINUOUS
 10
102.338498
 20
46.359415
 11
102.338498
 21
45.859414
  0
LINE
  8
1
  6
CONTINUOUS
 10
103.383314
 20
46.359415
 11
103.383314
 21
45.859414
  0
LINE
  8
1
  6
CONTINUOUS
 10
104.428130
 20
46.359415
 11
104.428130
 21
45.859414
  0
LINE
  8
1
  6
CONTINUOUS
 10
104.428130
 20
45.859414
 11
104.428130
 21
46.359415
  0
LINE
  8
1
  6
CONTINUOUS
 10
104.428130
 20
46.359415
 11
104.428130
 21
45.859414
  0
LINE
  8
1
  6
CONTINUOUS
 10
105.995354
 20
46.359415
 11
105.995354
 21
45.859414
  0
LINE
  8
1
  6
CONTINUOUS
 10
107.562578
 20
46.359415
 11
107.562578
 21
45.859414
  0
LINE
  8
1
  6
CONTINUOUS
 10
88.138850
 20
45.859414
 11
88.138850
 21
45.359414
  0
LINE
  8
1
  6
CONTINUOUS
 10
88.138850
 20
45.359414
 11
107.562578
 21
45.359414
  0
LINE
  8
1
  6
CONTINUOUS
 10
90.627966
 20
45.859414
 11
90.627966
 21
45.359414
  0
LINE
  8
1
  6
CONTINUOUS
 10
92.765679
 20
45.859414
 11
92.765679
 21
45.359414
  0
LINE
  8
1
  6
CONTINUOUS
 10
94.141046
 20
45.859414
 11
94.141046
 21
45.359414
  0
LINE
  8
1
  6
CONTINUOUS
 10
98.305559
 20
45.859414
 11
98.305559
 21
45.359414
  0
LINE
  8
1
  6
CONTINUOUS
 10
101.293682
 20
45.859414
 11
101.293682
 21
45.359414
  0
LINE
  8
1
  6
CONTINUOUS
 10
102.338498
 20
45.859414
 11
102.338498
 21
45.359414
  0
LINE
  8
1
  6
CONTINUOUS
 10
103.383314
 20
45.859414
 11
103.383314
 21
45.359414
  0
LINE
  8
1
  6
CONTINUOUS
 10
104.428130
 20
45.859414
 11
104.428130
 21
45.359414
  0
LINE
  8
1
  6
CONTINUOUS
 10
104.428130
 20
45.359414
 11
104.428130
 21
45.859414
  0
LINE
  8
1
  6
CONTINUOUS
 10
104.428130
 20
45.859414
 11
104.428130
 21
45.359414
  0
LINE
  8
1
  6
CONTINUOUS
 10
105.995354
 20
45.859414
 11
105.995354
 21
45.359414
  0
LINE
  8
1
  6
CONTINUOUS
 10
107.562578
 20
45.859414
 11
107.562578
 21
45.359414
  0
LINE
  8
1
  6
CONTINUOUS
 10
88.138850
 20
45.359413
 11
88.138850
 21
44.859413
  0
LINE
  8
1
  6
CONTINUOUS
 10
88.138850
 20
44.859413
 11
107.562578
 21
44.859413
  0
LINE
  8
1
  6
CONTINUOUS
 10
90.627966
 20
45.359413
 11
90.627966
 21
44.859413
  0
LINE
  8
1
  6
CONTINUOUS
 10
92.765679
 20
45.359413
 11
92.765679
 21
44.859413
  0
LINE
  8
1
  6
CONTINUOUS
 10
94.141046
 20
45.359413
 11
94.141046
 21
44.859413
  0
LINE
  8
1
  6
CONTINUOUS
 10
98.305559
 20
45.359413
 11
98.305559
 21
44.859413
  0
LINE
  8
1
  6
CONTINUOUS
 10
101.293682
 20
45.359413
 11
101.293682
 21
44.859413
  0
LINE
  8
1
  6
CONTINUOUS
 10
102.338498
 20
45.359413
 11
102.338498
 21
44.859413
  0
LINE
  8
1
  6
CONTINUOUS
 10
103.383314
 20
45.359413
 11
103.383314
 21
44.859413
  0
LINE
  8
1
  6
CONTINUOUS
 10
104.428130
 20
45.359413
 11
104.428130
 21
44.859413
  0
LINE
  8
1
  6
CONTINUOUS
 10
104.428130
 20
44.859413
 11
104.428130
 21
45.359413
  0
LINE
  8
1
  6
CONTINUOUS
 10
104.428130
 20
45.359414
 11
104.428130
 21
44.859413
  0
LINE
  8
1
  6
CONTINUOUS
 10
105.995354
 20
45.359413
 11
105.995354
 21
44.859413
  0
LINE
  8
1
  6
CONTINUOUS
 10
107.562578
 20
45.359413
 11
107.562578
 21
44.859413
  0
LINE
  8
1
  6
CONTINUOUS
 10
88.138850
 20
44.859412
 11
88.138850
 21
44.359412
  0
LINE
  8
1
  6
CONTINUOUS
 10
88.138850
 20
44.359412
 11
107.562578
 21
44.359412
  0
LINE
  8
1
  6
CONTINUOUS
 10
90.627966
 20
44.859412
 11
90.627966
 21
44.359412
  0
LINE
  8
1
  6
CONTINUOUS
 10
92.765679
 20
44.859412
 11
92.765679
 21
44.359412
  0
LINE
  8
1
  6
CONTINUOUS
 10
94.141046
 20
44.859412
 11
94.141046
 21
44.359412
  0
LINE
  8
1
  6
CONTINUOUS
 10
98.305559
 20
44.859412
 11
98.305559
 21
44.359412
  0
LINE
  8
1
  6
CONTINUOUS
 10
101.293682
 20
44.859412
 11
101.293682
 21
44.359412
  0
LINE
  8
1
  6
CONTINUOUS
 10
102.338498
 20
44.859412
 11
102.338498
 21
44.359412
  0
LINE
  8
1
  6
CONTINUOUS
 10
103.383314
 20
44.859412
 11
103.383314
 21
44.359412
  0
LINE
  8
1
  6
CONTINUOUS
 10
104.428130
 20
44.859412
 11
104.428130
 21
44.359412
  0
LINE
  8
1
  6
CONTINUOUS
 10
104.428130
 20
44.359412
 11
104.428130
 21
44.859412
  0
LINE
  8
1
  6
CONTINUOUS
 10
104.428130
 20
44.859413
 11
104.428130
 21
44.359412
  0
LINE
  8
1
  6
CONTINUOUS
 10
105.995354
 20
44.859412
 11
105.995354
 21
44.359412
  0
LINE
  8
1
  6
CONTINUOUS
 10
107.562578
 20
44.859412
 11
107.562578
 21
44.359412
  0
LINE
  8
1
  6
CONTINUOUS
 10
88.138850
 20
44.359412
 11
88.138850
 21
43.859411
  0
LINE
  8
1
  6
CONTINUOUS
 10
88.138850
 20
43.859411
 11
107.562578
 21
43.859411
  0
LINE
  8
1
  6
CONTINUOUS
 10
90.627966
 20
44.359412
 11
90.627966
 21
43.859411
  0
LINE
  8
1
  6
CONTINUOUS
 10
92.765679
 20
44.359412
 11
92.765679
 21
43.859411
  0
LINE
  8
1
  6
CONTINUOUS
 10
94.141046
 20
44.359412
 11
94.141046
 21
43.859411
  0
LINE
  8
1
  6
CONTINUOUS
 10
98.305559
 20
44.359412
 11
98.305559
 21
43.859411
  0
LINE
  8
1
  6
CONTINUOUS
 10
101.293682
 20
44.359412
 11
101.293682
 21
43.859411
  0
LINE
  8
1
  6
CONTINUOUS
 10
102.338498
 20
44.359412
 11
102.338498
 21
43.859411
  0
LINE
  8
1
  6
CONTINUOUS
 10
103.383314
 20
44.359412
 11
103.383314
 21
43.859411
  0
LINE
  8
1
  6
CONTINUOUS
 10
104.428130
 20
44.359412
 11
104.428130
 21
43.859411
  0
LINE
  8
1
  6
CONTINUOUS
 10
104.428130
 20
43.859411
 11
104.428130
 21
44.359412
  0
LINE
  8
1
  6
CONTINUOUS
 10
104.428130
 20
44.359412
 11
104.428130
 21
43.859411
  0
LINE
  8
1
  6
CONTINUOUS
 10
105.995354
 20
44.359412
 11
105.995354
 21
43.859411
  0
LINE
  8
1
  6
CONTINUOUS
 10
107.562578
 20
44.359412
 11
107.562578
 21
43.859411
  0
LINE
  8
1
  6
CONTINUOUS
 10
88.138850
 20
43.859411
 11
88.138850
 21
43.359411
  0
LINE
  8
1
  6
CONTINUOUS
 10
88.138850
 20
43.359411
 11
107.562578
 21
43.359411
  0
LINE
  8
1
  6
CONTINUOUS
 10
90.627966
 20
43.859411
 11
90.627966
 21
43.359411
  0
LINE
  8
1
  6
CONTINUOUS
 10
92.765679
 20
43.859411
 11
92.765679
 21
43.359411
  0
LINE
  8
1
  6
CONTINUOUS
 10
94.141046
 20
43.859411
 11
94.141046
 21
43.359411
  0
LINE
  8
1
  6
CONTINUOUS
 10
98.305559
 20
43.859411
 11
98.305559
 21
43.359411
  0
LINE
  8
1
  6
CONTINUOUS
 10
101.293682
 20
43.859411
 11
101.293682
 21
43.359411
  0
LINE
  8
1
  6
CONTINUOUS
 10
102.338498
 20
43.859411
 11
102.338498
 21
43.359411
  0
LINE
  8
1
  6
CONTINUOUS
 10
103.383314
 20
43.859411
 11
103.383314
 21
43.359411
  0
LINE
  8
1
  6
CONTINUOUS
 10
104.428130
 20
43.859411
 11
104.428130
 21
43.359411
  0
LINE
  8
1
  6
CONTINUOUS
 10
104.428130
 20
43.359411
 11
104.428130
 21
43.859411
  0
LINE
  8
1
  6
CONTINUOUS
 10
104.428130
 20
43.859411
 11
104.428130
 21
43.359411
  0
LINE
  8
1
  6
CONTINUOUS
 10
105.995354
 20
43.859411
 11
105.995354
 21
43.359411
  0
LINE
  8
1
  6
CONTINUOUS
 10
107.562578
 20
43.859411
 11
107.562578
 21
43.359411
  0
LINE
  8
1
  6
CONTINUOUS
 10
88.138850
 20
43.359410
 11
88.138850
 21
42.859410
  0
LINE
  8
1
  6
CONTINUOUS
 10
88.138850
 20
42.859410
 11
107.562578
 21
42.859410
  0
LINE
  8
1
  6
CONTINUOUS
 10
90.627966
 20
43.359410
 11
90.627966
 21
42.859410
  0
LINE
  8
1
  6
CONTINUOUS
 10
92.765679
 20
43.359410
 11
92.765679
 21
42.859410
  0
LINE
  8
1
  6
CONTINUOUS
 10
94.141046
 20
43.359410
 11
94.141046
 21
42.859410
  0
LINE
  8
1
  6
CONTINUOUS
 10
98.305559
 20
43.359410
 11
98.305559
 21
42.859410
  0
LINE
  8
1
  6
CONTINUOUS
 10
101.293682
 20
43.359410
 11
101.293682
 21
42.859410
  0
LINE
  8
1
  6
CONTINUOUS
 10
102.338498
 20
43.359410
 11
102.338498
 21
42.859410
  0
LINE
  8
1
  6
CONTINUOUS
 10
103.383314
 20
43.359410
 11
103.383314
 21
42.859410
  0
LINE
  8
1
  6
CONTINUOUS
 10
104.428130
 20
43.359410
 11
104.428130
 21
42.859410
  0
LINE
  8
1
  6
CONTINUOUS
 10
104.428130
 20
42.859410
 11
104.428130
 21
43.359410
  0
LINE
  8
1
  6
CONTINUOUS
 10
104.428130
 20
43.359411
 11
104.428130
 21
42.859410
  0
LINE
  8
1
  6
CONTINUOUS
 10
105.995354
 20
43.359410
 11
105.995354
 21
42.859410
  0
LINE
  8
1
  6
CONTINUOUS
 10
107.562578
 20
43.359410
 11
107.562578
 21
42.859410
  0
LINE
  8
1
  6
CONTINUOUS
 10
88.138850
 20
42.859410
 11
88.138850
 21
42.359409
  0
LINE
  8
1
  6
CONTINUOUS
 10
88.138850
 20
42.359409
 11
107.562578
 21
42.359409
  0
LINE
  8
1
  6
CONTINUOUS
 10
90.627966
 20
42.859410
 11
90.627966
 21
42.359409
  0
LINE
  8
1
  6
CONTINUOUS
 10
92.765679
 20
42.859410
 11
92.765679
 21
42.359409
  0
LINE
  8
1
  6
CONTINUOUS
 10
94.141046
 20
42.859410
 11
94.141046
 21
42.359409
  0
LINE
  8
1
  6
CONTINUOUS
 10
98.305559
 20
42.859410
 11
98.305559
 21
42.359409
  0
LINE
  8
1
  6
CONTINUOUS
 10
101.293682
 20
42.859410
 11
101.293682
 21
42.359409
  0
LINE
  8
1
  6
CONTINUOUS
 10
102.338498
 20
42.859410
 11
102.338498
 21
42.359409
  0
LINE
  8
1
  6
CONTINUOUS
 10
103.383314
 20
42.859410
 11
103.383314
 21
42.359409
  0
LINE
  8
1
  6
CONTINUOUS
 10
104.428130
 20
42.859410
 11
104.428130
 21
42.359409
  0
LINE
  8
1
  6
CONTINUOUS
 10
104.428130
 20
42.359409
 11
104.428130
 21
42.859410
  0
LINE
  8
1
  6
CONTINUOUS
 10
104.428130
 20
42.859410
 11
104.428130
 21
42.359409
  0
LINE
  8
1
  6
CONTINUOUS
 10
105.995354
 20
42.859410
 11
105.995354
 21
42.359409
  0
LINE
  8
1
  6
CONTINUOUS
 10
107.562578
 20
42.859410
 11
107.562578
 21
42.359409
  0
LINE
  8
1
  6
CONTINUOUS
 10
88.138850
 20
42.359409
 11
88.138850
 21
41.859409
  0
LINE
  8
1
  6
CONTINUOUS
 10
88.138850
 20
41.859409
 11
107.562578
 21
41.859409
  0
LINE
  8
1
  6
CONTINUOUS
 10
90.627966
 20
42.359409
 11
90.627966
 21
41.859409
  0
LINE
  8
1
  6
CONTINUOUS
 10
92.765679
 20
42.359409
 11
92.765679
 21
41.859409
  0
LINE
  8
1
  6
CONTINUOUS
 10
94.141046
 20
42.359409
 11
94.141046
 21
41.859409
  0
LINE
  8
1
  6
CONTINUOUS
 10
98.305559
 20
42.359409
 11
98.305559
 21
41.859409
  0
LINE
  8
1
  6
CONTINUOUS
 10
101.293682
 20
42.359409
 11
101.293682
 21
41.859409
  0
LINE
  8
1
  6
CONTINUOUS
 10
102.338498
 20
42.359409
 11
102.338498
 21
41.859409
  0
LINE
  8
1
  6
CONTINUOUS
 10
103.383314
 20
42.359409
 11
103.383314
 21
41.859409
  0
LINE
  8
1
  6
CONTINUOUS
 10
104.428130
 20
42.359409
 11
104.428130
 21
41.859409
  0
LINE
  8
1
  6
CONTINUOUS
 10
104.428130
 20
41.859409
 11
104.428130
 21
42.359409
  0
LINE
  8
1
  6
CONTINUOUS
 10
104.428130
 20
42.359409
 11
104.428130
 21
41.859409
  0
LINE
  8
1
  6
CONTINUOUS
 10
105.995354
 20
42.359409
 11
105.995354
 21
41.859409
  0
LINE
  8
1
  6
CONTINUOUS
 10
107.562578
 20
42.359409
 11
107.562578
 21
41.859409
  0
LINE
  8
1
  6
CONTINUOUS
 10
88.138850
 20
41.222056
 11
101.421942
 21
41.222056
  0
LINE
  8
1
  6
CONTINUOUS
 10
88.138850
 20
39.859409
 11
101.421942
 21
39.859409
  0
LINE
  8
1
  6
CONTINUOUS
 10
88.138850
 20
39.359408
 11
97.060559
 21
39.359408
  0
LINE
  8
1
  6
CONTINUOUS
 10
97.060559
 20
39.359408
 11
99.248682
 21
39.359408
  0
LINE
  8
1
  6
CONTINUOUS
 10
98.628662
 20
39.359408
 11
99.673478
 21
39.359408
  0
LINE
  8
1
  6
CONTINUOUS
 10
99.673478
 20
39.359408
 11
101.338314
 21
39.359408
  0
LINE
  8
1
  6
CONTINUOUS
 10
101.338314
 20
39.359408
 11
101.421942
 21
39.359408
  0
LINE
  8
1
  6
CONTINUOUS
 10
88.138850
 20
41.222056
 11
88.138850
 21
38.359408
  0
LINE
  8
1
  6
CONTINUOUS
 10
88.138850
 20
38.359409
 11
101.421942
 21
38.359409
  0
LINE
  8
1
  6
CONTINUOUS
 10
90.276562
 20
39.359408
 11
90.276562
 21
38.359408
  0
LINE
  8
1
  6
CONTINUOUS
 10
92.464686
 20
38.359408
 11
92.464686
 21
39.359408
  0
LINE
  8
1
  6
CONTINUOUS
 10
99.332310
 20
39.359408
 11
99.332310
 21
38.359409
  0
LINE
  8
1
  6
CONTINUOUS
 10
100.377127
 20
39.359408
 11
100.377127
 21
38.359409
  0
LINE
  8
1
  6
CONTINUOUS
 10
94.167498
 20
38.359409
 11
94.167498
 21
38.859409
  0
LINE
  8
1
  6
CONTINUOUS
 10
101.421942
 20
38.359409
 11
101.421942
 21
41.222056
  0
LINE
  8
1
  6
CONTINUOUS
 10
92.464686
 20
38.859409
 11
98.287495
 21
38.859409
  0
LINE
  8
1
  6
CONTINUOUS
 10
98.287495
 20
38.359409
 11
98.287495
 21
39.859409
  0
LINE
  8
1
  6
CONTINUOUS
 10
96.227497
 20
38.359409
 11
96.227497
 21
38.859409
  0
LINE
  8
1
  6
CONTINUOUS
 10
88.138850
 20
38.359408
 11
88.138850
 21
37.859408
  0
LINE
  8
1
  6
CONTINUOUS
 10
90.276562
 20
38.359408
 11
90.276562
 21
37.859408
  0
LINE
  8
1
  6
CONTINUOUS
 10
92.464686
 20
38.359408
 11
92.464686
 21
37.859408
  0
LINE
  8
1
  6
CONTINUOUS
 10
88.138850
 20
37.859408
 11
101.421942
 21
37.859408
  0
LINE
  8
1
  6
CONTINUOUS
 10
98.287495
 20
38.359408
 11
98.287495
 21
37.859408
  0
LINE
  8
1
  6
CONTINUOUS
 10
99.332310
 20
38.359408
 11
99.332310
 21
37.859408
  0
LINE
  8
1
  6
CONTINUOUS
 10
100.377127
 20
38.359408
 11
100.377127
 21
37.859408
  0
LINE
  8
1
  6
CONTINUOUS
 10
94.167498
 20
38.359408
 11
94.167498
 21
37.859408
  0
LINE
  8
1
  6
CONTINUOUS
 10
96.227497
 20
37.859408
 11
96.227497
 21
38.359408
  0
LINE
  8
1
  6
CONTINUOUS
 10
98.287495
 20
37.859408
 11
98.287495
 21
38.359408
  0
LINE
  8
1
  6
CONTINUOUS
 10
101.421942
 20
38.359408
 11
101.421942
 21
37.859408
  0
LINE
  8
1
  6
CONTINUOUS
 10
88.138850
 20
37.859407
 11
88.138850
 21
37.359407
  0
LINE
  8
1
  6
CONTINUOUS
 10
90.276562
 20
37.859407
 11
90.276562
 21
37.359407
  0
LINE
  8
1
  6
CONTINUOUS
 10
92.464686
 20
37.859407
 11
92.464686
 21
37.359407
  0
LINE
  8
1
  6
CONTINUOUS
 10
88.138850
 20
37.359407
 11
101.421942
 21
37.359407
  0
LINE
  8
1
  6
CONTINUOUS
 10
98.287495
 20
37.859408
 11
98.287495
 21
37.359407
  0
LINE
  8
1
  6
CONTINUOUS
 10
99.332310
 20
37.859408
 11
99.332310
 21
37.359407
  0
LINE
  8
1
  6
CONTINUOUS
 10
100.377127
 20
37.859408
 11
100.377127
 21
37.359407
  0
LINE
  8
1
  6
CONTINUOUS
 10
94.167498
 20
37.859407
 11
94.167498
 21
37.359407
  0
LINE
  8
1
  6
CONTINUOUS
 10
96.227497
 20
37.359407
 11
96.227497
 21
37.859407
  0
LINE
  8
1
  6
CONTINUOUS
 10
98.287495
 20
37.359407
 11
98.287495
 21
37.859407
  0
LINE
  8
1
  6
CONTINUOUS
 10
101.421942
 20
37.859408
 11
101.421942
 21
37.359407
  0
LINE
  8
1
  6
CONTINUOUS
 10
88.138850
 20
37.359406
 11
88.138850
 21
36.859406
  0
LINE
  8
1
  6
CONTINUOUS
 10
90.276562
 20
37.359406
 11
90.276562
 21
36.859406
  0
LINE
  8
1
  6
CONTINUOUS
 10
92.464686
 20
37.359406
 11
92.464686
 21
36.859406
  0
LINE
  8
1
  6
CONTINUOUS
 10
88.138850
 20
36.859406
 11
101.421942
 21
36.859406
  0
LINE
  8
1
  6
CONTINUOUS
 10
98.287495
 20
37.359407
 11
98.287495
 21
36.859407
  0
LINE
  8
1
  6
CONTINUOUS
 10
99.332310
 20
37.359407
 11
99.332310
 21
36.859407
  0
LINE
  8
1
  6
CONTINUOUS
 10
100.377127
 20
37.359407
 11
100.377127
 21
36.859407
  0
LINE
  8
1
  6
CONTINUOUS
 10
94.167498
 20
37.359407
 11
94.167498
 21
36.859406
  0
LINE
  8
1
  6
CONTINUOUS
 10
96.227497
 20
36.859406
 11
96.227497
 21
37.359407
  0
LINE
  8
1
  6
CONTINUOUS
 10
98.287495
 20
36.859406
 11
98.287495
 21
37.359407
  0
LINE
  8
1
  6
CONTINUOUS
 10
101.421942
 20
37.359407
 11
101.421942
 21
36.859406
  0
LINE
  8
2
  6
CONTINUOUS
 10
101.700000
 20
23.900000
 11
101.700000
 21
23.900000
  0
LINE
  8
2
  6
CONTINUOUS
 10
118.000000
 20
23.900000
 11
118.000000
 21
23.900000
  0
LINE
  8
2
  6
CONTINUOUS
 10
118.000000
 20
23.900000
 11
101.700000
 21
23.900000
  0
LINE
  8
2
  6
CONTINUOUS
 10
118.000000
 20
22.200000
 11
101.700000
 21
22.200000
  0
LINE
  8
2
  6
CONTINUOUS
 10
101.700000
 20
23.900000
 11
101.700000
 21
22.200000
  0
LINE
  8
2
  6
CONTINUOUS
 10
118.000000
 20
22.200000
 11
118.000000
 21
23.900000
  0
LINE
  8
1
  6
CONTINUOUS
 10
118.000002
 20
29.700001
 11
119.000002
 21
29.700001
  0
LINE
  8
1
  6
CONTINUOUS
 10
118.000002
 20
59.400002
 11
119.000002
 21
59.400002
  0
LINE
  8
1
  6
CONTINUOUS
 10
0.000000
 20
29.700001
 11
2.500000
 21
29.700001
  0
LINE
  8
1
  6
CONTINUOUS
 10
0.000000
 20
59.400002
 11
2.500000
 21
59.400002
  0
LINE
  8
1
  6
CONTINUOUS
 10
100.500002
 20
82.999998
 11
100.500002
 21
83.999998
  0
LINE
  8
1
  6
CONTINUOUS
 10
82.000002
 20
82.999998
 11
82.000002
 21
83.999998
  0
LINE
  8
1
  6
CONTINUOUS
 10
63.500002
 20
82.999998
 11
63.500002
 21
83.999998
  0
LINE
  8
1
  6
CONTINUOUS
 10
45.000002
 20
82.999998
 11
45.000002
 21
83.999998
  0
LINE
  8
1
  6
CONTINUOUS
 10
33.050001
 20
82.999998
 11
33.050001
 21
83.999998
  0
LINE
  8
1
  6
CONTINUOUS
 10
21.100000
 20
82.999998
 11
21.100000
 21
83.999998
  0
LINE
  8
1
  6
CONTINUOUS
 10
100.500002
 20
0.000000
 11
100.500002
 21
1.000000
  0
LINE
  8
1
  6
CONTINUOUS
 10
82.000002
 20
0.000000
 11
82.000002
 21
1.000000
  0
LINE
  8
1
  6
CONTINUOUS
 10
63.500002
 20
0.000000
 11
63.500002
 21
1.000000
  0
LINE
  8
1
  6
CONTINUOUS
 10
45.000002
 20
0.000000
 11
45.000002
 21
1.000000
  0
LINE
  8
1
  6
CONTINUOUS
 10
33.050001
 20
0.000000
 11
33.050001
 21
1.000000
  0
LINE
  8
1
  6
CONTINUOUS
 10
21.100000
 20
0.000000
 11
21.100000
 21
1.000000
  0
LINE
  8
1
  6
CONTINUOUS
 10
0.000000
 20
0.000000
 11
119.000002
 21
0.000000
  0
LINE
  8
1
  6
CONTINUOUS
 10
119.000002
 20
0.000000
 11
119.000002
 21
83.999998
  0
LINE
  8
1
  6
CONTINUOUS
 10
0.000000
 20
0.000000
 11
0.000000
 21
83.999998
  0
LINE
  8
8
  6
CONTINUOUS
 10
2.500000
 20
1.000000
 11
118.000002
 21
1.000000
  0
LINE
  8
8
  6
CONTINUOUS
 10
118.000002
 20
1.000000
 11
118.000002
 21
82.999998
  0
LINE
  8
1
  6
CONTINUOUS
 10
0.000000
 20
83.999998
 11
119.000002
 21
83.999998
  0
LINE
  8
8
  6
CONTINUOUS
 10
2.500000
 20
82.999998
 11
118.000002
 21
82.999998
  0
LINE
  8
8
  6
CONTINUOUS
 10
2.500000
 20
82.999998
 11
2.500000
 21
1.000000
  0
LINE
  8
2
  6
CONTINUOUS
 10
102.650002
 20
17.625000
 11
102.650002
 21
18.125000
  0
LINE
  8
1
  6
CONTINUOUS
 10
101.700002
 20
18.200000
 11
118.000002
 21
18.200000
  0
LINE
  8
1
  6
CONTINUOUS
 10
101.700002
 20
17.700000
 11
118.000002
 21
17.700000
  0
LINE
  8
1
  6
CONTINUOUS
 10
102.200002
 20
17.700000
 11
118.000002
 21
17.700000
  0
LINE
  8
2
  6
CONTINUOUS
 10
102.650002
 20
17.125000
 11
102.650002
 21
17.625000
  0
LINE
  8
1
  6
CONTINUOUS
 10
102.200002
 20
17.700000
 11
118.000002
 21
17.700000
  0
LINE
  8
1
  6
CONTINUOUS
 10
101.700002
 20
17.200000
 11
118.000002
 21
17.200000
  0
LINE
  8
2
  6
CONTINUOUS
 10
102.650002
 20
16.700000
 11
102.650002
 21
17.200000
  0
LINE
  8
1
  6
CONTINUOUS
 10
116.008223
 20
16.000000
 11
116.008223
 21
22.200000
  0
LINE
  8
1
  6
CONTINUOUS
 10
104.850002
 20
16.000000
 11
104.850002
 21
22.200000
  0
LINE
  8
6
  6
CONTINUOUS
 10
101.700002
 20
16.000000
 11
118.000002
 21
16.000000
  0
LINE
  8
1
  6
CONTINUOUS
 10
102.650002
 20
16.000000
 11
102.650002
 21
16.700000
  0
LINE
  8
1
  6
CONTINUOUS
 10
102.200002
 20
17.200000
 11
118.000002
 21
17.200000
  0
LINE
  8
1
  6
CONTINUOUS
 10
101.700002
 20
16.700000
 11
118.000002
 21
16.700000
  0
LINE
  8
2
  6
CONTINUOUS
 10
102.650002
 20
18.625000
 11
102.650002
 21
22.200000
  0
LINE
  8
6
  6
CONTINUOUS
 10
101.700002
 20
22.200000
 11
118.000002
 21
22.200000
  0
LINE
  8
1
  6
CONTINUOUS
 10
101.700002
 20
18.700000
 11
118.000002
 21
18.700000
  0
LINE
  8
1
  6
CONTINUOUS
 10
102.200002
 20
18.700000
 11
118.000002
 21
18.700000
  0
LINE
  8
2
  6
CONTINUOUS
 10
102.650002
 20
18.125000
 11
102.650002
 21
18.625000
  0
LINE
  8
1
  6
CONTINUOUS
 10
102.200002
 20
18.700000
 11
118.000002
 21
18.700000
  0
LINE
  8
1
  6
CONTINUOUS
 10
102.200002
 20
18.200000
 11
118.000002
 21
18.200000
  0
LINE
  8
1
  6
CONTINUOUS
 10
102.200002
 20
18.200000
 11
118.000002
 21
18.200000
  0
LINE
  8
6
  6
CONTINUOUS
 10
101.700002
 20
6.600000
 11
118.000002
 21
6.600000
  0
LINE
  8
6
  6
CONTINUOUS
 10
101.700002
 20
8.500000
 11
118.000002
 21
8.500000
  0
LINE
  8
6
  6
CONTINUOUS
 10
101.700002
 20
1.000000
 11
101.700002
 21
8.500000
  0
LINE
  8
6
  6
CONTINUOUS
 10
101.700002
 20
16.000000
 11
101.700002
 21
22.200000
  0
LINE
  8
6
  6
CONTINUOUS
 10
101.700002
 20
15.900000
 11
118.000002
 21
15.900000
  0
LINE
  8
6
  6
CONTINUOUS
 10
101.700002
 20
11.400000
 11
101.700002
 21
15.900000
  0
LINE
  8
1
  6
CONTINUOUS
 10
101.700002
 20
14.400000
 11
118.000002
 21
14.400000
  0
LINE
  8
6
  6
CONTINUOUS
 10
101.700002
 20
3.000000
 11
118.000002
 21
3.000000
  0
LINE
  8
6
  6
CONTINUOUS
 10
105.024321
 20
3.000000
 11
105.024321
 21
1.000000
  0
LINE
  8
1
  6
CONTINUOUS
 10
101.700002
 20
12.900000
 11
118.000002
 21
12.900000
  0
POLYLINE
  8
1
  6
CONTINUOUS
 66
     1
  0
VERTEX
  8
1
  6
CONTINUOUS
 10
103.635546
 20
9.498246
  0
VERTEX
  8
1
  6
CONTINUOUS
 10
101.971546
 20
9.498246
  0
VERTEX
  8
1
  6
CONTINUOUS
 10
101.971546
 20
11.162246
  0
VERTEX
  8
1
  6
CONTINUOUS
 10
103.635546
 20
11.162246
  0
VERTEX
  8
1
  6
CONTINUOUS
 10
103.635546
 20
9.498246
  0
SEQEND
  8
1
  6
CONTINUOUS
  0
POLYLINE
  8
13
  6
CONTINUOUS
 66
     1
  0
VERTEX
  8
13
  6
CONTINUOUS
 10
102.095046
 20
10.244446
  0
VERTEX
  8
13
  6
CONTINUOUS
 10
102.095046
 20
9.498246
  0
VERTEX
  8
13
  6
CONTINUOUS
 10
101.971546
 20
9.498246
  0
VERTEX
  8
13
  6
CONTINUOUS
 10
101.971546
 20
11.162246
  0
VERTEX
  8
13
  6
CONTINUOUS
 10
102.095046
 20
11.162246
  0
VERTEX
  8
13
  6
CONTINUOUS
 10
102.095046
 20
10.244446
  0
SEQEND
  8
13
  6
CONTINUOUS
  0
POLYLINE
  8
13
  6
CONTINUOUS
 66
     1
  0
VERTEX
  8
13
  6
CONTINUOUS
 10
102.522746
 20
10.230979
  0
VERTEX
  8
13
  6
CONTINUOUS
 10
102.522746
 20
9.498246
  0
VERTEX
  8
13
  6
CONTINUOUS
 10
102.095046
 20
9.498246
  0
VERTEX
  8
13
  6
CONTINUOUS
 10
102.095046
 20
10.244446
  0
VERTEX
  8
13
  6
CONTINUOUS
 10
102.143544
 20
10.248642
  0
VERTEX
  8
13
  6
CONTINUOUS
 10
102.211078
 20
10.252071
  0
VERTEX
  8
13
  6
CONTINUOUS
 10
102.259959
 20
10.252484
  0
VERTEX
  8
13
  6
CONTINUOUS
 10
102.290321
 20
10.252141
  0
VERTEX
  8
13
  6
CONTINUOUS
 10
102.334203
 20
10.250668
  0
VERTEX
  8
13
  6
CONTINUOUS
 10
102.394518
 20
10.246747
  0
VERTEX
  8
13
  6
CONTINUOUS
 10
102.446340
 20
10.241621
  0
VERTEX
  8
13
  6
CONTINUOUS
 10
102.490083
 20
10.235974
  0
VERTEX
  8
13
  6
CONTINUOUS
 10
102.522746
 20
10.230979
  0
SEQEND
  8
13
  6
CONTINUOUS
  0
POLYLINE
  8
13
  6
CONTINUOUS
 66
     1
  0
VERTEX
  8
13
  6
CONTINUOUS
 10
102.594246
 20
10.217654
  0
VERTEX
  8
13
  6
CONTINUOUS
 10
102.594246
 20
9.498246
  0
VERTEX
  8
13
  6
CONTINUOUS
 10
103.021946
 20
9.498246
  0
VERTEX
  8
13
  6
CONTINUOUS
 10
103.021946
 20
10.064184
  0
VERTEX
  8
13
  6
CONTINUOUS
 10
103.003898
 20
10.073542
  0
VERTEX
  8
13
  6
CONTINUOUS
 10
102.981716
 20
10.084501
  0
VERTEX
  8
13
  6
CONTINUOUS
 10
102.953307
 20
10.098271
  0
VERTEX
  8
13
  6
CONTINUOUS
 10
102.912865
 20
10.116383
  0
VERTEX
  8
13
  6
CONTINUOUS
 10
102.885024
 20
10.128001
  0
VERTEX
  8
13
  6
CONTINUOUS
 10
102.844071
 20
10.144755
  0
VERTEX
  8
13
  6
CONTINUOUS
 10
102.813490
 20
10.155923
  0
VERTEX
  8
13
  6
CONTINUOUS
 10
102.778388
 20
10.168156
  0
VERTEX
  8
13
  6
CONTINUOUS
 10
102.744083
 20
10.178793
  0
VERTEX
  8
13
  6
CONTINUOUS
 10
102.703465
 20
10.191172
  0
VERTEX
  8
13
  6
CONTINUOUS
 10
102.665141
 20
10.201162
  0
VERTEX
  8
13
  6
CONTINUOUS
 10
102.624819
 20
10.210970
  0
VERTEX
  8
13
  6
CONTINUOUS
 10
102.594246
 20
10.217654
  0
SEQEND
  8
13
  6
CONTINUOUS
  0
POLYLINE
  8
13
  6
CONTINUOUS
 66
     1
  0
VERTEX
  8
13
  6
CONTINUOUS
 10
103.093446
 20
10.024343
  0
VERTEX
  8
13
  6
CONTINUOUS
 10
103.093446
 20
9.498246
  0
VERTEX
  8
13
  6
CONTINUOUS
 10
103.521146
 20
9.498246
  0
VERTEX
  8
13
  6
CONTINUOUS
 10
103.521146
 20
9.661030
  0
VERTEX
  8
13
  6
CONTINUOUS
 10
103.507797
 20
9.676793
  0
VERTEX
  8
13
  6
CONTINUOUS
 10
103.495964
 20
9.690528
  0
VERTEX
  8
13
  6
CONTINUOUS
 10
103.473877
 20
9.715277
  0
VERTEX
  8
13
  6
CONTINUOUS
 10
103.454164
 20
9.736530
  0
VERTEX
  8
13
  6
CONTINUOUS
 10
103.434048
 20
9.757502
  0
VERTEX
  8
13
  6
CONTINUOUS
 10
103.410015
 20
9.781535
  0
VERTEX
  8
13
  6
CONTINUOUS
 10
103.399294
 20
9.791943
  0
VERTEX
  8
13
  6
CONTINUOUS
 10
103.388429
 20
9.802406
  0
VERTEX
  8
13
  6
CONTINUOUS
 10
103.359952
 20
9.828752
  0
VERTEX
  8
13
  6
CONTINUOUS
 10
103.325139
 20
9.859181
  0
VERTEX
  8
13
  6
CONTINUOUS
 10
103.286846
 20
9.890826
  0
VERTEX
  8
13
  6
CONTINUOUS
 10
103.251036
 20
9.918745
  0
VERTEX
  8
13
  6
CONTINUOUS
 10
103.200839
 20
9.955427
  0
VERTEX
  8
13
  6
CONTINUOUS
 10
103.134352
 20
9.999676
  0
VERTEX
  8
13
  6
CONTINUOUS
 10
103.093446
 20
10.024343
  0
SEQEND
  8
13
  6
CONTINUOUS
  0
POLYLINE
  8
13
  6
CONTINUOUS
 66
     1
  0
VERTEX
  8
13
  6
CONTINUOUS
 10
102.522746
 20
10.635283
  0
VERTEX
  8
13
  6
CONTINUOUS
 10
102.522746
 20
11.162246
  0
VERTEX
  8
13
  6
CONTINUOUS
 10
102.095046
 20
11.162246
  0
VERTEX
  8
13
  6
CONTINUOUS
 10
102.095046
 20
10.995122
  0
VERTEX
  8
13
  6
CONTINUOUS
 10
102.153689
 20
10.929235
  0
VERTEX
  8
13
  6
CONTINUOUS
 10
102.237359
 20
10.846559
  0
VERTEX
  8
13
  6
CONTINUOUS
 10
102.308389
 20
10.784730
  0
VERTEX
  8
13
  6
CONTINUOUS
 10
102.366624
 20
10.739274
  0
VERTEX
  8
13
  6
CONTINUOUS
 10
102.406322
 20
10.710064
  0
VERTEX
  8
13
  6
CONTINUOUS
 10
102.455827
 20
10.676682
  0
VERTEX
  8
13
  6
CONTINUOUS
 10
102.493954
 20
10.652515
  0
VERTEX
  8
13
  6
CONTINUOUS
 10
102.522746
 20
10.635283
  0
SEQEND
  8
13
  6
CONTINUOUS
  0
POLYLINE
  8
13
  6
CONTINUOUS
 66
     1
  0
VERTEX
  8
13
  6
CONTINUOUS
 10
103.021946
 20
10.443678
  0
VERTEX
  8
13
  6
CONTINUOUS
 10
103.021946
 20
11.162246
  0
VERTEX
  8
13
  6
CONTINUOUS
 10
102.594246
 20
11.162246
  0
VERTEX
  8
13
  6
CONTINUOUS
 10
102.594246
 20
10.595859
  0
VERTEX
  8
13
  6
CONTINUOUS
 10
102.663800
 20
10.561766
  0
VERTEX
  8
13
  6
CONTINUOUS
 10
102.744359
 20
10.527375
  0
VERTEX
  8
13
  6
CONTINUOUS
 10
102.812197
 20
10.501464
  0
VERTEX
  8
13
  6
CONTINUOUS
 10
102.889458
 20
10.476967
  0
VERTEX
  8
13
  6
CONTINUOUS
 10
102.950702
 20
10.460007
  0
VERTEX
  8
13
  6
CONTINUOUS
 10
103.021946
 20
10.443678
  0
SEQEND
  8
13
  6
CONTINUOUS
  0
POLYLINE
  8
13
  6
CONTINUOUS
 66
     1
  0
VERTEX
  8
13
  6
CONTINUOUS
 10
103.093446
 20
10.430307
  0
VERTEX
  8
13
  6
CONTINUOUS
 10
103.093446
 20
11.162246
  0
VERTEX
  8
13
  6
CONTINUOUS
 10
103.521146
 20
11.162246
  0
VERTEX
  8
13
  6
CONTINUOUS
 10
103.521146
 20
10.417580
  0
VERTEX
  8
13
  6
CONTINUOUS
 10
103.476372
 20
10.413637
  0
VERTEX
  8
13
  6
CONTINUOUS
 10
103.416577
 20
10.410480
  0
VERTEX
  8
13
  6
CONTINUOUS
 10
103.366788
 20
10.409453
  0
VERTEX
  8
13
  6
CONTINUOUS
 10
103.336830
 20
10.409453
  0
VERTEX
  8
13
  6
CONTINUOUS
 10
103.286182
 20
10.410821
  0
VERTEX
  8
13
  6
CONTINUOUS
 10
103.241261
 20
10.413321
  0
VERTEX
  8
13
  6
CONTINUOUS
 10
103.205545
 20
10.416539
  0
VERTEX
  8
13
  6
CONTINUOUS
 10
103.155349
 20
10.421044
  0
VERTEX
  8
13
  6
CONTINUOUS
 10
103.093446
 20
10.430307
  0
SEQEND
  8
13
  6
CONTINUOUS
  0
POLYLINE
  8
13
  6
CONTINUOUS
 66
     1
  0
VERTEX
  8
13
  6
CONTINUOUS
 10
102.522746
 20
9.498246
  0
VERTEX
  8
13
  6
CONTINUOUS
 10
102.594246
 20
9.498246
  0
VERTEX
  8
13
  6
CONTINUOUS
 10
102.594246
 20
11.162246
  0
VERTEX
  8
13
  6
CONTINUOUS
 10
102.522746
 20
11.162246
  0
VERTEX
  8
13
  6
CONTINUOUS
 10
102.522746
 20
9.498246
  0
VERTEX
  8
13
  6
CONTINUOUS
 10
102.594246
 20
9.498246
  0
SEQEND
  8
13
  6
CONTINUOUS
  0
POLYLINE
  8
13
  6
CONTINUOUS
 66
     1
  0
VERTEX
  8
13
  6
CONTINUOUS
 10
103.021946
 20
11.162246
  0
VERTEX
  8
13
  6
CONTINUOUS
 10
103.093446
 20
11.162246
  0
VERTEX
  8
13
  6
CONTINUOUS
 10
103.093446
 20
9.498246
  0
VERTEX
  8
13
  6
CONTINUOUS
 10
103.021946
 20
9.498246
  0
VERTEX
  8
13
  6
CONTINUOUS
 10
103.021946
 20
11.162246
  0
SEQEND
  8
13
  6
CONTINUOUS
  0
POLYLINE
  8
13
  6
CONTINUOUS
 66
     1
  0
VERTEX
  8
13
  6
CONTINUOUS
 10
103.521146
 20
9.498246
  0
VERTEX
  8
13
  6
CONTINUOUS
 10
103.635546
 20
9.498246
  0
VERTEX
  8
13
  6
CONTINUOUS
 10
103.635546
 20
11.162246
  0
VERTEX
  8
13
  6
CONTINUOUS
 10
103.521146
 20
11.162246
  0
VERTEX
  8
13
  6
CONTINUOUS
 10
103.521146
 20
9.498246
  0
SEQEND
  8
13
  6
CONTINUOUS
  0
LINE
  8
6
  6
CONTINUOUS
 10
107.924321
 20
3.000000
 11
107.924321
 21
2.000000
  0
LINE
  8
6
  6
CONTINUOUS
 10
101.700002
 20
2.000000
 11
114.124321
 21
2.000000
  0
LINE
  8
6
  6
CONTINUOUS
 10
114.124321
 20
3.000000
 11
114.124321
 21
1.000000
  0
LINE
  8
6
  6
CONTINUOUS
 10
101.700002
 20
8.600000
 11
118.000002
 21
8.600000
  0
LINE
  8
6
  6
CONTINUOUS
 10
101.700002
 20
8.600000
 11
101.700002
 21
11.300000
  0
LINE
  8
6
  6
CONTINUOUS
 10
101.700002
 20
11.300000
 11
118.000002
 21
11.300000
  0
LINE
  8
6
  6
CONTINUOUS
 10
101.700002
 20
11.400000
 11
118.000002
 21
11.400000
  0
LINE
  8
1
  6
CONTINUOUS
 10
101.700002
 20
19.200000
 11
118.000002
 21
19.200000
  0
LINE
  8
1
  6
CONTINUOUS
 10
102.200002
 20
19.200000
 11
118.000002
 21
19.200000
  0
LINE
  8
1
  6
CONTINUOUS
 10
102.200002
 20
19.200000
 11
118.000002
 21
19.200000
  0
LINE
  8
1
  6
CONTINUOUS
 10
101.700002
 20
19.700000
 11
118.000002
 21
19.700000
  0
LINE
  8
1
  6
CONTINUOUS
 10
102.200002
 20
19.700000
 11
118.000002
 21
19.700000
  0
LINE
  8
1
  6
CONTINUOUS
 10
102.200002
 20
19.700000
 11
118.000002
 21
19.700000
  0
LINE
  8
1
  6
CONTINUOUS
 10
101.700002
 20
20.200000
 11
118.000002
 21
20.200000
  0
LINE
  8
1
  6
CONTINUOUS
 10
102.200002
 20
20.200000
 11
118.000002
 21
20.200000
  0
LINE
  8
1
  6
CONTINUOUS
 10
102.200002
 20
20.200000
 11
118.000002
 21
20.200000
  0
LINE
  8
1
  6
CONTINUOUS
 10
101.700002
 20
20.700000
 11
118.000002
 21
20.700000
  0
LINE
  8
1
  6
CONTINUOUS
 10
102.200002
 20
20.700000
 11
118.000002
 21
20.700000
  0
LINE
  8
1
  6
CONTINUOUS
 10
102.200002
 20
20.700000
 11
118.000002
 21
20.700000
  0
LINE
  8
1
  6
CONTINUOUS
 10
101.700002
 20
21.200000
 11
118.000002
 21
21.200000
  0
LINE
  8
1
  6
CONTINUOUS
 10
102.200002
 20
21.200000
 11
118.000002
 21
21.200000
  0
LINE
  8
1
  6
CONTINUOUS
 10
102.200002
 20
21.200000
 11
118.000002
 21
21.200000
  0
LINE
  8
1
  6
CONTINUOUS
 10
101.700002
 20
21.700000
 11
118.000002
 21
21.700000
  0
LINE
  8
6
  6
CONTINUOUS
 10
110.708935
 20
11.300000
 11
110.708935
 21
8.600000
  0
TEXT
  8
1
  6
CONTINUOUS
 10
37.194075
 20
22.484731
 40
0.300000
  1
L1
  7
TQS_CALIBRI
  0
TEXT
  8
1
  6
CONTINUOUS
 10
64.380622
 20
50.963641
 40
0.300000
  1
L121
  7
TQS_CALIBRI
  0
TEXT
  8
1
  6
CONTINUOUS
 10
49.788550
 20
22.696349
 40
0.300000
  1
L125
  7
TQS_CALIBRI
  0
TEXT
  8
1
  6
CONTINUOUS
 10
47.956446
 20
22.889401
 40
0.300000
  1
L126
  7
TQS_CALIBRI
  0
TEXT
  8
1
  6
CONTINUOUS
 10
29.896608
 20
28.945854
 40
0.300000
  1
L127
  7
TQS_CALIBRI
  0
TEXT
  8
1
  6
CONTINUOUS
 10
29.814635
 20
31.200085
 40
0.300000
  1
L128
  7
TQS_CALIBRI
  0
TEXT
  8
1
  6
CONTINUOUS
 10
18.631538
 20
27.745701
 40
0.300000
  1
L129
  7
TQS_CALIBRI
  0
TEXT
  8
1
  6
CONTINUOUS
 10
40.075653
 20
48.606969
 40
0.300000
  1
L117
  7
TQS_CALIBRI
  0
TEXT
  8
1
  6
CONTINUOUS
 10
20.198441
 20
48.682167
 40
0.300000
  1
L101
  7
TQS_CALIBRI
  0
TEXT
  8
1
  6
CONTINUOUS
 10
65.094718
 20
56.403995
 40
0.300000
  1
L7
  7
TQS_CALIBRI
  0
TEXT
  8
1
  6
CONTINUOUS
 10
65.405462
 20
62.877826
 40
0.300000
  1
L24
  7
TQS_CALIBRI
  0
TEXT
  8
1
  6
CONTINUOUS
 10
65.975159
 20
69.144496
 40
0.300000
  1
L25
  7
TQS_CALIBRI
  0
TEXT
  8
1
  6
CONTINUOUS
 10
65.567152
 20
44.299796
 40
0.300000
  1
L26
  7
TQS_CALIBRI
  0
TEXT
  8
1
  6
CONTINUOUS
 10
62.941068
 20
36.344346
 40
0.300000
  1
L27
  7
TQS_CALIBRI
  0
TEXT
  8
1
  6
CONTINUOUS
 10
62.412513
 20
29.010635
 40
0.300000
  1
L28
  7
TQS_CALIBRI
  0
TEXT
  8
1
  6
CONTINUOUS
 10
13.046286
 20
20.220612
 40
0.300000
  1
PC5
  7
TQS_CALIBRI
  0
TEXT
  8
1
  6
CONTINUOUS
 10
21.749403
 20
20.220612
 40
0.300000
  1
PC6
  7
TQS_CALIBRI
  0
TEXT
  8
1
  6
CONTINUOUS
 10
11.577191
 20
66.631415
 40
0.300000
  1
P143
  7
TQS_CALIBRI
  0
TEXT
  8
1
  6
CONTINUOUS
 10
28.045753
 20
68.570754
 40
0.300000
  1
P140
  7
TQS_CALIBRI
  0
TEXT
  8
1
  6
CONTINUOUS
 10
29.936957
 20
25.574617
 40
0.300000
  1
P174
  7
TQS_CALIBRI
  0
TEXT
  8
1
  6
CONTINUOUS
 10
30.024456
 20
68.118921
 40
0.300000
  1
P142
  7
TQS_CALIBRI
  0
TEXT
  8
1
  6
CONTINUOUS
 10
30.895741
 20
47.720524
 40
0.300000
  1
P155
  7
TQS_CALIBRI
  0
TEXT
  8
1
  6
CONTINUOUS
 10
31.559730
 20
32.174939
 40
0.300000
  1
P168
  7
TQS_CALIBRI
  0
TEXT
  8
1
  6
CONTINUOUS
 10
50.327910
 20
47.034602
 40
0.300000
  1
P160
  7
TQS_CALIBRI
  0
TEXT
  8
1
  6
CONTINUOUS
 10
12.405614
 20
47.235327
 40
0.300000
  1
P158
  7
TQS_CALIBRI
  0
TEXT
  8
1
  6
CONTINUOUS
 10
28.975008
 20
47.742836
 40
0.300000
  1
P154
  7
TQS_CALIBRI
  0
TEXT
  8
1
  6
CONTINUOUS
 10
52.385853
 20
70.630034
 40
0.300000
  1
P137
  7
TQS_CALIBRI
  0
TEXT
  8
1
  6
CONTINUOUS
 10
53.591378
 20
70.640054
 40
0.300000
  1
P138
  7
TQS_CALIBRI
  0
TEXT
  8
1
  6
CONTINUOUS
 10
80.064547
 20
71.544344
 40
0.300000
  1
P135
  7
TQS_CALIBRI
  0
TEXT
  8
1
  6
CONTINUOUS
 10
77.982614
 20
47.105787
 40
0.300000
  1
P161
  7
TQS_CALIBRI
  0
TEXT
  8
1
  6
CONTINUOUS
 10
52.587340
 20
58.922536
 40
0.300000
  1
P148
  7
TQS_CALIBRI
  0
TEXT
  8
1
  6
CONTINUOUS
 10
75.872547
 20
23.721095
 40
0.300000
  1
P179
  7
TQS_CALIBRI
  0
TEXT
  8
1
  6
CONTINUOUS
 10
24.860188
 20
25.587524
 40
0.300000
  1
P173
  7
TQS_CALIBRI
  0
TEXT
  8
1
  6
CONTINUOUS
 10
36.191207
 20
25.565359
 40
0.300000
  1
P175
  7
TQS_CALIBRI
  0
TEXT
  8
1
  6
CONTINUOUS
 10
42.178411
 20
25.553648
 40
0.300000
  1
P176
  7
TQS_CALIBRI
  0
TEXT
  8
1
  6
CONTINUOUS
 10
50.518615
 20
36.012624
 40
0.300000
  1
P164
  7
TQS_CALIBRI
  0
TEXT
  8
1
  6
CONTINUOUS
 10
13.156475
 20
29.720608
 40
0.300000
  1
P170
  7
TQS_CALIBRI
  0
TEXT
  8
1
  6
CONTINUOUS
 10
11.991616
 20
56.926488
 40
0.300000
  1
P152
  7
TQS_CALIBRI
  0
TEXT
  8
1
  6
CONTINUOUS
 10
22.050630
 20
67.859016
 40
0.300000
  1
P141
  7
TQS_CALIBRI
  0
TEXT
  8
1
  6
CONTINUOUS
 10
28.531174
 20
58.133361
 40
0.300000
  1
P149
  7
TQS_CALIBRI
  0
TEXT
  8
1
  6
CONTINUOUS
 10
12.785809
 20
38.399309
 40
0.300000
  1
P162
  7
TQS_CALIBRI
  0
TEXT
  8
1
  6
CONTINUOUS
 10
29.583789
 20
33.494869
 40
0.300000
  1
P166
  7
TQS_CALIBRI
  0
TEXT
  8
1
  6
CONTINUOUS
 10
51.690211
 20
62.387161
 40
0.300000
  1
P144
  7
TQS_CALIBRI
  0
TEXT
  8
1
  6
CONTINUOUS
 10
48.791610
 20
29.720608
 40
0.300000
  1
P172
  7
TQS_CALIBRI
  0
TEXT
  8
1
  6
CONTINUOUS
 10
30.455832
 20
58.019631
 40
0.300000
  1
P150
  7
TQS_CALIBRI
  0
TEXT
  8
1
  6
CONTINUOUS
 10
65.901254
 20
71.013844
 40
0.300000
  1
P136
  7
TQS_CALIBRI
  0
TEXT
  8
1
  6
CONTINUOUS
 10
51.562221
 20
47.367921
 40
0.300000
  1
P159
  7
TQS_CALIBRI
  0
TEXT
  8
1
  6
CONTINUOUS
 10
33.794709
 20
18.411363
 40
0.300000
  1
P92C
  7
TQS_CALIBRI
  0
TEXT
  8
1
  6
CONTINUOUS
 10
44.811254
 20
18.389813
 40
0.300000
  1
P93C
  7
TQS_CALIBRI
  0
TEXT
  8
1
  6
CONTINUOUS
 10
56.661113
 20
19.007001
 40
0.300000
  1
P94C
  7
TQS_CALIBRI
  0
TEXT
  8
1
  6
CONTINUOUS
 10
25.319835
 20
14.819779
 40
0.300000
  1
P308
  7
TQS_CALIBRI
  0
TEXT
  8
1
  6
CONTINUOUS
 10
76.755957
 20
33.679076
 40
0.300000
  1
P167
  7
TQS_CALIBRI
  0
TEXT
  8
1
  6
CONTINUOUS
 10
79.231423
 20
61.180599
 40
0.300000
  1
P145
  7
TQS_CALIBRI
  0
TEXT
  8
1
  6
CONTINUOUS
 10
67.305726
 20
24.481174
 40
0.300000
  1
P178
  7
TQS_CALIBRI
  0
TEXT
  8
1
  6
CONTINUOUS
 10
52.025137
 20
25.836926
 40
0.300000
  1
P177
  7
TQS_CALIBRI
  0
TEXT
  8
1
  6
CONTINUOUS
 10
31.968957
 20
14.569629
 40
0.300000
  1
P309
  7
TQS_CALIBRI
  0
TEXT
  8
1
  6
CONTINUOUS
 10
41.175376
 20
69.363247
 40
0.300000
  1
P139
  7
TQS_CALIBRI
  0
TEXT
  8
1
  6
CONTINUOUS
 10
20.749402
 20
29.720492
 40
0.300000
  1
P171
  7
TQS_CALIBRI
  0
TEXT
  8
4
  6
CONTINUOUS
 10
20.133993
 20
66.518395
 40
0.300000
 50
360.000000
  1
C3
  7
TQS_CALIBRI
  0
TEXT
  8
4
  6
CONTINUOUS
 10
20.133993
 20
65.198395
 40
0.300000
 50
360.000000
  1
C5
  7
TQS_CALIBRI
  0
TEXT
  8
4
  6
CONTINUOUS
 10
20.133993
 20
63.878395
 40
0.300000
 50
360.000000
  1
C7
  7
TQS_CALIBRI
  0
TEXT
  8
4
  6
CONTINUOUS
 10
19.054835
 20
62.518395
 40
0.300000
 50
360.000000
  1
C8
  7
TQS_CALIBRI
  0
TEXT
  8
4
  6
CONTINUOUS
 10
19.054835
 20
61.198395
 40
0.300000
 50
360.000000
  1
C10
  7
TQS_CALIBRI
  0
TEXT
  8
4
  6
CONTINUOUS
 10
19.054835
 20
59.878395
 40
0.300000
 50
360.000000
  1
C12
  7
TQS_CALIBRI
  0
TEXT
  8
4
  6
CONTINUOUS
 10
20.526819
 20
58.518395
 40
0.300000
 50
360.000000
  1
C15
  7
TQS_CALIBRI
  0
TEXT
  8
4
  6
CONTINUOUS
 10
20.526819
 20
57.198395
 40
0.300000
 50
360.000000
  1
C17
  7
TQS_CALIBRI
  0
TEXT
  8
4
  6
CONTINUOUS
 10
20.526819
 20
55.878395
 40
0.300000
 50
360.000000
  1
C19
  7
TQS_CALIBRI
  0
TEXT
  8
4
  6
CONTINUOUS
 10
19.396370
 20
54.518395
 40
0.300000
 50
0.000000
  1
C22
  7
TQS_CALIBRI
  0
TEXT
  8
4
  6
CONTINUOUS
 10
19.396370
 20
53.198395
 40
0.300000
 50
0.000000
  1
C24
  7
TQS_CALIBRI
  0
TEXT
  8
4
  6
CONTINUOUS
 10
19.396370
 20
51.878395
 40
0.300000
 50
0.000000
  1
C26
  7
TQS_CALIBRI
  0
TEXT
  8
4
  6
CONTINUOUS
 10
20.861510
 20
50.518395
 40
0.300000
 50
360.000000
  1
C29
  7
TQS_CALIBRI
  0
TEXT
  8
4
  6
CONTINUOUS
 10
20.861510
 20
49.198395
 40
0.300000
 50
360.000000
  1
C31
  7
TQS_CALIBRI
  0
TEXT
  8
4
  6
CONTINUOUS
 10
20.861510
 20
47.878395
 40
0.300000
 50
360.000000
  1
C33
  7
TQS_CALIBRI
  0
TEXT
  8
4
  6
CONTINUOUS
 10
19.743259
 20
46.518395
 40
0.300000
  1
C36
  7
TQS_CALIBRI
  0
TEXT
  8
4
  6
CONTINUOUS
 10
19.743259
 20
45.198395
 40
0.300000
  1
C38
  7
TQS_CALIBRI
  0
TEXT
  8
4
  6
CONTINUOUS
 10
19.743259
 20
43.878395
 40
0.300000
  1
C40
  7
TQS_CALIBRI
  0
TEXT
  8
4
  6
CONTINUOUS
 10
21.217981
 20
42.518395
 40
0.300000
  1
C43
  7
TQS_CALIBRI
  0
TEXT
  8
4
  6
CONTINUOUS
 10
21.217981
 20
41.198395
 40
0.300000
  1
C45
  7
TQS_CALIBRI
  0
TEXT
  8
4
  6
CONTINUOUS
 10
21.217981
 20
39.878395
 40
0.300000
  1
C48
  7
TQS_CALIBRI
  0
TEXT
  8
4
  6
CONTINUOUS
 10
20.093832
 20
38.518395
 40
0.300000
 50
360.000000
  1
C50
  7
TQS_CALIBRI
  0
TEXT
  8
4
  6
CONTINUOUS
 10
20.093832
 20
37.198395
 40
0.300000
 50
360.000000
  1
C52
  7
TQS_CALIBRI
  0
TEXT
  8
4
  6
CONTINUOUS
 10
20.093832
 20
35.878395
 40
0.300000
 50
360.000000
  1
C54
  7
TQS_CALIBRI
  0
TEXT
  8
4
  6
CONTINUOUS
 10
21.561292
 20
34.034501
 40
0.300000
 50
360.000000
  1
C57
  7
TQS_CALIBRI
  0
TEXT
  8
4
  6
CONTINUOUS
 10
21.561292
 20
31.734501
 40
0.300000
 50
360.000000
  1
C60
  7
TQS_CALIBRI
  0
TEXT
  8
4
  6
CONTINUOUS
 10
41.237649
 20
68.050591
 40
0.300000
 50
360.000000
  1
C1
  7
TQS_CALIBRI
  0
TEXT
  8
4
  6
CONTINUOUS
 10
41.237649
 20
66.670591
 40
0.300000
 50
360.000000
  1
C2
  7
TQS_CALIBRI
  0
TEXT
  8
4
  6
CONTINUOUS
 10
41.237649
 20
65.290591
 40
0.300000
 50
360.000000
  1
C4
  7
TQS_CALIBRI
  0
TEXT
  8
4
  6
CONTINUOUS
 10
41.237649
 20
63.910591
 40
0.300000
 50
360.000000
  1
C6
  7
TQS_CALIBRI
  0
TEXT
  8
4
  6
CONTINUOUS
 10
39.753728
 20
62.518395
 40
0.300000
 50
360.000000
  1
C9
  7
TQS_CALIBRI
  0
TEXT
  8
4
  6
CONTINUOUS
 10
39.753728
 20
61.198395
 40
0.300000
 50
360.000000
  1
C11
  7
TQS_CALIBRI
  0
TEXT
  8
4
  6
CONTINUOUS
 10
39.753728
 20
59.878395
 40
0.300000
 50
360.000000
  1
C13
  7
TQS_CALIBRI
  0
TEXT
  8
4
  6
CONTINUOUS
 10
41.055809
 20
58.698395
 40
0.300000
 50
360.000000
  1
C14
  7
TQS_CALIBRI
  0
TEXT
  8
4
  6
CONTINUOUS
 10
41.055809
 20
57.698395
 40
0.300000
 50
360.000000
  1
C16
  7
TQS_CALIBRI
  0
TEXT
  8
4
  6
CONTINUOUS
 10
41.055809
 20
56.698395
 40
0.300000
 50
360.000000
  1
C18
  7
TQS_CALIBRI
  0
TEXT
  8
4
  6
CONTINUOUS
 10
41.055809
 20
55.698395
 40
0.300000
 50
360.000000
  1
C20
  7
TQS_CALIBRI
  0
TEXT
  8
4
  6
CONTINUOUS
 10
40.870344
 20
50.698395
 40
0.300000
 50
360.000000
  1
C28
  7
TQS_CALIBRI
  0
TEXT
  8
4
  6
CONTINUOUS
 10
40.870344
 20
49.698395
 40
0.300000
 50
360.000000
  1
C30
  7
TQS_CALIBRI
  0
TEXT
  8
4
  6
CONTINUOUS
 10
40.870344
 20
48.698395
 40
0.300000
 50
360.000000
  1
C32
  7
TQS_CALIBRI
  0
TEXT
  8
4
  6
CONTINUOUS
 10
40.870344
 20
47.698395
 40
0.300000
 50
360.000000
  1
C34
  7
TQS_CALIBRI
  0
TEXT
  8
4
  6
CONTINUOUS
 10
40.688804
 20
42.798395
 40
0.300000
 50
360.000000
  1
C42
  7
TQS_CALIBRI
  0
TEXT
  8
4
  6
CONTINUOUS
 10
40.688804
 20
41.998395
 40
0.300000
 50
360.000000
  1
C44
  7
TQS_CALIBRI
  0
TEXT
  8
4
  6
CONTINUOUS
 10
40.688804
 20
41.198395
 40
0.300000
 50
360.000000
  1
C46
  7
TQS_CALIBRI
  0
TEXT
  8
4
  6
CONTINUOUS
 10
40.688804
 20
40.398395
 40
0.300000
 50
360.000000
  1
C47
  7
TQS_CALIBRI
  0
TEXT
  8
4
  6
CONTINUOUS
 10
40.688804
 20
39.598395
 40
0.300000
 50
360.000000
  1
C49
  7
TQS_CALIBRI
  0
TEXT
  8
4
  6
CONTINUOUS
 10
40.502921
 20
34.518395
 40
0.300000
 50
360.000000
  1
C56
  7
TQS_CALIBRI
  0
TEXT
  8
4
  6
CONTINUOUS
 10
40.502921
 20
33.198395
 40
0.300000
 50
360.000000
  1
C58
  7
TQS_CALIBRI
  0
TEXT
  8
4
  6
CONTINUOUS
 10
40.502921
 20
31.878395
 40
0.300000
 50
360.000000
  1
C59
  7
TQS_CALIBRI
  0
TEXT
  8
4
  6
CONTINUOUS
 10
39.563293
 20
54.698395
 40
0.300000
 50
0.000000
  1
C21
  7
TQS_CALIBRI
  0
TEXT
  8
4
  6
CONTINUOUS
 10
39.563293
 20
53.698395
 40
0.300000
 50
0.000000
  1
C23
  7
TQS_CALIBRI
  0
TEXT
  8
4
  6
CONTINUOUS
 10
39.563293
 20
52.698395
 40
0.300000
 50
0.000000
  1
C25
  7
TQS_CALIBRI
  0
TEXT
  8
4
  6
CONTINUOUS
 10
39.563293
 20
51.698395
 40
0.300000
 50
0.000000
  1
C27
  7
TQS_CALIBRI
  0
TEXT
  8
4
  6
CONTINUOUS
 10
39.378771
 20
46.698395
 40
0.300000
 50
360.000000
  1
C35
  7
TQS_CALIBRI
  0
TEXT
  8
4
  6
CONTINUOUS
 10
39.378771
 20
45.698395
 40
0.300000
 50
360.000000
  1
C37
  7
TQS_CALIBRI
  0
TEXT
  8
4
  6
CONTINUOUS
 10
39.378771
 20
44.698395
 40
0.300000
 50
360.000000
  1
C39
  7
TQS_CALIBRI
  0
TEXT
  8
4
  6
CONTINUOUS
 10
39.378771
 20
43.698395
 40
0.300000
 50
360.000000
  1
C41
  7
TQS_CALIBRI
  0
TEXT
  8
4
  6
CONTINUOUS
 10
39.194694
 20
38.518395
 40
0.300000
 50
360.000000
  1
C51
  7
TQS_CALIBRI
  0
TEXT
  8
4
  6
CONTINUOUS
 10
39.194694
 20
37.198395
 40
0.300000
 50
360.000000
  1
C53
  7
TQS_CALIBRI
  0
TEXT
  8
4
  6
CONTINUOUS
 10
39.194694
 20
35.878395
 40
0.300000
 50
360.000000
  1
C55
  7
TQS_CALIBRI
  0
TEXT
  8
4
  6
CONTINUOUS
 10
38.960611
 20
29.997072
 40
0.300000
 50
360.000000
  1
C61
  7
TQS_CALIBRI
  0
TEXT
  8
4
  6
CONTINUOUS
 10
38.960611
 20
27.617072
 40
0.300000
 50
360.000000
  1
C62
  7
TQS_CALIBRI
  0
TEXT
  8
1
  6
CONTINUOUS
 10
88.867752
 20
71.209450
 40
0.220000
  1
CABO
  7
TQS_CALIBRI
  0
TEXT
  8
1
  6
CONTINUOUS
 10
95.932233
 20
71.499450
 40
0.220000
  1
COMPRIMENTO
  7
TQS_CALIBRI
  0
TEXT
  8
1
  6
CONTINUOUS
 10
98.926539
 20
70.999450
 40
0.220000
  1
TOTAL
  7
TQS_CALIBRI
  0
TEXT
  8
1
  6
CONTINUOUS
 10
101.756893
 20
70.999450
 40
0.220000
  1
A
  7
TQS_CALIBRI
  0
TEXT
  8
1
  6
CONTINUOUS
 10
102.801709
 20
70.999450
 40
0.220000
  1
P
  7
TQS_CALIBRI
  0
TEXT
  8
1
  6
CONTINUOUS
 10
103.846525
 20
70.999450
 40
0.220000
  1
I
  7
TQS_CALIBRI
  0
TEXT
  8
1
  6
CONTINUOUS
 10
101.774206
 20
71.499450
 40
0.220000
  1
ANCORAGENS
  7
TQS_CALIBRI
  0
TEXT
  8
1
  6
CONTINUOUS
 10
93.326713
 20
71.209450
 40
0.220000
  1
Q
  7
TQS_CALIBRI
  0
TEXT
  8
1
  6
CONTINUOUS
 10
90.026374
 20
72.159450
 40
0.400000
  1
PROTENSÃO: AÇO
  7
TQS_CALIBRI
  0
TEXT
  8
1
  6
CONTINUOUS
 10
95.345103
 20
70.999450
 40
0.220000
  1
UNITÁRIO
  7
TQS_CALIBRI
  0
TEXT
  8
1
  6
CONTINUOUS
 10
104.801588
 20
70.999450
 40
0.220000
  1
INI
  7
TQS_CALIBRI
  0
TEXT
  8
1
  6
CONTINUOUS
 10
106.368812
 20
70.999450
 40
0.220000
  1
FIN
  7
TQS_CALIBRI
  0
TEXT
  8
1
  6
CONTINUOUS
 10
91.255964
 20
71.211669
 40
0.220000
  1
%%c
  7
TQS_CALIBRI
  0
TEXT
  8
1
  6
CONTINUOUS
 10
104.895354
 20
71.499450
 40
0.220000
  1
ALONG
  7
TQS_CALIBRI
  0
TEXT
  8
1
  6
CONTINUOUS
 10
96.354604
 20
72.159450
 40
0.400000
  1
CP190 RB 12.7 - 12.7
  7
TQS_CALIBRI
  0
TEXT
  8
1
  6
CONTINUOUS
 10
91.541112
 20
71.211669
 40
0.220000
  1
(mm)
  7
TQS_CALIBRI
  0
TEXT
  8
1
  6
CONTINUOUS
 10
98.592309
 20
71.499450
 40
0.220000
  1
(m)
  7
TQS_CALIBRI
  0
TEXT
  8
1
  6
CONTINUOUS
 10
106.082850
 20
71.499450
 40
0.220000
  1
(mm)
  7
TQS_CALIBRI
  0
TEXT
  8
1
  6
CONTINUOUS
 10
88.513174
 20
70.499450
 40
0.220000
  1
C1 A C2
  7
TQS_CALIBRI
  0
TEXT
  8
1
  6
CONTINUOUS
 10
90.866655
 20
70.499450
 40
0.220000
  1
2 %%c 12.7
  7
TQS_CALIBRI
  0
TEXT
  8
1
  6
CONTINUOUS
 10
93.081052
 20
70.499450
 40
0.220000
  1
2
  7
TQS_CALIBRI
  0
TEXT
  8
1
  6
CONTINUOUS
 10
95.317635
 20
70.499450
 40
0.220000
  1
10.7
  7
TQS_CALIBRI
  0
TEXT
  8
1
  6
CONTINUOUS
 10
98.594468
 20
70.499450
 40
0.220000
  1
42.7
  7
TQS_CALIBRI
  0
TEXT
  8
1
  6
CONTINUOUS
 10
101.572440
 20
70.499450
 40
0.220000
  1
4
  7
TQS_CALIBRI
  0
TEXT
  8
1
  6
CONTINUOUS
 10
102.617256
 20
70.499450
 40
0.220000
  1
4
  7
TQS_CALIBRI
  0
TEXT
  8
1
  6
CONTINUOUS
 10
104.654079
 20
70.499450
 40
0.220000
  1
0
  7
TQS_CALIBRI
  0
TEXT
  8
1
  6
CONTINUOUS
 10
106.221303
 20
70.499450
 40
0.220000
  1
69
  7
TQS_CALIBRI
  0
TEXT
  8
1
  6
CONTINUOUS
 10
88.513174
 20
69.999449
 40
0.220000
  1
C3
  7
TQS_CALIBRI
  0
TEXT
  8
1
  6
CONTINUOUS
 10
90.866655
 20
69.999449
 40
0.220000
  1
   "
  7
TQS_CALIBRI
  0
TEXT
  8
1
  6
CONTINUOUS
 10
93.081052
 20
69.999449
 40
0.220000
  1
1
  7
TQS_CALIBRI
  0
TEXT
  8
1
  6
CONTINUOUS
 10
95.317635
 20
69.999449
 40
0.220000
  1
8.3
  7
TQS_CALIBRI
  0
TEXT
  8
1
  6
CONTINUOUS
 10
98.594468
 20
69.999449
 40
0.220000
  1
16.6
  7
TQS_CALIBRI
  0
TEXT
  8
1
  6
CONTINUOUS
 10
101.572440
 20
69.999449
 40
0.220000
  1
2
  7
TQS_CALIBRI
  0
TEXT
  8
1
  6
CONTINUOUS
 10
102.617256
 20
69.999449
 40
0.220000
  1
2
  7
TQS_CALIBRI
  0
TEXT
  8
1
  6
CONTINUOUS
 10
104.654079
 20
69.999449
 40
0.220000
  1
0
  7
TQS_CALIBRI
  0
TEXT
  8
1
  6
CONTINUOUS
 10
106.221303
 20
69.999449
 40
0.220000
  1
51
  7
TQS_CALIBRI
  0
TEXT
  8
1
  6
CONTINUOUS
 10
88.513174
 20
69.499448
 40
0.220000
  1
C4
  7
TQS_CALIBRI
  0
TEXT
  8
1
  6
CONTINUOUS
 10
90.866655
 20
69.499448
 40
0.220000
  1
   "
  7
TQS_CALIBRI
  0
TEXT
  8
1
  6
CONTINUOUS
 10
93.081052
 20
69.499448
 40
0.220000
  1
1
  7
TQS_CALIBRI
  0
TEXT
  8
1
  6
CONTINUOUS
 10
95.317635
 20
69.499448
 40
0.220000
  1
10.7
  7
TQS_CALIBRI
  0
TEXT
  8
1
  6
CONTINUOUS
 10
98.594468
 20
69.499448
 40
0.220000
  1
21.3
  7
TQS_CALIBRI
  0
TEXT
  8
1
  6
CONTINUOUS
 10
101.572440
 20
69.499448
 40
0.220000
  1
2
  7
TQS_CALIBRI
  0
TEXT
  8
1
  6
CONTINUOUS
 10
102.617256
 20
69.499448
 40
0.220000
  1
2
  7
TQS_CALIBRI
  0
TEXT
  8
1
  6
CONTINUOUS
 10
104.654079
 20
69.499448
 40
0.220000
  1
0
  7
TQS_CALIBRI
  0
TEXT
  8
1
  6
CONTINUOUS
 10
106.221303
 20
69.499448
 40
0.220000
  1
69
  7
TQS_CALIBRI
  0
TEXT
  8
1
  6
CONTINUOUS
 10
88.513174
 20
68.999447
 40
0.220000
  1
C5
  7
TQS_CALIBRI
  0
TEXT
  8
1
  6
CONTINUOUS
 10
90.866655
 20
68.999447
 40
0.220000
  1
   "
  7
TQS_CALIBRI
  0
TEXT
  8
1
  6
CONTINUOUS
 10
93.081052
 20
68.999447
 40
0.220000
  1
1
  7
TQS_CALIBRI
  0
TEXT
  8
1
  6
CONTINUOUS
 10
95.317635
 20
68.999447
 40
0.220000
  1
8.3
  7
TQS_CALIBRI
  0
TEXT
  8
1
  6
CONTINUOUS
 10
98.594468
 20
68.999447
 40
0.220000
  1
16.6
  7
TQS_CALIBRI
  0
TEXT
  8
1
  6
CONTINUOUS
 10
101.572440
 20
68.999447
 40
0.220000
  1
2
  7
TQS_CALIBRI
  0
TEXT
  8
1
  6
CONTINUOUS
 10
102.617256
 20
68.999447
 40
0.220000
  1
2
  7
TQS_CALIBRI
  0
TEXT
  8
1
  6
CONTINUOUS
 10
104.654079
 20
68.999447
 40
0.220000
  1
0
  7
TQS_CALIBRI
  0
TEXT
  8
1
  6
CONTINUOUS
 10
106.221303
 20
68.999447
 40
0.220000
  1
51
  7
TQS_CALIBRI
  0
TEXT
  8
1
  6
CONTINUOUS
 10
88.513174
 20
68.499447
 40
0.220000
  1
C6
  7
TQS_CALIBRI
  0
TEXT
  8
1
  6
CONTINUOUS
 10
90.866655
 20
68.499447
 40
0.220000
  1
   "
  7
TQS_CALIBRI
  0
TEXT
  8
1
  6
CONTINUOUS
 10
93.081052
 20
68.499447
 40
0.220000
  1
1
  7
TQS_CALIBRI
  0
TEXT
  8
1
  6
CONTINUOUS
 10
95.317635
 20
68.499447
 40
0.220000
  1
10.7
  7
TQS_CALIBRI
  0
TEXT
  8
1
  6
CONTINUOUS
 10
98.594468
 20
68.499447
 40
0.220000
  1
21.3
  7
TQS_CALIBRI
  0
TEXT
  8
1
  6
CONTINUOUS
 10
101.572440
 20
68.499447
 40
0.220000
  1
2
  7
TQS_CALIBRI
  0
TEXT
  8
1
  6
CONTINUOUS
 10
102.617256
 20
68.499447
 40
0.220000
  1
2
  7
TQS_CALIBRI
  0
TEXT
  8
1
  6
CONTINUOUS
 10
104.654079
 20
68.499447
 40
0.220000
  1
0
  7
TQS_CALIBRI
  0
TEXT
  8
1
  6
CONTINUOUS
 10
106.221303
 20
68.499447
 40
0.220000
  1
69
  7
TQS_CALIBRI
  0
TEXT
  8
1
  6
CONTINUOUS
 10
88.513174
 20
67.999446
 40
0.220000
  1
C7
  7
TQS_CALIBRI
  0
TEXT
  8
1
  6
CONTINUOUS
 10
90.866655
 20
67.999446
 40
0.220000
  1
   "
  7
TQS_CALIBRI
  0
TEXT
  8
1
  6
CONTINUOUS
 10
93.081052
 20
67.999446
 40
0.220000
  1
1
  7
TQS_CALIBRI
  0
TEXT
  8
1
  6
CONTINUOUS
 10
95.317635
 20
67.999446
 40
0.220000
  1
8.3
  7
TQS_CALIBRI
  0
TEXT
  8
1
  6
CONTINUOUS
 10
98.594468
 20
67.999446
 40
0.220000
  1
16.6
  7
TQS_CALIBRI
  0
TEXT
  8
1
  6
CONTINUOUS
 10
101.572440
 20
67.999446
 40
0.220000
  1
2
  7
TQS_CALIBRI
  0
TEXT
  8
1
  6
CONTINUOUS
 10
102.617256
 20
67.999446
 40
0.220000
  1
2
  7
TQS_CALIBRI
  0
TEXT
  8
1
  6
CONTINUOUS
 10
104.654079
 20
67.999446
 40
0.220000
  1
0
  7
TQS_CALIBRI
  0
TEXT
  8
1
  6
CONTINUOUS
 10
106.221303
 20
67.999446
 40
0.220000
  1
51
  7
TQS_CALIBRI
  0
TEXT
  8
1
  6
CONTINUOUS
 10
88.513174
 20
67.499445
 40
0.220000
  1
C8
  7
TQS_CALIBRI
  0
TEXT
  8
1
  6
CONTINUOUS
 10
90.866655
 20
67.499445
 40
0.220000
  1
3 %%c 12.7
  7
TQS_CALIBRI
  0
TEXT
  8
1
  6
CONTINUOUS
 10
93.081052
 20
67.499445
 40
0.220000
  1
1
  7
TQS_CALIBRI
  0
TEXT
  8
1
  6
CONTINUOUS
 10
95.317635
 20
67.499445
 40
0.220000
  1
8.2
  7
TQS_CALIBRI
  0
TEXT
  8
1
  6
CONTINUOUS
 10
98.594468
 20
67.499445
 40
0.220000
  1
24.7
  7
TQS_CALIBRI
  0
TEXT
  8
1
  6
CONTINUOUS
 10
101.572440
 20
67.499445
 40
0.220000
  1
3
  7
TQS_CALIBRI
  0
TEXT
  8
1
  6
CONTINUOUS
 10
102.617256
 20
67.499445
 40
0.220000
  1
3
  7
TQS_CALIBRI
  0
TEXT
  8
1
  6
CONTINUOUS
 10
104.654079
 20
67.499445
 40
0.220000
  1
0
  7
TQS_CALIBRI
  0
TEXT
  8
1
  6
CONTINUOUS
 10
106.221303
 20
67.499445
 40
0.220000
  1
51
  7
TQS_CALIBRI
  0
TEXT
  8
1
  6
CONTINUOUS
 10
88.513174
 20
66.999445
 40
0.220000
  1
C9
  7
TQS_CALIBRI
  0
TEXT
  8
1
  6
CONTINUOUS
 10
90.866655
 20
66.999445
 40
0.220000
  1
4 %%c 12.7
  7
TQS_CALIBRI
  0
TEXT
  8
1
  6
CONTINUOUS
 10
93.081052
 20
66.999445
 40
0.220000
  1
1
  7
TQS_CALIBRI
  0
TEXT
  8
1
  6
CONTINUOUS
 10
95.317635
 20
66.999445
 40
0.220000
  1
10.4
  7
TQS_CALIBRI
  0
TEXT
  8
1
  6
CONTINUOUS
 10
98.594468
 20
66.999445
 40
0.220000
  1
41.6
  7
TQS_CALIBRI
  0
TEXT
  8
1
  6
CONTINUOUS
 10
101.572440
 20
66.999445
 40
0.220000
  1
4
  7
TQS_CALIBRI
  0
TEXT
  8
1
  6
CONTINUOUS
 10
102.617256
 20
66.999445
 40
0.220000
  1
4
  7
TQS_CALIBRI
  0
TEXT
  8
1
  6
CONTINUOUS
 10
104.654079
 20
66.999445
 40
0.220000
  1
0
  7
TQS_CALIBRI
  0
TEXT
  8
1
  6
CONTINUOUS
 10
106.221303
 20
66.999445
 40
0.220000
  1
67
  7
TQS_CALIBRI
  0
TEXT
  8
1
  6
CONTINUOUS
 10
88.513174
 20
66.499444
 40
0.220000
  1
C10
  7
TQS_CALIBRI
  0
TEXT
  8
1
  6
CONTINUOUS
 10
90.866655
 20
66.499444
 40
0.220000
  1
3 %%c 12.7
  7
TQS_CALIBRI
  0
TEXT
  8
1
  6
CONTINUOUS
 10
93.081052
 20
66.499444
 40
0.220000
  1
1
  7
TQS_CALIBRI
  0
TEXT
  8
1
  6
CONTINUOUS
 10
95.317635
 20
66.499444
 40
0.220000
  1
8.2
  7
TQS_CALIBRI
  0
TEXT
  8
1
  6
CONTINUOUS
 10
98.594468
 20
66.499444
 40
0.220000
  1
24.7
  7
TQS_CALIBRI
  0
TEXT
  8
1
  6
CONTINUOUS
 10
101.572440
 20
66.499444
 40
0.220000
  1
3
  7
TQS_CALIBRI
  0
TEXT
  8
1
  6
CONTINUOUS
 10
102.617256
 20
66.499444
 40
0.220000
  1
3
  7
TQS_CALIBRI
  0
TEXT
  8
1
  6
CONTINUOUS
 10
104.654079
 20
66.499444
 40
0.220000
  1
0
  7
TQS_CALIBRI
  0
TEXT
  8
1
  6
CONTINUOUS
 10
106.221303
 20
66.499444
 40
0.220000
  1
51
  7
TQS_CALIBRI
  0
TEXT
  8
1
  6
CONTINUOUS
 10
88.513174
 20
65.999443
 40
0.220000
  1
C11
  7
TQS_CALIBRI
  0
TEXT
  8
1
  6
CONTINUOUS
 10
90.866655
 20
65.999443
 40
0.220000
  1
4 %%c 12.7
  7
TQS_CALIBRI
  0
TEXT
  8
1
  6
CONTINUOUS
 10
93.081052
 20
65.999443
 40
0.220000
  1
1
  7
TQS_CALIBRI
  0
TEXT
  8
1
  6
CONTINUOUS
 10
95.317635
 20
65.999443
 40
0.220000
  1
10.4
  7
TQS_CALIBRI
  0
TEXT
  8
1
  6
CONTINUOUS
 10
98.594468
 20
65.999443
 40
0.220000
  1
41.6
  7
TQS_CALIBRI
  0
TEXT
  8
1
  6
CONTINUOUS
 10
101.572440
 20
65.999443
 40
0.220000
  1
4
  7
TQS_CALIBRI
  0
TEXT
  8
1
  6
CONTINUOUS
 10
102.617256
 20
65.999443
 40
0.220000
  1
4
  7
TQS_CALIBRI
  0
TEXT
  8
1
  6
CONTINUOUS
 10
104.654079
 20
65.999443
 40
0.220000
  1
0
  7
TQS_CALIBRI
  0
TEXT
  8
1
  6
CONTINUOUS
 10
106.221303
 20
65.999443
 40
0.220000
  1
67
  7
TQS_CALIBRI
  0
TEXT
  8
1
  6
CONTINUOUS
 10
88.513174
 20
65.499442
 40
0.220000
  1
C12
  7
TQS_CALIBRI
  0
TEXT
  8
1
  6
CONTINUOUS
 10
90.866655
 20
65.499442
 40
0.220000
  1
3 %%c 12.7
  7
TQS_CALIBRI
  0
TEXT
  8
1
  6
CONTINUOUS
 10
93.081052
 20
65.499442
 40
0.220000
  1
1
  7
TQS_CALIBRI
  0
TEXT
  8
1
  6
CONTINUOUS
 10
95.317635
 20
65.499442
 40
0.220000
  1
8.2
  7
TQS_CALIBRI
  0
TEXT
  8
1
  6
CONTINUOUS
 10
98.594468
 20
65.499442
 40
0.220000
  1
24.7
  7
TQS_CALIBRI
  0
TEXT
  8
1
  6
CONTINUOUS
 10
101.572440
 20
65.499442
 40
0.220000
  1
3
  7
TQS_CALIBRI
  0
TEXT
  8
1
  6
CONTINUOUS
 10
102.617256
 20
65.499442
 40
0.220000
  1
3
  7
TQS_CALIBRI
  0
TEXT
  8
1
  6
CONTINUOUS
 10
104.654079
 20
65.499442
 40
0.220000
  1
0
  7
TQS_CALIBRI
  0
TEXT
  8
1
  6
CONTINUOUS
 10
106.221303
 20
65.499442
 40
0.220000
  1
51
  7
TQS_CALIBRI
  0
TEXT
  8
1
  6
CONTINUOUS
 10
88.513174
 20
64.999442
 40
0.220000
  1
C13
  7
TQS_CALIBRI
  0
TEXT
  8
1
  6
CONTINUOUS
 10
90.866655
 20
64.999442
 40
0.220000
  1
4 %%c 12.7
  7
TQS_CALIBRI
  0
TEXT
  8
1
  6
CONTINUOUS
 10
93.081052
 20
64.999442
 40
0.220000
  1
1
  7
TQS_CALIBRI
  0
TEXT
  8
1
  6
CONTINUOUS
 10
95.317635
 20
64.999442
 40
0.220000
  1
10.4
  7
TQS_CALIBRI
  0
TEXT
  8
1
  6
CONTINUOUS
 10
98.594468
 20
64.999442
 40
0.220000
  1
41.6
  7
TQS_CALIBRI
  0
TEXT
  8
1
  6
CONTINUOUS
 10
101.572440
 20
64.999442
 40
0.220000
  1
4
  7
TQS_CALIBRI
  0
TEXT
  8
1
  6
CONTINUOUS
 10
102.617256
 20
64.999442
 40
0.220000
  1
4
  7
TQS_CALIBRI
  0
TEXT
  8
1
  6
CONTINUOUS
 10
104.654079
 20
64.999442
 40
0.220000
  1
0
  7
TQS_CALIBRI
  0
TEXT
  8
1
  6
CONTINUOUS
 10
106.221303
 20
64.999442
 40
0.220000
  1
67
  7
TQS_CALIBRI
  0
TEXT
  8
1
  6
CONTINUOUS
 10
88.513174
 20
64.499441
 40
0.220000
  1
C14
  7
TQS_CALIBRI
  0
TEXT
  8
1
  6
CONTINUOUS
 10
90.866655
 20
64.499441
 40
0.220000
  1
   "
  7
TQS_CALIBRI
  0
TEXT
  8
1
  6
CONTINUOUS
 10
93.081052
 20
64.499441
 40
0.220000
  1
1
  7
TQS_CALIBRI
  0
TEXT
  8
1
  6
CONTINUOUS
 10
95.317635
 20
64.499441
 40
0.220000
  1
10.1
  7
TQS_CALIBRI
  0
TEXT
  8
1
  6
CONTINUOUS
 10
98.594468
 20
64.499441
 40
0.220000
  1
40.6
  7
TQS_CALIBRI
  0
TEXT
  8
1
  6
CONTINUOUS
 10
101.572440
 20
64.499441
 40
0.220000
  1
4
  7
TQS_CALIBRI
  0
TEXT
  8
1
  6
CONTINUOUS
 10
102.617256
 20
64.499441
 40
0.220000
  1
4
  7
TQS_CALIBRI
  0
TEXT
  8
1
  6
CONTINUOUS
 10
104.654079
 20
64.499441
 40
0.220000
  1
0
  7
TQS_CALIBRI
  0
TEXT
  8
1
  6
CONTINUOUS
 10
106.221303
 20
64.499441
 40
0.220000
  1
65
  7
TQS_CALIBRI
  0
TEXT
  8
1
  6
CONTINUOUS
 10
88.513174
 20
63.999440
 40
0.220000
  1
C15
  7
TQS_CALIBRI
  0
TEXT
  8
1
  6
CONTINUOUS
 10
90.866655
 20
63.999440
 40
0.220000
  1
   "
  7
TQS_CALIBRI
  0
TEXT
  8
1
  6
CONTINUOUS
 10
93.081052
 20
63.999440
 40
0.220000
  1
1
  7
TQS_CALIBRI
  0
TEXT
  8
1
  6
CONTINUOUS
 10
95.317635
 20
63.999440
 40
0.220000
  1
8.2
  7
TQS_CALIBRI
  0
TEXT
  8
1
  6
CONTINUOUS
 10
98.594468
 20
63.999440
 40
0.220000
  1
32.9
  7
TQS_CALIBRI
  0
TEXT
  8
1
  6
CONTINUOUS
 10
101.572440
 20
63.999440
 40
0.220000
  1
4
  7
TQS_CALIBRI
  0
TEXT
  8
1
  6
CONTINUOUS
 10
102.617256
 20
63.999440
 40
0.220000
  1
4
  7
TQS_CALIBRI
  0
TEXT
  8
1
  6
CONTINUOUS
 10
104.654079
 20
63.999440
 40
0.220000
  1
0
  7
TQS_CALIBRI
  0
TEXT
  8
1
  6
CONTINUOUS
 10
106.221303
 20
63.999440
 40
0.220000
  1
51
  7
TQS_CALIBRI
  0
TEXT
  8
1
  6
CONTINUOUS
 10
88.513174
 20
63.499439
 40
0.220000
  1
C16
  7
TQS_CALIBRI
  0
TEXT
  8
1
  6
CONTINUOUS
 10
90.866655
 20
63.499439
 40
0.220000
  1
   "
  7
TQS_CALIBRI
  0
TEXT
  8
1
  6
CONTINUOUS
 10
93.081052
 20
63.499439
 40
0.220000
  1
1
  7
TQS_CALIBRI
  0
TEXT
  8
1
  6
CONTINUOUS
 10
95.317635
 20
63.499439
 40
0.220000
  1
10.1
  7
TQS_CALIBRI
  0
TEXT
  8
1
  6
CONTINUOUS
 10
98.594468
 20
63.499439
 40
0.220000
  1
40.6
  7
TQS_CALIBRI
  0
TEXT
  8
1
  6
CONTINUOUS
 10
101.572440
 20
63.499439
 40
0.220000
  1
4
  7
TQS_CALIBRI
  0
TEXT
  8
1
  6
CONTINUOUS
 10
102.617256
 20
63.499439
 40
0.220000
  1
4
  7
TQS_CALIBRI
  0
TEXT
  8
1
  6
CONTINUOUS
 10
104.654079
 20
63.499440
 40
0.220000
  1
0
  7
TQS_CALIBRI
  0
TEXT
  8
1
  6
CONTINUOUS
 10
106.221303
 20
63.499440
 40
0.220000
  1
65
  7
TQS_CALIBRI
  0
TEXT
  8
1
  6
CONTINUOUS
 10
88.513174
 20
62.999439
 40
0.220000
  1
C17
  7
TQS_CALIBRI
  0
TEXT
  8
1
  6
CONTINUOUS
 10
90.866655
 20
62.999439
 40
0.220000
  1
   "
  7
TQS_CALIBRI
  0
TEXT
  8
1
  6
CONTINUOUS
 10
93.081052
 20
62.999439
 40
0.220000
  1
1
  7
TQS_CALIBRI
  0
TEXT
  8
1
  6
CONTINUOUS
 10
95.317635
 20
62.999439
 40
0.220000
  1
8.2
  7
TQS_CALIBRI
  0
TEXT
  8
1
  6
CONTINUOUS
 10
98.594468
 20
62.999439
 40
0.220000
  1
32.9
  7
TQS_CALIBRI
  0
TEXT
  8
1
  6
CONTINUOUS
 10
101.572440
 20
62.999439
 40
0.220000
  1
4
  7
TQS_CALIBRI
  0
TEXT
  8
1
  6
CONTINUOUS
 10
102.617256
 20
62.999439
 40
0.220000
  1
4
  7
TQS_CALIBRI
  0
TEXT
  8
1
  6
CONTINUOUS
 10
104.654079
 20
62.999439
 40
0.220000
  1
0
  7
TQS_CALIBRI
  0
TEXT
  8
1
  6
CONTINUOUS
 10
106.221303
 20
62.999439
 40
0.220000
  1
51
  7
TQS_CALIBRI
  0
TEXT
  8
1
  6
CONTINUOUS
 10
88.513174
 20
62.499438
 40
0.220000
  1
C18
  7
TQS_CALIBRI
  0
TEXT
  8
1
  6
CONTINUOUS
 10
90.866655
 20
62.499438
 40
0.220000
  1
   "
  7
TQS_CALIBRI
  0
TEXT
  8
1
  6
CONTINUOUS
 10
93.081052
 20
62.499438
 40
0.220000
  1
1
  7
TQS_CALIBRI
  0
TEXT
  8
1
  6
CONTINUOUS
 10
95.317635
 20
62.499438
 40
0.220000
  1
10.1
  7
TQS_CALIBRI
  0
TEXT
  8
1
  6
CONTINUOUS
 10
98.594468
 20
62.499438
 40
0.220000
  1
40.6
  7
TQS_CALIBRI
  0
TEXT
  8
1
  6
CONTINUOUS
 10
101.572440
 20
62.499438
 40
0.220000
  1
4
  7
TQS_CALIBRI
  0
TEXT
  8
1
  6
CONTINUOUS
 10
102.617256
 20
62.499438
 40
0.220000
  1
4
  7
TQS_CALIBRI
  0
TEXT
  8
1
  6
CONTINUOUS
 10
104.654079
 20
62.499438
 40
0.220000
  1
0
  7
TQS_CALIBRI
  0
TEXT
  8
1
  6
CONTINUOUS
 10
106.221303
 20
62.499438
 40
0.220000
  1
65
  7
TQS_CALIBRI
  0
TEXT
  8
1
  6
CONTINUOUS
 10
88.513174
 20
61.999437
 40
0.220000
  1
C19
  7
TQS_CALIBRI
  0
TEXT
  8
1
  6
CONTINUOUS
 10
90.866655
 20
61.999437
 40
0.220000
  1
   "
  7
TQS_CALIBRI
  0
TEXT
  8
1
  6
CONTINUOUS
 10
93.081052
 20
61.999437
 40
0.220000
  1
1
  7
TQS_CALIBRI
  0
TEXT
  8
1
  6
CONTINUOUS
 10
95.317635
 20
61.999437
 40
0.220000
  1
8.2
  7
TQS_CALIBRI
  0
TEXT
  8
1
  6
CONTINUOUS
 10
98.594468
 20
61.999437
 40
0.220000
  1
32.9
  7
TQS_CALIBRI
  0
TEXT
  8
1
  6
CONTINUOUS
 10
101.572440
 20
61.999437
 40
0.220000
  1
4
  7
TQS_CALIBRI
  0
TEXT
  8
1
  6
CONTINUOUS
 10
102.617256
 20
61.999437
 40
0.220000
  1
4
  7
TQS_CALIBRI
  0
TEXT
  8
1
  6
CONTINUOUS
 10
104.654079
 20
61.999437
 40
0.220000
  1
0
  7
TQS_CALIBRI
  0
TEXT
  8
1
  6
CONTINUOUS
 10
106.221303
 20
61.999437
 40
0.220000
  1
51
  7
TQS_CALIBRI
  0
TEXT
  8
1
  6
CONTINUOUS
 10
88.513174
 20
61.499437
 40
0.220000
  1
C20
  7
TQS_CALIBRI
  0
TEXT
  8
1
  6
CONTINUOUS
 10
90.866655
 20
61.499437
 40
0.220000
  1
   "
  7
TQS_CALIBRI
  0
TEXT
  8
1
  6
CONTINUOUS
 10
93.081052
 20
61.499437
 40
0.220000
  1
1
  7
TQS_CALIBRI
  0
TEXT
  8
1
  6
CONTINUOUS
 10
95.317635
 20
61.499437
 40
0.220000
  1
10.1
  7
TQS_CALIBRI
  0
TEXT
  8
1
  6
CONTINUOUS
 10
98.594468
 20
61.499437
 40
0.220000
  1
40.6
  7
TQS_CALIBRI
  0
TEXT
  8
1
  6
CONTINUOUS
 10
101.572440
 20
61.499437
 40
0.220000
  1
4
  7
TQS_CALIBRI
  0
TEXT
  8
1
  6
CONTINUOUS
 10
102.617256
 20
61.499437
 40
0.220000
  1
4
  7
TQS_CALIBRI
  0
TEXT
  8
1
  6
CONTINUOUS
 10
104.654079
 20
61.499437
 40
0.220000
  1
0
  7
TQS_CALIBRI
  0
TEXT
  8
1
  6
CONTINUOUS
 10
106.221303
 20
61.499437
 40
0.220000
  1
65
  7
TQS_CALIBRI
  0
TEXT
  8
1
  6
CONTINUOUS
 10
88.513174
 20
60.999436
 40
0.220000
  1
C21
  7
TQS_CALIBRI
  0
TEXT
  8
1
  6
CONTINUOUS
 10
90.866655
 20
60.999436
 40
0.220000
  1
   "
  7
TQS_CALIBRI
  0
TEXT
  8
1
  6
CONTINUOUS
 10
93.081052
 20
60.999436
 40
0.220000
  1
1
  7
TQS_CALIBRI
  0
TEXT
  8
1
  6
CONTINUOUS
 10
95.317635
 20
60.999436
 40
0.220000
  1
9.9
  7
TQS_CALIBRI
  0
TEXT
  8
1
  6
CONTINUOUS
 10
98.594468
 20
60.999436
 40
0.220000
  1
39.5
  7
TQS_CALIBRI
  0
TEXT
  8
1
  6
CONTINUOUS
 10
101.572440
 20
60.999436
 40
0.220000
  1
4
  7
TQS_CALIBRI
  0
TEXT
  8
1
  6
CONTINUOUS
 10
102.617256
 20
60.999436
 40
0.220000
  1
4
  7
TQS_CALIBRI
  0
TEXT
  8
1
  6
CONTINUOUS
 10
104.654079
 20
60.999436
 40
0.220000
  1
0
  7
TQS_CALIBRI
  0
TEXT
  8
1
  6
CONTINUOUS
 10
106.221303
 20
60.999436
 40
0.220000
  1
63
  7
TQS_CALIBRI
  0
TEXT
  8
1
  6
CONTINUOUS
 10
88.513174
 20
60.499435
 40
0.220000
  1
C22
  7
TQS_CALIBRI
  0
TEXT
  8
1
  6
CONTINUOUS
 10
90.866655
 20
60.499435
 40
0.220000
  1
   "
  7
TQS_CALIBRI
  0
TEXT
  8
1
  6
CONTINUOUS
 10
93.081052
 20
60.499435
 40
0.220000
  1
1
  7
TQS_CALIBRI
  0
TEXT
  8
1
  6
CONTINUOUS
 10
95.317635
 20
60.499435
 40
0.220000
  1
8.2
  7
TQS_CALIBRI
  0
TEXT
  8
1
  6
CONTINUOUS
 10
98.594468
 20
60.499435
 40
0.220000
  1
32.9
  7
TQS_CALIBRI
  0
TEXT
  8
1
  6
CONTINUOUS
 10
101.572440
 20
60.499435
 40
0.220000
  1
4
  7
TQS_CALIBRI
  0
TEXT
  8
1
  6
CONTINUOUS
 10
102.617256
 20
60.499435
 40
0.220000
  1
4
  7
TQS_CALIBRI
  0
TEXT
  8
1
  6
CONTINUOUS
 10
104.654079
 20
60.499435
 40
0.220000
  1
0
  7
TQS_CALIBRI
  0
TEXT
  8
1
  6
CONTINUOUS
 10
106.221303
 20
60.499435
 40
0.220000
  1
51
  7
TQS_CALIBRI
  0
TEXT
  8
1
  6
CONTINUOUS
 10
88.513174
 20
59.999434
 40
0.220000
  1
C23
  7
TQS_CALIBRI
  0
TEXT
  8
1
  6
CONTINUOUS
 10
90.866655
 20
59.999434
 40
0.220000
  1
   "
  7
TQS_CALIBRI
  0
TEXT
  8
1
  6
CONTINUOUS
 10
93.081052
 20
59.999434
 40
0.220000
  1
1
  7
TQS_CALIBRI
  0
TEXT
  8
1
  6
CONTINUOUS
 10
95.317635
 20
59.999434
 40
0.220000
  1
9.9
  7
TQS_CALIBRI
  0
TEXT
  8
1
  6
CONTINUOUS
 10
98.594468
 20
59.999434
 40
0.220000
  1
39.5
  7
TQS_CALIBRI
  0
TEXT
  8
1
  6
CONTINUOUS
 10
101.572440
 20
59.999434
 40
0.220000
  1
4
  7
TQS_CALIBRI
  0
TEXT
  8
1
  6
CONTINUOUS
 10
102.617256
 20
59.999434
 40
0.220000
  1
4
  7
TQS_CALIBRI
  0
TEXT
  8
1
  6
CONTINUOUS
 10
104.654079
 20
59.999435
 40
0.220000
  1
0
  7
TQS_CALIBRI
  0
TEXT
  8
1
  6
CONTINUOUS
 10
106.221303
 20
59.999435
 40
0.220000
  1
63
  7
TQS_CALIBRI
  0
TEXT
  8
1
  6
CONTINUOUS
 10
88.513174
 20
59.499434
 40
0.220000
  1
C24
  7
TQS_CALIBRI
  0
TEXT
  8
1
  6
CONTINUOUS
 10
90.866655
 20
59.499434
 40
0.220000
  1
   "
  7
TQS_CALIBRI
  0
TEXT
  8
1
  6
CONTINUOUS
 10
93.081052
 20
59.499434
 40
0.220000
  1
1
  7
TQS_CALIBRI
  0
TEXT
  8
1
  6
CONTINUOUS
 10
95.317635
 20
59.499434
 40
0.220000
  1
8.2
  7
TQS_CALIBRI
  0
TEXT
  8
1
  6
CONTINUOUS
 10
98.594468
 20
59.499434
 40
0.220000
  1
32.9
  7
TQS_CALIBRI
  0
TEXT
  8
1
  6
CONTINUOUS
 10
101.572440
 20
59.499434
 40
0.220000
  1
4
  7
TQS_CALIBRI
  0
TEXT
  8
1
  6
CONTINUOUS
 10
102.617256
 20
59.499434
 40
0.220000
  1
4
  7
TQS_CALIBRI
  0
TEXT
  8
1
  6
CONTINUOUS
 10
104.654079
 20
59.499434
 40
0.220000
  1
0
  7
TQS_CALIBRI
  0
TEXT
  8
1
  6
CONTINUOUS
 10
106.221303
 20
59.499434
 40
0.220000
  1
51
  7
TQS_CALIBRI
  0
TEXT
  8
1
  6
CONTINUOUS
 10
88.513174
 20
58.999433
 40
0.220000
  1
C25
  7
TQS_CALIBRI
  0
TEXT
  8
1
  6
CONTINUOUS
 10
90.866655
 20
58.999433
 40
0.220000
  1
   "
  7
TQS_CALIBRI
  0
TEXT
  8
1
  6
CONTINUOUS
 10
93.081052
 20
58.999433
 40
0.220000
  1
1
  7
TQS_CALIBRI
  0
TEXT
  8
1
  6
CONTINUOUS
 10
95.317635
 20
58.999433
 40
0.220000
  1
9.9
  7
TQS_CALIBRI
  0
TEXT
  8
1
  6
CONTINUOUS
 10
98.594468
 20
58.999433
 40
0.220000
  1
39.5
  7
TQS_CALIBRI
  0
TEXT
  8
1
  6
CONTINUOUS
 10
101.572440
 20
58.999433
 40
0.220000
  1
4
  7
TQS_CALIBRI
  0
TEXT
  8
1
  6
CONTINUOUS
 10
102.617256
 20
58.999433
 40
0.220000
  1
4
  7
TQS_CALIBRI
  0
TEXT
  8
1
  6
CONTINUOUS
 10
104.654079
 20
58.999433
 40
0.220000
  1
0
  7
TQS_CALIBRI
  0
TEXT
  8
1
  6
CONTINUOUS
 10
106.221303
 20
58.999433
 40
0.220000
  1
63
  7
TQS_CALIBRI
  0
TEXT
  8
1
  6
CONTINUOUS
 10
88.513174
 20
58.499432
 40
0.220000
  1
C26
  7
TQS_CALIBRI
  0
TEXT
  8
1
  6
CONTINUOUS
 10
90.866655
 20
58.499432
 40
0.220000
  1
   "
  7
TQS_CALIBRI
  0
TEXT
  8
1
  6
CONTINUOUS
 10
93.081052
 20
58.499432
 40
0.220000
  1
1
  7
TQS_CALIBRI
  0
TEXT
  8
1
  6
CONTINUOUS
 10
95.317635
 20
58.499432
 40
0.220000
  1
8.2
  7
TQS_CALIBRI
  0
TEXT
  8
1
  6
CONTINUOUS
 10
98.594468
 20
58.499432
 40
0.220000
  1
32.9
  7
TQS_CALIBRI
  0
TEXT
  8
1
  6
CONTINUOUS
 10
101.572440
 20
58.499432
 40
0.220000
  1
4
  7
TQS_CALIBRI
  0
TEXT
  8
1
  6
CONTINUOUS
 10
102.617256
 20
58.499432
 40
0.220000
  1
4
  7
TQS_CALIBRI
  0
TEXT
  8
1
  6
CONTINUOUS
 10
104.654079
 20
58.499432
 40
0.220000
  1
0
  7
TQS_CALIBRI
  0
TEXT
  8
1
  6
CONTINUOUS
 10
106.221303
 20
58.499432
 40
0.220000
  1
51
  7
TQS_CALIBRI
  0
TEXT
  8
1
  6
CONTINUOUS
 10
88.513174
 20
57.999432
 40
0.220000
  1
C27
  7
TQS_CALIBRI
  0
TEXT
  8
1
  6
CONTINUOUS
 10
90.866655
 20
57.999432
 40
0.220000
  1
   "
  7
TQS_CALIBRI
  0
TEXT
  8
1
  6
CONTINUOUS
 10
93.081052
 20
57.999432
 40
0.220000
  1
1
  7
TQS_CALIBRI
  0
TEXT
  8
1
  6
CONTINUOUS
 10
95.317635
 20
57.999432
 40
0.220000
  1
9.9
  7
TQS_CALIBRI
  0
TEXT
  8
1
  6
CONTINUOUS
 10
98.594468
 20
57.999432
 40
0.220000
  1
39.5
  7
TQS_CALIBRI
  0
TEXT
  8
1
  6
CONTINUOUS
 10
101.572440
 20
57.999432
 40
0.220000
  1
4
  7
TQS_CALIBRI
  0
TEXT
  8
1
  6
CONTINUOUS
 10
102.617256
 20
57.999432
 40
0.220000
  1
4
  7
TQS_CALIBRI
  0
TEXT
  8
1
  6
CONTINUOUS
 10
104.654079
 20
57.999432
 40
0.220000
  1
0
  7
TQS_CALIBRI
  0
TEXT
  8
1
  6
CONTINUOUS
 10
106.221303
 20
57.999432
 40
0.220000
  1
63
  7
TQS_CALIBRI
  0
TEXT
  8
1
  6
CONTINUOUS
 10
88.513174
 20
57.499431
 40
0.220000
  1
C28
  7
TQS_CALIBRI
  0
TEXT
  8
1
  6
CONTINUOUS
 10
90.866655
 20
57.499431
 40
0.220000
  1
   "
  7
TQS_CALIBRI
  0
TEXT
  8
1
  6
CONTINUOUS
 10
93.081052
 20
57.499431
 40
0.220000
  1
1
  7
TQS_CALIBRI
  0
TEXT
  8
1
  6
CONTINUOUS
 10
95.317635
 20
57.499431
 40
0.220000
  1
9.6
  7
TQS_CALIBRI
  0
TEXT
  8
1
  6
CONTINUOUS
 10
98.594468
 20
57.499431
 40
0.220000
  1
38.5
  7
TQS_CALIBRI
  0
TEXT
  8
1
  6
CONTINUOUS
 10
101.572440
 20
57.499431
 40
0.220000
  1
4
  7
TQS_CALIBRI
  0
TEXT
  8
1
  6
CONTINUOUS
 10
102.617256
 20
57.499431
 40
0.220000
  1
4
  7
TQS_CALIBRI
  0
TEXT
  8
1
  6
CONTINUOUS
 10
104.654079
 20
57.499431
 40
0.220000
  1
0
  7
TQS_CALIBRI
  0
TEXT
  8
1
  6
CONTINUOUS
 10
106.221303
 20
57.499431
 40
0.220000
  1
61
  7
TQS_CALIBRI
  0
TEXT
  8
1
  6
CONTINUOUS
 10
88.513174
 20
56.999430
 40
0.220000
  1
C29
  7
TQS_CALIBRI
  0
TEXT
  8
1
  6
CONTINUOUS
 10
90.866655
 20
56.999430
 40
0.220000
  1
   "
  7
TQS_CALIBRI
  0
TEXT
  8
1
  6
CONTINUOUS
 10
93.081052
 20
56.999430
 40
0.220000
  1
1
  7
TQS_CALIBRI
  0
TEXT
  8
1
  6
CONTINUOUS
 10
95.317635
 20
56.999430
 40
0.220000
  1
8.2
  7
TQS_CALIBRI
  0
TEXT
  8
1
  6
CONTINUOUS
 10
98.594468
 20
56.999430
 40
0.220000
  1
32.9
  7
TQS_CALIBRI
  0
TEXT
  8
1
  6
CONTINUOUS
 10
101.572440
 20
56.999430
 40
0.220000
  1
4
  7
TQS_CALIBRI
  0
TEXT
  8
1
  6
CONTINUOUS
 10
102.617256
 20
56.999430
 40
0.220000
  1
4
  7
TQS_CALIBRI
  0
TEXT
  8
1
  6
CONTINUOUS
 10
104.654079
 20
56.999430
 40
0.220000
  1
0
  7
TQS_CALIBRI
  0
TEXT
  8
1
  6
CONTINUOUS
 10
106.221303
 20
56.999430
 40
0.220000
  1
51
  7
TQS_CALIBRI
  0
TEXT
  8
1
  6
CONTINUOUS
 10
88.513174
 20
56.499429
 40
0.220000
  1
C30
  7
TQS_CALIBRI
  0
TEXT
  8
1
  6
CONTINUOUS
 10
90.866655
 20
56.499429
 40
0.220000
  1
   "
  7
TQS_CALIBRI
  0
TEXT
  8
1
  6
CONTINUOUS
 10
93.081052
 20
56.499429
 40
0.220000
  1
1
  7
TQS_CALIBRI
  0
TEXT
  8
1
  6
CONTINUOUS
 10
95.317635
 20
56.499429
 40
0.220000
  1
9.6
  7
TQS_CALIBRI
  0
TEXT
  8
1
  6
CONTINUOUS
 10
98.594468
 20
56.499429
 40
0.220000
  1
38.5
  7
TQS_CALIBRI
  0
TEXT
  8
1
  6
CONTINUOUS
 10
101.572440
 20
56.499429
 40
0.220000
  1
4
  7
TQS_CALIBRI
  0
TEXT
  8
1
  6
CONTINUOUS
 10
102.617256
 20
56.499429
 40
0.220000
  1
4
  7
TQS_CALIBRI
  0
TEXT
  8
1
  6
CONTINUOUS
 10
104.654079
 20
56.499430
 40
0.220000
  1
0
  7
TQS_CALIBRI
  0
TEXT
  8
1
  6
CONTINUOUS
 10
106.221303
 20
56.499430
 40
0.220000
  1
61
  7
TQS_CALIBRI
  0
TEXT
  8
1
  6
CONTINUOUS
 10
88.513174
 20
55.999429
 40
0.220000
  1
C31
  7
TQS_CALIBRI
  0
TEXT
  8
1
  6
CONTINUOUS
 10
90.866655
 20
55.999429
 40
0.220000
  1
   "
  7
TQS_CALIBRI
  0
TEXT
  8
1
  6
CONTINUOUS
 10
93.081052
 20
55.999429
 40
0.220000
  1
1
  7
TQS_CALIBRI
  0
TEXT
  8
1
  6
CONTINUOUS
 10
95.317635
 20
55.999429
 40
0.220000
  1
8.2
  7
TQS_CALIBRI
  0
TEXT
  8
1
  6
CONTINUOUS
 10
98.594468
 20
55.999429
 40
0.220000
  1
32.9
  7
TQS_CALIBRI
  0
TEXT
  8
1
  6
CONTINUOUS
 10
101.572440
 20
55.999429
 40
0.220000
  1
4
  7
TQS_CALIBRI
  0
TEXT
  8
1
  6
CONTINUOUS
 10
102.617256
 20
55.999429
 40
0.220000
  1
4
  7
TQS_CALIBRI
  0
TEXT
  8
1
  6
CONTINUOUS
 10
104.654079
 20
55.999429
 40
0.220000
  1
0
  7
TQS_CALIBRI
  0
TEXT
  8
1
  6
CONTINUOUS
 10
106.221303
 20
55.999429
 40
0.220000
  1
51
  7
TQS_CALIBRI
  0
TEXT
  8
1
  6
CONTINUOUS
 10
88.513174
 20
55.499428
 40
0.220000
  1
C32
  7
TQS_CALIBRI
  0
TEXT
  8
1
  6
CONTINUOUS
 10
90.866655
 20
55.499428
 40
0.220000
  1
   "
  7
TQS_CALIBRI
  0
TEXT
  8
1
  6
CONTINUOUS
 10
93.081052
 20
55.499428
 40
0.220000
  1
1
  7
TQS_CALIBRI
  0
TEXT
  8
1
  6
CONTINUOUS
 10
95.317635
 20
55.499428
 40
0.220000
  1
9.6
  7
TQS_CALIBRI
  0
TEXT
  8
1
  6
CONTINUOUS
 10
98.594468
 20
55.499428
 40
0.220000
  1
38.5
  7
TQS_CALIBRI
  0
TEXT
  8
1
  6
CONTINUOUS
 10
101.572440
 20
55.499428
 40
0.220000
  1
4
  7
TQS_CALIBRI
  0
TEXT
  8
1
  6
CONTINUOUS
 10
102.617256
 20
55.499428
 40
0.220000
  1
4
  7
TQS_CALIBRI
  0
TEXT
  8
1
  6
CONTINUOUS
 10
104.654079
 20
55.499428
 40
0.220000
  1
0
  7
TQS_CALIBRI
  0
TEXT
  8
1
  6
CONTINUOUS
 10
106.221303
 20
55.499428
 40
0.220000
  1
61
  7
TQS_CALIBRI
  0
TEXT
  8
1
  6
CONTINUOUS
 10
88.513174
 20
54.999427
 40
0.220000
  1
C33
  7
TQS_CALIBRI
  0
TEXT
  8
1
  6
CONTINUOUS
 10
90.866655
 20
54.999427
 40
0.220000
  1
   "
  7
TQS_CALIBRI
  0
TEXT
  8
1
  6
CONTINUOUS
 10
93.081052
 20
54.999427
 40
0.220000
  1
1
  7
TQS_CALIBRI
  0
TEXT
  8
1
  6
CONTINUOUS
 10
95.317635
 20
54.999427
 40
0.220000
  1
8.2
  7
TQS_CALIBRI
  0
TEXT
  8
1
  6
CONTINUOUS
 10
98.594468
 20
54.999427
 40
0.220000
  1
32.9
  7
TQS_CALIBRI
  0
TEXT
  8
1
  6
CONTINUOUS
 10
101.572440
 20
54.999427
 40
0.220000
  1
4
  7
TQS_CALIBRI
  0
TEXT
  8
1
  6
CONTINUOUS
 10
102.617256
 20
54.999427
 40
0.220000
  1
4
  7
TQS_CALIBRI
  0
TEXT
  8
1
  6
CONTINUOUS
 10
104.654079
 20
54.999427
 40
0.220000
  1
0
  7
TQS_CALIBRI
  0
TEXT
  8
1
  6
CONTINUOUS
 10
106.221303
 20
54.999427
 40
0.220000
  1
51
  7
TQS_CALIBRI
  0
TEXT
  8
1
  6
CONTINUOUS
 10
88.513174
 20
54.499427
 40
0.220000
  1
C34
  7
TQS_CALIBRI
  0
TEXT
  8
1
  6
CONTINUOUS
 10
90.866655
 20
54.499427
 40
0.220000
  1
   "
  7
TQS_CALIBRI
  0
TEXT
  8
1
  6
CONTINUOUS
 10
93.081052
 20
54.499427
 40
0.220000
  1
1
  7
TQS_CALIBRI
  0
TEXT
  8
1
  6
CONTINUOUS
 10
95.317635
 20
54.499427
 40
0.220000
  1
9.6
  7
TQS_CALIBRI
  0
TEXT
  8
1
  6
CONTINUOUS
 10
98.594468
 20
54.499427
 40
0.220000
  1
38.5
  7
TQS_CALIBRI
  0
TEXT
  8
1
  6
CONTINUOUS
 10
101.572440
 20
54.499427
 40
0.220000
  1
4
  7
TQS_CALIBRI
  0
TEXT
  8
1
  6
CONTINUOUS
 10
102.617256
 20
54.499427
 40
0.220000
  1
4
  7
TQS_CALIBRI
  0
TEXT
  8
1
  6
CONTINUOUS
 10
104.654079
 20
54.499427
 40
0.220000
  1
0
  7
TQS_CALIBRI
  0
TEXT
  8
1
  6
CONTINUOUS
 10
106.221303
 20
54.499427
 40
0.220000
  1
61
  7
TQS_CALIBRI
  0
TEXT
  8
1
  6
CONTINUOUS
 10
88.513174
 20
53.999426
 40
0.220000
  1
C35
  7
TQS_CALIBRI
  0
TEXT
  8
1
  6
CONTINUOUS
 10
90.866655
 20
53.999426
 40
0.220000
  1
   "
  7
TQS_CALIBRI
  0
TEXT
  8
1
  6
CONTINUOUS
 10
93.081052
 20
53.999426
 40
0.220000
  1
1
  7
TQS_CALIBRI
  0
TEXT
  8
1
  6
CONTINUOUS
 10
95.317635
 20
53.999426
 40
0.220000
  1
9.4
  7
TQS_CALIBRI
  0
TEXT
  8
1
  6
CONTINUOUS
 10
98.594468
 20
53.999426
 40
0.220000
  1
37.4
  7
TQS_CALIBRI
  0
TEXT
  8
1
  6
CONTINUOUS
 10
101.572440
 20
53.999426
 40
0.220000
  1
4
  7
TQS_CALIBRI
  0
TEXT
  8
1
  6
CONTINUOUS
 10
102.617256
 20
53.999426
 40
0.220000
  1
4
  7
TQS_CALIBRI
  0
TEXT
  8
1
  6
CONTINUOUS
 10
104.654079
 20
53.999426
 40
0.220000
  1
0
  7
TQS_CALIBRI
  0
TEXT
  8
1
  6
CONTINUOUS
 10
106.221303
 20
53.999426
 40
0.220000
  1
59
  7
TQS_CALIBRI
  0
TEXT
  8
1
  6
CONTINUOUS
 10
88.513174
 20
53.499425
 40
0.220000
  1
C36
  7
TQS_CALIBRI
  0
TEXT
  8
1
  6
CONTINUOUS
 10
90.866655
 20
53.499425
 40
0.220000
  1
   "
  7
TQS_CALIBRI
  0
TEXT
  8
1
  6
CONTINUOUS
 10
93.081052
 20
53.499425
 40
0.220000
  1
1
  7
TQS_CALIBRI
  0
TEXT
  8
1
  6
CONTINUOUS
 10
95.317635
 20
53.499425
 40
0.220000
  1
8.2
  7
TQS_CALIBRI
  0
TEXT
  8
1
  6
CONTINUOUS
 10
98.594468
 20
53.499425
 40
0.220000
  1
32.9
  7
TQS_CALIBRI
  0
TEXT
  8
1
  6
CONTINUOUS
 10
101.572440
 20
53.499425
 40
0.220000
  1
4
  7
TQS_CALIBRI
  0
TEXT
  8
1
  6
CONTINUOUS
 10
102.617256
 20
53.499425
 40
0.220000
  1
4
  7
TQS_CALIBRI
  0
TEXT
  8
1
  6
CONTINUOUS
 10
104.654079
 20
53.499425
 40
0.220000
  1
0
  7
TQS_CALIBRI
  0
TEXT
  8
1
  6
CONTINUOUS
 10
106.221303
 20
53.499425
 40
0.220000
  1
51
  7
TQS_CALIBRI
  0
TEXT
  8
1
  6
CONTINUOUS
 10
88.513174
 20
52.999424
 40
0.220000
  1
C37
  7
TQS_CALIBRI
  0
TEXT
  8
1
  6
CONTINUOUS
 10
90.866655
 20
52.999424
 40
0.220000
  1
   "
  7
TQS_CALIBRI
  0
TEXT
  8
1
  6
CONTINUOUS
 10
93.081052
 20
52.999424
 40
0.220000
  1
1
  7
TQS_CALIBRI
  0
TEXT
  8
1
  6
CONTINUOUS
 10
95.317635
 20
52.999424
 40
0.220000
  1
9.4
  7
TQS_CALIBRI
  0
TEXT
  8
1
  6
CONTINUOUS
 10
98.594468
 20
52.999424
 40
0.220000
  1
37.4
  7
TQS_CALIBRI
  0
TEXT
  8
1
  6
CONTINUOUS
 10
101.572440
 20
52.999424
 40
0.220000
  1
4
  7
TQS_CALIBRI
  0
TEXT
  8
1
  6
CONTINUOUS
 10
102.617256
 20
52.999424
 40
0.220000
  1
4
  7
TQS_CALIBRI
  0
TEXT
  8
1
  6
CONTINUOUS
 10
104.654079
 20
52.999425
 40
0.220000
  1
0
  7
TQS_CALIBRI
  0
TEXT
  8
1
  6
CONTINUOUS
 10
106.221303
 20
52.999425
 40
0.220000
  1
59
  7
TQS_CALIBRI
  0
TEXT
  8
1
  6
CONTINUOUS
 10
88.513174
 20
52.499424
 40
0.220000
  1
C38
  7
TQS_CALIBRI
  0
TEXT
  8
1
  6
CONTINUOUS
 10
90.866655
 20
52.499424
 40
0.220000
  1
   "
  7
TQS_CALIBRI
  0
TEXT
  8
1
  6
CONTINUOUS
 10
93.081052
 20
52.499424
 40
0.220000
  1
1
  7
TQS_CALIBRI
  0
TEXT
  8
1
  6
CONTINUOUS
 10
95.317635
 20
52.499424
 40
0.220000
  1
8.2
  7
TQS_CALIBRI
  0
TEXT
  8
1
  6
CONTINUOUS
 10
98.594468
 20
52.499424
 40
0.220000
  1
32.9
  7
TQS_CALIBRI
  0
TEXT
  8
1
  6
CONTINUOUS
 10
101.572440
 20
52.499424
 40
0.220000
  1
4
  7
TQS_CALIBRI
  0
TEXT
  8
1
  6
CONTINUOUS
 10
102.617256
 20
52.499424
 40
0.220000
  1
4
  7
TQS_CALIBRI
  0
TEXT
  8
1
  6
CONTINUOUS
 10
104.654079
 20
52.499424
 40
0.220000
  1
0
  7
TQS_CALIBRI
  0
TEXT
  8
1
  6
CONTINUOUS
 10
106.221303
 20
52.499424
 40
0.220000
  1
51
  7
TQS_CALIBRI
  0
TEXT
  8
1
  6
CONTINUOUS
 10
88.513174
 20
51.999423
 40
0.220000
  1
C39
  7
TQS_CALIBRI
  0
TEXT
  8
1
  6
CONTINUOUS
 10
90.866655
 20
51.999423
 40
0.220000
  1
   "
  7
TQS_CALIBRI
  0
TEXT
  8
1
  6
CONTINUOUS
 10
93.081052
 20
51.999423
 40
0.220000
  1
1
  7
TQS_CALIBRI
  0
TEXT
  8
1
  6
CONTINUOUS
 10
95.317635
 20
51.999423
 40
0.220000
  1
9.4
  7
TQS_CALIBRI
  0
TEXT
  8
1
  6
CONTINUOUS
 10
98.594468
 20
51.999423
 40
0.220000
  1
37.4
  7
TQS_CALIBRI
  0
TEXT
  8
1
  6
CONTINUOUS
 10
101.572440
 20
51.999423
 40
0.220000
  1
4
  7
TQS_CALIBRI
  0
TEXT
  8
1
  6
CONTINUOUS
 10
102.617256
 20
51.999423
 40
0.220000
  1
4
  7
TQS_CALIBRI
  0
TEXT
  8
1
  6
CONTINUOUS
 10
104.654079
 20
51.999423
 40
0.220000
  1
0
  7
TQS_CALIBRI
  0
TEXT
  8
1
  6
CONTINUOUS
 10
106.221303
 20
51.999423
 40
0.220000
  1
59
  7
TQS_CALIBRI
  0
TEXT
  8
1
  6
CONTINUOUS
 10
88.513174
 20
51.499422
 40
0.220000
  1
C40
  7
TQS_CALIBRI
  0
TEXT
  8
1
  6
CONTINUOUS
 10
90.866655
 20
51.499422
 40
0.220000
  1
   "
  7
TQS_CALIBRI
  0
TEXT
  8
1
  6
CONTINUOUS
 10
93.081052
 20
51.499422
 40
0.220000
  1
1
  7
TQS_CALIBRI
  0
TEXT
  8
1
  6
CONTINUOUS
 10
95.317635
 20
51.499422
 40
0.220000
  1
8.2
  7
TQS_CALIBRI
  0
TEXT
  8
1
  6
CONTINUOUS
 10
98.594468
 20
51.499422
 40
0.220000
  1
32.9
  7
TQS_CALIBRI
  0
TEXT
  8
1
  6
CONTINUOUS
 10
101.572440
 20
51.499422
 40
0.220000
  1
4
  7
TQS_CALIBRI
  0
TEXT
  8
1
  6
CONTINUOUS
 10
102.617256
 20
51.499422
 40
0.220000
  1
4
  7
TQS_CALIBRI
  0
TEXT
  8
1
  6
CONTINUOUS
 10
104.654079
 20
51.499422
 40
0.220000
  1
0
  7
TQS_CALIBRI
  0
TEXT
  8
1
  6
CONTINUOUS
 10
106.221303
 20
51.499422
 40
0.220000
  1
51
  7
TQS_CALIBRI
  0
TEXT
  8
1
  6
CONTINUOUS
 10
88.513174
 20
50.999422
 40
0.220000
  1
C41
  7
TQS_CALIBRI
  0
TEXT
  8
1
  6
CONTINUOUS
 10
90.866655
 20
50.999422
 40
0.220000
  1
   "
  7
TQS_CALIBRI
  0
TEXT
  8
1
  6
CONTINUOUS
 10
93.081052
 20
50.999422
 40
0.220000
  1
1
  7
TQS_CALIBRI
  0
TEXT
  8
1
  6
CONTINUOUS
 10
95.317635
 20
50.999422
 40
0.220000
  1
9.4
  7
TQS_CALIBRI
  0
TEXT
  8
1
  6
CONTINUOUS
 10
98.594468
 20
50.999422
 40
0.220000
  1
37.4
  7
TQS_CALIBRI
  0
TEXT
  8
1
  6
CONTINUOUS
 10
101.572440
 20
50.999422
 40
0.220000
  1
4
  7
TQS_CALIBRI
  0
TEXT
  8
1
  6
CONTINUOUS
 10
102.617256
 20
50.999422
 40
0.220000
  1
4
  7
TQS_CALIBRI
  0
TEXT
  8
1
  6
CONTINUOUS
 10
104.654079
 20
50.999422
 40
0.220000
  1
0
  7
TQS_CALIBRI
  0
TEXT
  8
1
  6
CONTINUOUS
 10
106.221303
 20
50.999422
 40
0.220000
  1
59
  7
TQS_CALIBRI
  0
TEXT
  8
1
  6
CONTINUOUS
 10
88.513174
 20
50.499421
 40
0.220000
  1
C42
  7
TQS_CALIBRI
  0
TEXT
  8
1
  6
CONTINUOUS
 10
90.866655
 20
50.499421
 40
0.220000
  1
3 %%c 12.7
  7
TQS_CALIBRI
  0
TEXT
  8
1
  6
CONTINUOUS
 10
93.081052
 20
50.499421
 40
0.220000
  1
1
  7
TQS_CALIBRI
  0
TEXT
  8
1
  6
CONTINUOUS
 10
95.317635
 20
50.499421
 40
0.220000
  1
9.1
  7
TQS_CALIBRI
  0
TEXT
  8
1
  6
CONTINUOUS
 10
98.594468
 20
50.499421
 40
0.220000
  1
27.3
  7
TQS_CALIBRI
  0
TEXT
  8
1
  6
CONTINUOUS
 10
101.572440
 20
50.499421
 40
0.220000
  1
3
  7
TQS_CALIBRI
  0
TEXT
  8
1
  6
CONTINUOUS
 10
102.617256
 20
50.499421
 40
0.220000
  1
3
  7
TQS_CALIBRI
  0
TEXT
  8
1
  6
CONTINUOUS
 10
104.654079
 20
50.499421
 40
0.220000
  1
0
  7
TQS_CALIBRI
  0
TEXT
  8
1
  6
CONTINUOUS
 10
106.221303
 20
50.499421
 40
0.220000
  1
57
  7
TQS_CALIBRI
  0
TEXT
  8
1
  6
CONTINUOUS
 10
88.513174
 20
49.999420
 40
0.220000
  1
C43
  7
TQS_CALIBRI
  0
TEXT
  8
1
  6
CONTINUOUS
 10
90.866655
 20
49.999420
 40
0.220000
  1
   "
  7
TQS_CALIBRI
  0
TEXT
  8
1
  6
CONTINUOUS
 10
93.081052
 20
49.999420
 40
0.220000
  1
1
  7
TQS_CALIBRI
  0
TEXT
  8
1
  6
CONTINUOUS
 10
95.317635
 20
49.999420
 40
0.220000
  1
8.2
  7
TQS_CALIBRI
  0
TEXT
  8
1
  6
CONTINUOUS
 10
98.594468
 20
49.999420
 40
0.220000
  1
24.7
  7
TQS_CALIBRI
  0
TEXT
  8
1
  6
CONTINUOUS
 10
101.572440
 20
49.999420
 40
0.220000
  1
3
  7
TQS_CALIBRI
  0
TEXT
  8
1
  6
CONTINUOUS
 10
102.617256
 20
49.999420
 40
0.220000
  1
3
  7
TQS_CALIBRI
  0
TEXT
  8
1
  6
CONTINUOUS
 10
104.654079
 20
49.999420
 40
0.220000
  1
0
  7
TQS_CALIBRI
  0
TEXT
  8
1
  6
CONTINUOUS
 10
106.221303
 20
49.999420
 40
0.220000
  1
51
  7
TQS_CALIBRI
  0
TEXT
  8
1
  6
CONTINUOUS
 10
88.513174
 20
49.499419
 40
0.220000
  1
C44
  7
TQS_CALIBRI
  0
TEXT
  8
1
  6
CONTINUOUS
 10
90.866655
 20
49.499419
 40
0.220000
  1
   "
  7
TQS_CALIBRI
  0
TEXT
  8
1
  6
CONTINUOUS
 10
93.081052
 20
49.499419
 40
0.220000
  1
1
  7
TQS_CALIBRI
  0
TEXT
  8
1
  6
CONTINUOUS
 10
95.317635
 20
49.499419
 40
0.220000
  1
9.1
  7
TQS_CALIBRI
  0
TEXT
  8
1
  6
CONTINUOUS
 10
98.594468
 20
49.499419
 40
0.220000
  1
27.3
  7
TQS_CALIBRI
  0
TEXT
  8
1
  6
CONTINUOUS
 10
101.572440
 20
49.499419
 40
0.220000
  1
3
  7
TQS_CALIBRI
  0
TEXT
  8
1
  6
CONTINUOUS
 10
102.617256
 20
49.499419
 40
0.220000
  1
3
  7
TQS_CALIBRI
  0
TEXT
  8
1
  6
CONTINUOUS
 10
104.654079
 20
49.499420
 40
0.220000
  1
0
  7
TQS_CALIBRI
  0
TEXT
  8
1
  6
CONTINUOUS
 10
106.221303
 20
49.499420
 40
0.220000
  1
57
  7
TQS_CALIBRI
  0
TEXT
  8
1
  6
CONTINUOUS
 10
88.513174
 20
48.999419
 40
0.220000
  1
C45
  7
TQS_CALIBRI
  0
TEXT
  8
1
  6
CONTINUOUS
 10
90.866655
 20
48.999419
 40
0.220000
  1
   "
  7
TQS_CALIBRI
  0
TEXT
  8
1
  6
CONTINUOUS
 10
93.081052
 20
48.999419
 40
0.220000
  1
1
  7
TQS_CALIBRI
  0
TEXT
  8
1
  6
CONTINUOUS
 10
95.317635
 20
48.999419
 40
0.220000
  1
8.2
  7
TQS_CALIBRI
  0
TEXT
  8
1
  6
CONTINUOUS
 10
98.594468
 20
48.999419
 40
0.220000
  1
24.7
  7
TQS_CALIBRI
  0
TEXT
  8
1
  6
CONTINUOUS
 10
101.572440
 20
48.999419
 40
0.220000
  1
3
  7
TQS_CALIBRI
  0
TEXT
  8
1
  6
CONTINUOUS
 10
102.617256
 20
48.999419
 40
0.220000
  1
3
  7
TQS_CALIBRI
  0
TEXT
  8
1
  6
CONTINUOUS
 10
104.654079
 20
48.999419
 40
0.220000
  1
0
  7
TQS_CALIBRI
  0
TEXT
  8
1
  6
CONTINUOUS
 10
106.221303
 20
48.999419
 40
0.220000
  1
51
  7
TQS_CALIBRI
  0
TEXT
  8
1
  6
CONTINUOUS
 10
88.513174
 20
48.499418
 40
0.220000
  1
C46 A C47
  7
TQS_CALIBRI
  0
TEXT
  8
1
  6
CONTINUOUS
 10
90.866655
 20
48.499418
 40
0.220000
  1
   "
  7
TQS_CALIBRI
  0
TEXT
  8
1
  6
CONTINUOUS
 10
93.081052
 20
48.499418
 40
0.220000
  1
2
  7
TQS_CALIBRI
  0
TEXT
  8
1
  6
CONTINUOUS
 10
95.317635
 20
48.499418
 40
0.220000
  1
9.1
  7
TQS_CALIBRI
  0
TEXT
  8
1
  6
CONTINUOUS
 10
98.594468
 20
48.499418
 40
0.220000
  1
54.6
  7
TQS_CALIBRI
  0
TEXT
  8
1
  6
CONTINUOUS
 10
101.572440
 20
48.499418
 40
0.220000
  1
6
  7
TQS_CALIBRI
  0
TEXT
  8
1
  6
CONTINUOUS
 10
102.617256
 20
48.499418
 40
0.220000
  1
6
  7
TQS_CALIBRI
  0
TEXT
  8
1
  6
CONTINUOUS
 10
104.654079
 20
48.499418
 40
0.220000
  1
0
  7
TQS_CALIBRI
  0
TEXT
  8
1
  6
CONTINUOUS
 10
106.221303
 20
48.499418
 40
0.220000
  1
57
  7
TQS_CALIBRI
  0
TEXT
  8
1
  6
CONTINUOUS
 10
88.513174
 20
47.999417
 40
0.220000
  1
C48
  7
TQS_CALIBRI
  0
TEXT
  8
1
  6
CONTINUOUS
 10
90.866655
 20
47.999417
 40
0.220000
  1
   "
  7
TQS_CALIBRI
  0
TEXT
  8
1
  6
CONTINUOUS
 10
93.081052
 20
47.999417
 40
0.220000
  1
1
  7
TQS_CALIBRI
  0
TEXT
  8
1
  6
CONTINUOUS
 10
95.317635
 20
47.999417
 40
0.220000
  1
8.2
  7
TQS_CALIBRI
  0
TEXT
  8
1
  6
CONTINUOUS
 10
98.594468
 20
47.999417
 40
0.220000
  1
24.7
  7
TQS_CALIBRI
  0
TEXT
  8
1
  6
CONTINUOUS
 10
101.572440
 20
47.999417
 40
0.220000
  1
3
  7
TQS_CALIBRI
  0
TEXT
  8
1
  6
CONTINUOUS
 10
102.617256
 20
47.999417
 40
0.220000
  1
3
  7
TQS_CALIBRI
  0
TEXT
  8
1
  6
CONTINUOUS
 10
104.654079
 20
47.999417
 40
0.220000
  1
0
  7
TQS_CALIBRI
  0
TEXT
  8
1
  6
CONTINUOUS
 10
106.221303
 20
47.999417
 40
0.220000
  1
51
  7
TQS_CALIBRI
  0
TEXT
  8
1
  6
CONTINUOUS
 10
88.513174
 20
47.499417
 40
0.220000
  1
C49
  7
TQS_CALIBRI
  0
TEXT
  8
1
  6
CONTINUOUS
 10
90.866655
 20
47.499417
 40
0.220000
  1
   "
  7
TQS_CALIBRI
  0
TEXT
  8
1
  6
CONTINUOUS
 10
93.081052
 20
47.499417
 40
0.220000
  1
1
  7
TQS_CALIBRI
  0
TEXT
  8
1
  6
CONTINUOUS
 10
95.317635
 20
47.499417
 40
0.220000
  1
9.1
  7
TQS_CALIBRI
  0
TEXT
  8
1
  6
CONTINUOUS
 10
98.594468
 20
47.499417
 40
0.220000
  1
27.3
  7
TQS_CALIBRI
  0
TEXT
  8
1
  6
CONTINUOUS
 10
101.572440
 20
47.499417
 40
0.220000
  1
3
  7
TQS_CALIBRI
  0
TEXT
  8
1
  6
CONTINUOUS
 10
102.617256
 20
47.499417
 40
0.220000
  1
3
  7
TQS_CALIBRI
  0
TEXT
  8
1
  6
CONTINUOUS
 10
104.654079
 20
47.499417
 40
0.220000
  1
0
  7
TQS_CALIBRI
  0
TEXT
  8
1
  6
CONTINUOUS
 10
106.221303
 20
47.499417
 40
0.220000
  1
57
  7
TQS_CALIBRI
  0
TEXT
  8
1
  6
CONTINUOUS
 10
88.513174
 20
46.999416
 40
0.220000
  1
C50
  7
TQS_CALIBRI
  0
TEXT
  8
1
  6
CONTINUOUS
 10
90.866655
 20
46.999416
 40
0.220000
  1
2 %%c 12.7
  7
TQS_CALIBRI
  0
TEXT
  8
1
  6
CONTINUOUS
 10
93.081052
 20
46.999416
 40
0.220000
  1
1
  7
TQS_CALIBRI
  0
TEXT
  8
1
  6
CONTINUOUS
 10
95.317635
 20
46.999416
 40
0.220000
  1
8.2
  7
TQS_CALIBRI
  0
TEXT
  8
1
  6
CONTINUOUS
 10
98.594468
 20
46.999416
 40
0.220000
  1
16.5
  7
TQS_CALIBRI
  0
TEXT
  8
1
  6
CONTINUOUS
 10
101.572440
 20
46.999416
 40
0.220000
  1
2
  7
TQS_CALIBRI
  0
TEXT
  8
1
  6
CONTINUOUS
 10
102.617256
 20
46.999416
 40
0.220000
  1
2
  7
TQS_CALIBRI
  0
TEXT
  8
1
  6
CONTINUOUS
 10
104.654079
 20
46.999416
 40
0.220000
  1
0
  7
TQS_CALIBRI
  0
TEXT
  8
1
  6
CONTINUOUS
 10
106.221303
 20
46.999416
 40
0.220000
  1
51
  7
TQS_CALIBRI
  0
TEXT
  8
1
  6
CONTINUOUS
 10
88.513174
 20
46.499415
 40
0.220000
  1
C51
  7
TQS_CALIBRI
  0
TEXT
  8
1
  6
CONTINUOUS
 10
90.866655
 20
46.499415
 40
0.220000
  1
4 %%c 12.7
  7
TQS_CALIBRI
  0
TEXT
  8
1
  6
CONTINUOUS
 10
93.081052
 20
46.499415
 40
0.220000
  1
1
  7
TQS_CALIBRI
  0
TEXT
  8
1
  6
CONTINUOUS
 10
95.317635
 20
46.499415
 40
0.220000
  1
8.8
  7
TQS_CALIBRI
  0
TEXT
  8
1
  6
CONTINUOUS
 10
98.594468
 20
46.499415
 40
0.220000
  1
35.3
  7
TQS_CALIBRI
  0
TEXT
  8
1
  6
CONTINUOUS
 10
101.572440
 20
46.499415
 40
0.220000
  1
4
  7
TQS_CALIBRI
  0
TEXT
  8
1
  6
CONTINUOUS
 10
102.617256
 20
46.499415
 40
0.220000
  1
4
  7
TQS_CALIBRI
  0
TEXT
  8
1
  6
CONTINUOUS
 10
104.654079
 20
46.499415
 40
0.220000
  1
0
  7
TQS_CALIBRI
  0
TEXT
  8
1
  6
CONTINUOUS
 10
106.221303
 20
46.499415
 40
0.220000
  1
55
  7
TQS_CALIBRI
  0
TEXT
  8
1
  6
CONTINUOUS
 10
88.513174
 20
45.999414
 40
0.220000
  1
C52
  7
TQS_CALIBRI
  0
TEXT
  8
1
  6
CONTINUOUS
 10
90.866655
 20
45.999414
 40
0.220000
  1
2 %%c 12.7
  7
TQS_CALIBRI
  0
TEXT
  8
1
  6
CONTINUOUS
 10
93.081052
 20
45.999414
 40
0.220000
  1
1
  7
TQS_CALIBRI
  0
TEXT
  8
1
  6
CONTINUOUS
 10
95.317635
 20
45.999414
 40
0.220000
  1
8.2
  7
TQS_CALIBRI
  0
TEXT
  8
1
  6
CONTINUOUS
 10
98.594468
 20
45.999414
 40
0.220000
  1
16.5
  7
TQS_CALIBRI
  0
TEXT
  8
1
  6
CONTINUOUS
 10
101.572440
 20
45.999414
 40
0.220000
  1
2
  7
TQS_CALIBRI
  0
TEXT
  8
1
  6
CONTINUOUS
 10
102.617256
 20
45.999414
 40
0.220000
  1
2
  7
TQS_CALIBRI
  0
TEXT
  8
1
  6
CONTINUOUS
 10
104.654079
 20
45.999415
 40
0.220000
  1
0
  7
TQS_CALIBRI
  0
TEXT
  8
1
  6
CONTINUOUS
 10
106.221303
 20
45.999415
 40
0.220000
  1
51
  7
TQS_CALIBRI
  0
TEXT
  8
1
  6
CONTINUOUS
 10
88.513174
 20
45.499414
 40
0.220000
  1
C53
  7
TQS_CALIBRI
  0
TEXT
  8
1
  6
CONTINUOUS
 10
90.866655
 20
45.499414
 40
0.220000
  1
4 %%c 12.7
  7
TQS_CALIBRI
  0
TEXT
  8
1
  6
CONTINUOUS
 10
93.081052
 20
45.499414
 40
0.220000
  1
1
  7
TQS_CALIBRI
  0
TEXT
  8
1
  6
CONTINUOUS
 10
95.317635
 20
45.499414
 40
0.220000
  1
8.8
  7
TQS_CALIBRI
  0
TEXT
  8
1
  6
CONTINUOUS
 10
98.594468
 20
45.499414
 40
0.220000
  1
35.3
  7
TQS_CALIBRI
  0
TEXT
  8
1
  6
CONTINUOUS
 10
101.572440
 20
45.499414
 40
0.220000
  1
4
  7
TQS_CALIBRI
  0
TEXT
  8
1
  6
CONTINUOUS
 10
102.617256
 20
45.499414
 40
0.220000
  1
4
  7
TQS_CALIBRI
  0
TEXT
  8
1
  6
CONTINUOUS
 10
104.654079
 20
45.499414
 40
0.220000
  1
0
  7
TQS_CALIBRI
  0
TEXT
  8
1
  6
CONTINUOUS
 10
106.221303
 20
45.499414
 40
0.220000
  1
55
  7
TQS_CALIBRI
  0
TEXT
  8
1
  6
CONTINUOUS
 10
88.513174
 20
44.999413
 40
0.220000
  1
C54
  7
TQS_CALIBRI
  0
TEXT
  8
1
  6
CONTINUOUS
 10
90.866655
 20
44.999413
 40
0.220000
  1
2 %%c 12.7
  7
TQS_CALIBRI
  0
TEXT
  8
1
  6
CONTINUOUS
 10
93.081052
 20
44.999413
 40
0.220000
  1
1
  7
TQS_CALIBRI
  0
TEXT
  8
1
  6
CONTINUOUS
 10
95.317635
 20
44.999413
 40
0.220000
  1
8.2
  7
TQS_CALIBRI
  0
TEXT
  8
1
  6
CONTINUOUS
 10
98.594468
 20
44.999413
 40
0.220000
  1
16.5
  7
TQS_CALIBRI
  0
TEXT
  8
1
  6
CONTINUOUS
 10
101.572440
 20
44.999413
 40
0.220000
  1
2
  7
TQS_CALIBRI
  0
TEXT
  8
1
  6
CONTINUOUS
 10
102.617256
 20
44.999413
 40
0.220000
  1
2
  7
TQS_CALIBRI
  0
TEXT
  8
1
  6
CONTINUOUS
 10
104.654079
 20
44.999413
 40
0.220000
  1
0
  7
TQS_CALIBRI
  0
TEXT
  8
1
  6
CONTINUOUS
 10
106.221303
 20
44.999413
 40
0.220000
  1
51
  7
TQS_CALIBRI
  0
TEXT
  8
1
  6
CONTINUOUS
 10
88.513174
 20
44.499412
 40
0.220000
  1
C55
  7
TQS_CALIBRI
  0
TEXT
  8
1
  6
CONTINUOUS
 10
90.866655
 20
44.499412
 40
0.220000
  1
4 %%c 12.7
  7
TQS_CALIBRI
  0
TEXT
  8
1
  6
CONTINUOUS
 10
93.081052
 20
44.499412
 40
0.220000
  1
1
  7
TQS_CALIBRI
  0
TEXT
  8
1
  6
CONTINUOUS
 10
95.317635
 20
44.499412
 40
0.220000
  1
8.8
  7
TQS_CALIBRI
  0
TEXT
  8
1
  6
CONTINUOUS
 10
98.594468
 20
44.499412
 40
0.220000
  1
35.3
  7
TQS_CALIBRI
  0
TEXT
  8
1
  6
CONTINUOUS
 10
101.572440
 20
44.499412
 40
0.220000
  1
4
  7
TQS_CALIBRI
  0
TEXT
  8
1
  6
CONTINUOUS
 10
102.617256
 20
44.499412
 40
0.220000
  1
4
  7
TQS_CALIBRI
  0
TEXT
  8
1
  6
CONTINUOUS
 10
104.654079
 20
44.499412
 40
0.220000
  1
0
  7
TQS_CALIBRI
  0
TEXT
  8
1
  6
CONTINUOUS
 10
106.221303
 20
44.499412
 40
0.220000
  1
55
  7
TQS_CALIBRI
  0
TEXT
  8
1
  6
CONTINUOUS
 10
88.513174
 20
43.999412
 40
0.220000
  1
C56
  7
TQS_CALIBRI
  0
TEXT
  8
1
  6
CONTINUOUS
 10
90.866655
 20
43.999412
 40
0.220000
  1
   "
  7
TQS_CALIBRI
  0
TEXT
  8
1
  6
CONTINUOUS
 10
93.081052
 20
43.999412
 40
0.220000
  1
1
  7
TQS_CALIBRI
  0
TEXT
  8
1
  6
CONTINUOUS
 10
95.317635
 20
43.999412
 40
0.220000
  1
8.6
  7
TQS_CALIBRI
  0
TEXT
  8
1
  6
CONTINUOUS
 10
98.594468
 20
43.999412
 40
0.220000
  1
34.3
  7
TQS_CALIBRI
  0
TEXT
  8
1
  6
CONTINUOUS
 10
101.572440
 20
43.999412
 40
0.220000
  1
4
  7
TQS_CALIBRI
  0
TEXT
  8
1
  6
CONTINUOUS
 10
102.617256
 20
43.999412
 40
0.220000
  1
4
  7
TQS_CALIBRI
  0
TEXT
  8
1
  6
CONTINUOUS
 10
104.654079
 20
43.999412
 40
0.220000
  1
0
  7
TQS_CALIBRI
  0
TEXT
  8
1
  6
CONTINUOUS
 10
106.221303
 20
43.999412
 40
0.220000
  1
53
  7
TQS_CALIBRI
  0
TEXT
  8
1
  6
CONTINUOUS
 10
88.513174
 20
43.499411
 40
0.220000
  1
C57
  7
TQS_CALIBRI
  0
TEXT
  8
1
  6
CONTINUOUS
 10
90.866655
 20
43.499411
 40
0.220000
  1
2 %%c 12.7
  7
TQS_CALIBRI
  0
TEXT
  8
1
  6
CONTINUOUS
 10
93.081052
 20
43.499411
 40
0.220000
  1
1
  7
TQS_CALIBRI
  0
TEXT
  8
1
  6
CONTINUOUS
 10
95.317635
 20
43.499411
 40
0.220000
  1
8.2
  7
TQS_CALIBRI
  0
TEXT
  8
1
  6
CONTINUOUS
 10
98.594468
 20
43.499411
 40
0.220000
  1
16.4
  7
TQS_CALIBRI
  0
TEXT
  8
1
  6
CONTINUOUS
 10
101.572440
 20
43.499411
 40
0.220000
  1
2
  7
TQS_CALIBRI
  0
TEXT
  8
1
  6
CONTINUOUS
 10
102.617256
 20
43.499411
 40
0.220000
  1
2
  7
TQS_CALIBRI
  0
TEXT
  8
1
  6
CONTINUOUS
 10
104.654079
 20
43.499411
 40
0.220000
  1
0
  7
TQS_CALIBRI
  0
TEXT
  8
1
  6
CONTINUOUS
 10
106.221303
 20
43.499411
 40
0.220000
  1
51
  7
TQS_CALIBRI
  0
TEXT
  8
1
  6
CONTINUOUS
 10
88.513174
 20
42.999410
 40
0.220000
  1
C58 A C59
  7
TQS_CALIBRI
  0
TEXT
  8
1
  6
CONTINUOUS
 10
90.866655
 20
42.999410
 40
0.220000
  1
4 %%c 12.7
  7
TQS_CALIBRI
  0
TEXT
  8
1
  6
CONTINUOUS
 10
93.081052
 20
42.999410
 40
0.220000
  1
2
  7
TQS_CALIBRI
  0
TEXT
  8
1
  6
CONTINUOUS
 10
95.317635
 20
42.999410
 40
0.220000
  1
8.6
  7
TQS_CALIBRI
  0
TEXT
  8
1
  6
CONTINUOUS
 10
98.594468
 20
42.999410
 40
0.220000
  1
68.5
  7
TQS_CALIBRI
  0
TEXT
  8
1
  6
CONTINUOUS
 10
101.572440
 20
42.999410
 40
0.220000
  1
8
  7
TQS_CALIBRI
  0
TEXT
  8
1
  6
CONTINUOUS
 10
102.617256
 20
42.999410
 40
0.220000
  1
8
  7
TQS_CALIBRI
  0
TEXT
  8
1
  6
CONTINUOUS
 10
104.654079
 20
42.999410
 40
0.220000
  1
0
  7
TQS_CALIBRI
  0
TEXT
  8
1
  6
CONTINUOUS
 10
106.221303
 20
42.999410
 40
0.220000
  1
53
  7
TQS_CALIBRI
  0
TEXT
  8
1
  6
CONTINUOUS
 10
88.513174
 20
42.499409
 40
0.220000
  1
C60
  7
TQS_CALIBRI
  0
TEXT
  8
1
  6
CONTINUOUS
 10
90.866655
 20
42.499409
 40
0.220000
  1
2 %%c 12.7
  7
TQS_CALIBRI
  0
TEXT
  8
1
  6
CONTINUOUS
 10
93.081052
 20
42.499409
 40
0.220000
  1
1
  7
TQS_CALIBRI
  0
TEXT
  8
1
  6
CONTINUOUS
 10
95.317635
 20
42.499409
 40
0.220000
  1
8.2
  7
TQS_CALIBRI
  0
TEXT
  8
1
  6
CONTINUOUS
 10
98.594468
 20
42.499409
 40
0.220000
  1
16.4
  7
TQS_CALIBRI
  0
TEXT
  8
1
  6
CONTINUOUS
 10
101.572440
 20
42.499409
 40
0.220000
  1
2
  7
TQS_CALIBRI
  0
TEXT
  8
1
  6
CONTINUOUS
 10
102.617256
 20
42.499409
 40
0.220000
  1
2
  7
TQS_CALIBRI
  0
TEXT
  8
1
  6
CONTINUOUS
 10
104.654079
 20
42.499410
 40
0.220000
  1
0
  7
TQS_CALIBRI
  0
TEXT
  8
1
  6
CONTINUOUS
 10
106.221303
 20
42.499410
 40
0.220000
  1
51
  7
TQS_CALIBRI
  0
TEXT
  8
1
  6
CONTINUOUS
 10
88.513174
 20
41.999409
 40
0.220000
  1
C61 A C62
  7
TQS_CALIBRI
  0
TEXT
  8
1
  6
CONTINUOUS
 10
90.866655
 20
41.999409
 40
0.220000
  1
3 %%c 12.7
  7
TQS_CALIBRI
  0
TEXT
  8
1
  6
CONTINUOUS
 10
93.081052
 20
41.999409
 40
0.220000
  1
2
  7
TQS_CALIBRI
  0
TEXT
  8
1
  6
CONTINUOUS
 10
95.317635
 20
41.999409
 40
0.220000
  1
8.3
  7
TQS_CALIBRI
  0
TEXT
  8
1
  6
CONTINUOUS
 10
98.594468
 20
41.999409
 40
0.220000
  1
49.5
  7
TQS_CALIBRI
  0
TEXT
  8
1
  6
CONTINUOUS
 10
101.572440
 20
41.999409
 40
0.220000
  1
6
  7
TQS_CALIBRI
  0
TEXT
  8
1
  6
CONTINUOUS
 10
102.617256
 20
41.999409
 40
0.220000
  1
6
  7
TQS_CALIBRI
  0
TEXT
  8
1
  6
CONTINUOUS
 10
104.654079
 20
41.999409
 40
0.220000
  1
0
  7
TQS_CALIBRI
  0
TEXT
  8
1
  6
CONTINUOUS
 10
106.221303
 20
41.999409
 40
0.220000
  1
51
  7
TQS_CALIBRI
  0
TEXT
  8
1
  6
CONTINUOUS
 10
88.999315
 20
38.999408
 40
0.220000
  1
%%c
  7
TQS_CALIBRI
  0
TEXT
  8
1
  6
CONTINUOUS
 10
92.572853
 20
39.499408
 40
0.220000
  1
CABO
  7
TQS_CALIBRI
  0
TEXT
  8
1
  6
CONTINUOUS
 10
98.757413
 20
38.749409
 40
0.220000
  1
A
  7
TQS_CALIBRI
  0
TEXT
  8
1
  6
CONTINUOUS
 10
99.802228
 20
38.749409
 40
0.220000
  1
P
  7
TQS_CALIBRI
  0
TEXT
  8
1
  6
CONTINUOUS
 10
100.847045
 20
38.749409
 40
0.220000
  1
I
  7
TQS_CALIBRI
  0
TEXT
  8
1
  6
CONTINUOUS
 10
95.068612
 20
38.999408
 40
0.220000
  1
PESO
  7
TQS_CALIBRI
  0
TEXT
  8
1
  6
CONTINUOUS
 10
98.827592
 20
39.499409
 40
0.220000
  1
ANCORAGENS
  7
TQS_CALIBRI
  0
TEXT
  8
1
  6
CONTINUOUS
 10
90.906372
 20
40.582741
 40
0.400000
  1
RESUMO DE PROTENSÃO
  7
TQS_CALIBRI
  0
TEXT
  8
1
  6
CONTINUOUS
 10
90.444509
 20
40.020041
 40
0.300000
  1
Monocordoalhas não aderentes
  7
TQS_CALIBRI
  0
TEXT
  8
1
  6
CONTINUOUS
 10
90.835610
 20
38.999408
 40
0.220000
  1
COMPR
  7
TQS_CALIBRI
  0
TEXT
  8
1
  6
CONTINUOUS
 10
92.685398
 20
38.499409
 40
0.220000
  1
kgf/m
  7
TQS_CALIBRI
  0
TEXT
  8
1
  6
CONTINUOUS
 10
94.837175
 20
38.499409
 40
0.220000
  1
kgf
  7
TQS_CALIBRI
  0
TEXT
  8
1
  6
CONTINUOUS
 10
96.651567
 20
38.499409
 40
0.220000
  1
kgf+4%
  7
TQS_CALIBRI
  0
TEXT
  8
1
  6
CONTINUOUS
 10
90.840156
 20
38.499409
 40
0.220000
  1
m
  7
TQS_CALIBRI
  0
TEXT
  8
1
  6
CONTINUOUS
 10
88.977695
 20
38.499409
 40
0.220000
  1
mm
  7
TQS_CALIBRI
  0
TEXT
  8
1
  6
CONTINUOUS
 10
90.565472
 20
37.999408
 40
0.220000
  1
217
  7
TQS_CALIBRI
  0
TEXT
  8
1
  6
CONTINUOUS
 10
99.611069
 20
37.999408
 40
0.220000
  1
24
  7
TQS_CALIBRI
  0
TEXT
  8
1
  6
CONTINUOUS
 10
98.566252
 20
37.999408
 40
0.220000
  1
24
  7
TQS_CALIBRI
  0
TEXT
  8
1
  6
CONTINUOUS
 10
92.685398
 20
37.999408
 40
0.220000
  1
0.886
  7
TQS_CALIBRI
  0
TEXT
  8
1
  6
CONTINUOUS
 10
94.274727
 20
37.999408
 40
0.220000
  1
193
  7
TQS_CALIBRI
  0
TEXT
  8
1
  6
CONTINUOUS
 10
96.334725
 20
37.999408
 40
0.220000
  1
200
  7
TQS_CALIBRI
  0
TEXT
  8
1
  6
CONTINUOUS
 10
88.377539
 20
37.999408
 40
0.220000
  1
2 %%c 12.7
  7
TQS_CALIBRI
  0
TEXT
  8
1
  6
CONTINUOUS
 10
90.565472
 20
37.499407
 40
0.220000
  1
334
  7
TQS_CALIBRI
  0
TEXT
  8
1
  6
CONTINUOUS
 10
99.611069
 20
37.499407
 40
0.220000
  1
39
  7
TQS_CALIBRI
  0
TEXT
  8
1
  6
CONTINUOUS
 10
98.566252
 20
37.499407
 40
0.220000
  1
39
  7
TQS_CALIBRI
  0
TEXT
  8
1
  6
CONTINUOUS
 10
92.685398
 20
37.499407
 40
0.220000
  1
0.886
  7
TQS_CALIBRI
  0
TEXT
  8
1
  6
CONTINUOUS
 10
94.274727
 20
37.499407
 40
0.220000
  1
296
  7
TQS_CALIBRI
  0
TEXT
  8
1
  6
CONTINUOUS
 10
96.334725
 20
37.499407
 40
0.220000
  1
308
  7
TQS_CALIBRI
  0
TEXT
  8
1
  6
CONTINUOUS
 10
88.377539
 20
37.499407
 40
0.220000
  1
3 %%c 12.7
  7
TQS_CALIBRI
  0
TEXT
  8
1
  6
CONTINUOUS
 10
90.565472
 20
36.999406
 40
0.220000
  1
1352
  7
TQS_CALIBRI
  0
TEXT
  8
1
  6
CONTINUOUS
 10
99.611069
 20
36.999407
 40
0.220000
  1
148
  7
TQS_CALIBRI
  0
TEXT
  8
1
  6
CONTINUOUS
 10
98.566252
 20
36.999407
 40
0.220000
  1
148
  7
TQS_CALIBRI
  0
TEXT
  8
1
  6
CONTINUOUS
 10
92.685398
 20
36.999406
 40
0.220000
  1
0.886
  7
TQS_CALIBRI
  0
TEXT
  8
1
  6
CONTINUOUS
 10
94.274727
 20
36.999406
 40
0.220000
  1
1198
  7
TQS_CALIBRI
  0
TEXT
  8
1
  6
CONTINUOUS
 10
96.334725
 20
36.999406
 40
0.220000
  1
1246
  7
TQS_CALIBRI
  0
TEXT
  8
1
  6
CONTINUOUS
 10
88.377539
 20
36.999406
 40
0.220000
  1
4 %%c 12.7
  7
TQS_CALIBRI
  0
TEXT
  8
1
  6
CONTINUOUS
 10
101.932386
 20
23.396411
 40
0.350000
  1
NOTAS:
  7
TQS_CALIBRI
  0
TEXT
  8
2
  6
CONTINUOUS
 10
101.965840
 20
22.812661
 40
0.240000
  1
1) CONFERIR INFORMAÇÕES DA TABELA ACIMA (TABELA DE FERRERAGEM) NA OBRA
  7
TQS_CALIBRI
  0
TEXT
  8
2
  6
CONTINUOUS
 10
101.965840
 20
22.343353
 40
0.240000
  1
ANTES DA COMPRA DAS ARMADURAS.
  7
TQS_CALIBRI
  0
TEXT
  8
1
  6
CONTINUOUS
 10
102.073109
 20
8.835799
 40
0.455000
  1
ENGENHARIA
  7
TQS_CALIBRI
  0
TEXT
  8
1
  6
CONTINUOUS
 10
101.876737
 20
16.222571
 40
0.250000
  1
REV
  7
TQS_CALIBRI
  0
TEXT
  8
1
  6
CONTINUOUS
 10
103.356169
 20
16.222571
 40
0.250000
  1
DATA
  7
TQS_CALIBRI
  0
TEXT
  8
1
  6
CONTINUOUS
 10
105.030516
 20
16.222571
 40
0.250000
  1
ASSUNTO
  7
TQS_CALIBRI
  0
TEXT
  8
1
  6
CONTINUOUS
 10
101.832253
 20
14.047181
 40
0.250000
  1
PROPRIETÁRIO - 
  7
TQS_CALIBRI
  0
TEXT
  8
1
  6
CONTINUOUS
 10
108.042444
 20
2.579059
 40
0.250000
  1
ENGENHEIRO:
  7
TQS_CALIBRI
  0
TEXT
  8
1
  6
CONTINUOUS
 10
108.046365
 20
2.149652
 40
0.250000
  1
CREA REG.:
  7
TQS_CALIBRI
  0
TEXT
  8
1
  6
CONTINUOUS
 10
110.430567
 20
2.160333
 40
0.250000
  1
020930945-8
  7
TQS_CALIBRI
  0
TEXT
  8
1
  6
CONTINUOUS
 10
103.739739
 20
9.759850
 40
1.000000
  1
VGF
  7
TQS_CALIBRI
  0
TEXT
  8
1
  6
CONTINUOUS
 10
101.832253
 20
12.147181
 40
0.250000
  1
PROJETO              Eng. Civil - CREA:020930945-8
  7
TQS_CALIBRI
  0
TEXT
  8
1
  6
CONTINUOUS
 10
101.800510
 20
2.752624
 40
0.150000
  1
DATA:
  7
TQS_CALIBRI
  0
TEXT
  8
1
  6
CONTINUOUS
 10
101.788178
 20
1.752624
 40
0.150000
  1
FASE:
  7
TQS_CALIBRI
  0
TEXT
  8
1
  6
CONTINUOUS
 10
105.124829
 20
2.752624
 40
0.150000
  1
ESCALA:
  7
TQS_CALIBRI
  0
TEXT
  8
1
  6
CONTINUOUS
 10
105.112497
 20
1.752624
 40
0.150000
  1
PLANTA:
  7
TQS_CALIBRI
  0
TEXT
  8
1
  6
CONTINUOUS
 10
101.800510
 20
6.352624
 40
0.150000
  1
TÍTULO:
  7
TQS_CALIBRI
  0
TEXT
  8
1
  6
CONTINUOUS
 10
101.787482
 20
5.577767
 40
0.150000
  1
ELEMENTOS DA PRANCHA:
  7
TQS_CALIBRI
  0
TEXT
  8
1
  6
CONTINUOUS
 10
101.800510
 20
8.252624
 40
0.150000
  1
EMPREENDIMENTO/LOCAL:
  7
TQS_CALIBRI
  0
TEXT
  8
1
  6
CONTINUOUS
 10
106.761120
 20
11.025301
 40
0.150000
  1
CONTATOS:
  7
TQS_CALIBRI
  0
TEXT
  8
1
  6
CONTINUOUS
 10
114.224829
 20
2.752624
 40
0.150000
  1
PLANTA-REVISÃO:
  7
TQS_CALIBRI
  0
TEXT
  8
1
  6
CONTINUOUS
 10
102.041441
 20
16.843956
 40
0.200000
  1
00
  7
TQS_CALIBRI
  0
TEXT
  8
1
  6
CONTINUOUS
 10
102.041441
 20
17.343956
 40
0.200000
  1
01
  7
TQS_CALIBRI
  0
TEXT
  8
1
  6
CONTINUOUS
 10
102.041441
 20
17.843956
 40
0.200000
  1
02
  7
TQS_CALIBRI
  0
TEXT
  8
1
  6
CONTINUOUS
 10
102.041441
 20
18.343956
 40
0.200000
  1
03
  7
TQS_CALIBRI
  0
TEXT
  8
1
  6
CONTINUOUS
 10
102.041441
 20
18.843956
 40
0.200000
  1
04
  7
TQS_CALIBRI
  0
TEXT
  8
1
  6
CONTINUOUS
 10
102.041441
 20
19.343956
 40
0.200000
  1
05
  7
TQS_CALIBRI
  0
TEXT
  8
1
  6
CONTINUOUS
 10
102.041441
 20
19.843956
 40
0.200000
  1
06
  7
TQS_CALIBRI
  0
TEXT
  8
1
  6
CONTINUOUS
 10
102.041441
 20
20.343956
 40
0.200000
  1
07
  7
TQS_CALIBRI
  0
TEXT
  8
1
  6
CONTINUOUS
 10
102.041441
 20
20.843956
 40
0.200000
  1
08
  7
TQS_CALIBRI
  0
TEXT
  8
1
  6
CONTINUOUS
 10
102.041441
 20
21.343956
 40
0.200000
  1
09
  7
TQS_CALIBRI
  0
TEXT
  8
1
  6
CONTINUOUS
 10
102.041441
 20
21.843956
 40
0.200000
  1
10
  7
TQS_CALIBRI
  0
TEXT
  8
1
  6
CONTINUOUS
 10
116.437973
 20
16.222571
 40
0.250000
  1
AUTOR
  7
TQS_CALIBRI
  0
TEXT
  8
1
  6
CONTINUOUS
 10
106.749019
 20
10.335784
 40
0.195000
  1
Tel: 99928-2128
  7
TQS_CALIBRI
  0
TEXT
  8
1
  6
CONTINUOUS
 10
106.749019
 20
10.012284
 40
0.195000
  1
franciscogonca@hotmail.com 
  7
TQS_CALIBRI
  0
TEXT
  8
1
  6
CONTINUOUS
 10
106.749019
 20
9.680784
 40
0.195000
  1
Tel: 99981-6458
  7
TQS_CALIBRI
  0
TEXT
  8
1
  6
CONTINUOUS
 10
106.749019
 20
9.357284
 40
0.195000
  1
tiago@vgfengenharia.com.br 
  7
TQS_CALIBRI
  0
TEXT
  8
1
  6
CONTINUOUS
 10
106.749019
 20
9.025784
 40
0.195000
  1
Tel: 99912-8379
  7
TQS_CALIBRI
  0
TEXT
  8
1
  6
CONTINUOUS
 10
110.809443
 20
11.052624
 40
0.150000
  1
CLIENTE:
  7
TQS_CALIBRI
  0
TEXT
  8
1
  6
CONTINUOUS
 10
116.009770
 20
1.647683
 40
0.500000
  1
-R
  7
TQS_CALIBRI
  0
TEXT
  8
1
  6
CONTINUOUS
 10
101.832253
 20
12.547181
 40
0.250000
  1
RESPONSÁVEL -  Diego de Vasconcelos Gonçalves Ferreira
  7
TQS_CALIBRI
  0
TEXT
  8
1
  6
CONTINUOUS
 10
110.422141
 20
2.578345
 40
0.250000
  1
Diego Vasconcelos
  7
TQS_CALIBRI
  0
TEXT
  8
1
  6
CONTINUOUS
 10
106.749019
 20
10.667284
 40
0.195000
  1
diego@vgfengenharia.com.br 
  7
TQS_CALIBRI
  0
TEXT
  8
1
  6
CONTINUOUS
 10
104.982892
 20
16.853163
 40
0.200000
  1
Emissão inicial.
  7
TQS_CALIBRI
  0
TEXT
  8
1
  6
CONTINUOUS
 10
101.795719
 20
7.825700
 40
0.250000
  1
Assembléia Legislativa de Alagoas
  7
TQS_CALIBRI
  0
TEXT
  8
1
  6
CONTINUOUS
 10
104.517953
 20
14.045361
 40
0.250000
  1
ALA
  7
TQS_CALIBRI
  0
TEXT
  8
1
  6
CONTINUOUS
 10
101.789281
 20
2.263237
 40
0.250000
  1
26/02/2024
  7
TQS_CALIBRI
  0
TEXT
  8
1
  6
CONTINUOUS
 10
102.992347
 20
16.854551
 40
0.200000
  1
26/02/24
  7
TQS_CALIBRI
  0
TEXT
  8
1
  6
CONTINUOUS
 10
101.787954
 20
7.415393
 40
0.200000
  1
RUA SÁ E ALBUQUERQUE, NÚMERO 807, JARAGUÁ - MACEIÓ-AL
  7
TQS_CALIBRI
  0
TEXT
  8
1
  6
CONTINUOUS
 10
101.789859
 20
1.251887
 40
0.250000
  1
PE
  7
TQS_CALIBRI
  0
TEXT
  8
1
  6
CONTINUOUS
 10
105.114178
 20
1.251887
 40
0.250000
  1
CLA-EEM-EST-PE-0341-ARM-R00
  7
TQS_CALIBRI
  0
TEXT
  8
1
  6
CONTINUOUS
 10
116.547332
 20
16.842370
 40
0.200000
  1
DIEGO
  7
TQS_CALIBRI
  0
TEXT
  8
1
  6
CONTINUOUS
 10
114.396264
 20
1.644018
 40
0.500000
  1
0341
  7
TQS_CALIBRI
  0
TEXT
  8
1
  6
CONTINUOUS
 10
116.689770
 20
1.647683
 40
0.500000
  1
00
  7
TQS_CALIBRI
  0
TEXT
  8
1
  6
CONTINUOUS
 10
110.802729
 20
10.513659
 40
0.400000
  1
ALA
  7
TQS_CALIBRI
  0
TEXT
  8
1
  6
CONTINUOUS
 10
101.762319
 20
5.951739
 40
0.250000
  1
ARM. PROTENSÃO HORIZONTAL (02-1Pavto) - 01 - F, G e H
  7
TQS_CALIBRI
  0
ENDSEC
  0
EOF
