  0
SECTION
  2
HEADER
  9
$ACADVER
  1
AC1002
  9
$USERI1
 70
0
  9
$INSBASE
 10
0.000000
 20
0.000000
  9
$EXTMIN
 10
0.000000
 20
0.000000
  9
$EXTMAX
 10
7.761771
 20
4.436620
  9
$LIMMIN
 10
0.000000
 20
0.000000
  9
$LIMMAX
 10
12.000000
 20
9.000000
  9
$VIEWCTR
 10
78.887138
 20
59.361758
  9
$VIEWSIZE
 40
127.522840
  9
$TEXTSIZE
 40
0.100000
  9
$TRACEWID
 40
0.010000
  9
$LTSCALE
 40
1.000000
  0
ENDSEC
  0
SECTION
  2
TABLES
  0
TABLE
  2
LTYPE
 70
     3
  0
LTYPE
  2
CONTINUOUS
 70
    64
  3
Solid line
 72
    65
 73
     0
 40
0.000000
  0
LTYPE
  2
ESTILO_TQS_0001
 70
    64
  3
-  -  -  -  -  -
 72
    65
 73
     2
 40
1.000000
 49
0.700000
 49
-0.300000
  0
LTYPE
  2
ESTILO_TQS_0002
 70
    64
  3
. . . . . . . .
 72
    65
 73
     2
 40
0.400000
 49
0.100000
 49
-0.300000
  0
LTYPE
  2
ESTILO_TQS_0003
 70
    64
  3
- . - . - . - .
 72
    65
 73
     4
 40
0.910000
 49
0.500000
 49
-0.200000
 49
0.010000
 49
-0.200000
  0
LTYPE
  2
ESTILO_TQS_0004
 70
    64
  3
- .. - .. - ..
 72
    65
 73
     6
 40
1.120000
 49
0.500000
 49
-0.200000
 49
0.010000
 49
-0.200000
 49
0.010000
 49
-0.200000
  0
LTYPE
  2
CONTINUOUS
 70
    64
  3
- - - - - - - -
 72
    65
 73
     2
 40
0.400000
 49
0.300000
 49
-0.100000
  0
ENDTAB
  0
TABLE
  2
LAYER
 70
    89
  0
LAYER
  2
0
 70
     0
 62
     7
  6
CONTINUOUS
  0
LAYER
  2
1
 70
     0
 62
     1
  6
CONTINUOUS
  0
LAYER
  2
2
 70
     0
 62
     2
  6
CONTINUOUS
  0
LAYER
  2
3
 70
     0
 62
     3
  6
CONTINUOUS
  0
LAYER
  2
4
 70
     0
 62
     4
  6
CONTINUOUS
  0
LAYER
  2
5
 70
     0
 62
     5
  6
CONTINUOUS
  0
LAYER
  2
6
 70
     0
 62
     6
  6
CONTINUOUS
  0
LAYER
  2
7
 70
     0
 62
     7
  6
CONTINUOUS
  0
LAYER
  2
8
 70
     0
 62
     8
  6
CONTINUOUS
  0
LAYER
  2
9
 70
     0
 62
     9
  6
CONTINUOUS
  0
LAYER
  2
10
 70
     0
 62
    10
  6
CONTINUOUS
  0
LAYER
  2
11
 70
     0
 62
    11
  6
CONTINUOUS
  0
LAYER
  2
12
 70
     0
 62
    12
  6
CONTINUOUS
  0
LAYER
  2
13
 70
     0
 62
    13
  6
CONTINUOUS
  0
LAYER
  2
14
 70
     0
 62
    14
  6
CONTINUOUS
  0
LAYER
  2
15
 70
     0
 62
    15
  6
CONTINUOUS
  0
LAYER
  2
16
 70
     0
 62
     7
  6
CONTINUOUS
  0
LAYER
  2
17
 70
     0
 62
     2
  6
CONTINUOUS
  0
LAYER
  2
18
 70
     0
 62
     4
  6
CONTINUOUS
  0
LAYER
  2
19
 70
     0
 62
     5
  6
CONTINUOUS
  0
LAYER
  2
20
 70
     0
 62
     4
  6
CONTINUOUS
  0
LAYER
  2
21
 70
     0
 62
     2
  6
CONTINUOUS
  0
LAYER
  2
22
 70
     0
 62
     1
  6
CONTINUOUS
  0
LAYER
  2
23
 70
     0
 62
     7
  6
CONTINUOUS
  0
LAYER
  2
24
 70
     0
 62
     6
  6
CONTINUOUS
  0
LAYER
  2
25
 70
     0
 62
     1
  6
CONTINUOUS
  0
LAYER
  2
26
 70
     0
 62
     3
  6
CONTINUOUS
  0
LAYER
  2
27
 70
     0
 62
     4
  6
CONTINUOUS
  0
LAYER
  2
28
 70
     0
 62
     4
  6
CONTINUOUS
  0
LAYER
  2
30
 70
     0
 62
     4
  6
CONTINUOUS
  0
LAYER
  2
100
 70
     0
 62
     1
  6
CONTINUOUS
  0
LAYER
  2
101
 70
     0
 62
     9
  6
CONTINUOUS
  0
LAYER
  2
102
 70
     0
 62
     7
  6
CONTINUOUS
  0
LAYER
  2
103
 70
     0
 62
     2
  6
CONTINUOUS
  0
LAYER
  2
104
 70
     0
 62
    11
  6
CONTINUOUS
  0
LAYER
  2
105
 70
     0
 62
     3
  6
CONTINUOUS
  0
LAYER
  2
106
 70
     0
 62
     5
  6
CONTINUOUS
  0
LAYER
  2
107
 70
     0
 62
     3
  6
CONTINUOUS
  0
LAYER
  2
108
 70
     0
 62
     5
  6
CONTINUOUS
  0
LAYER
  2
109
 70
     0
 62
     3
  6
CONTINUOUS
  0
LAYER
  2
197
 70
     0
 62
     3
  6
CONTINUOUS
  0
LAYER
  2
198
 70
     0
 62
     2
  6
CONTINUOUS
  0
LAYER
  2
199
 70
     0
 62
     6
  6
CONTINUOUS
  0
LAYER
  2
200
 70
     0
 62
     7
  6
ESTILO_TQS_0002
  0
LAYER
  2
201
 70
     0
 62
     7
  6
ESTILO_TQS_0001
  0
LAYER
  2
202
 70
     0
 62
     7
  6
CONTINUOUS
  0
LAYER
  2
203
 70
     0
 62
     7
  6
ESTILO_TQS_0001
  0
LAYER
  2
204
 70
     0
 62
     7
  6
ESTILO_TQS_0003
  0
LAYER
  2
205
 70
     0
 62
     5
  6
ESTILO_TQS_0004
  0
LAYER
  2
206
 70
     0
 62
    15
  6
CONTINUOUS
  0
LAYER
  2
207
 70
     0
 62
     2
  6
CONTINUOUS
  0
LAYER
  2
208
 70
     0
 62
     5
  6
CONTINUOUS
  0
LAYER
  2
210
 70
     0
 62
    15
  6
ESTILO_TQS_0002
  0
LAYER
  2
211
 70
     0
 62
     7
  6
ESTILO_TQS_0001
  0
LAYER
  2
214
 70
     0
 62
    15
  6
CONTINUOUS
  0
LAYER
  2
215
 70
     0
 62
     2
  6
CONTINUOUS
  0
LAYER
  2
216
 70
     0
 62
     3
  6
CONTINUOUS
  0
LAYER
  2
217
 70
     0
 62
     3
  6
CONTINUOUS
  0
LAYER
  2
218
 70
     0
 62
     2
  6
CONTINUOUS
  0
LAYER
  2
219
 70
     0
 62
    15
  6
CONTINUOUS
  0
LAYER
  2
220
 70
     0
 62
    10
  6
CONTINUOUS
  0
LAYER
  2
221
 70
     0
 62
    11
  6
CONTINUOUS
  0
LAYER
  2
222
 70
     0
 62
    12
  6
CONTINUOUS
  0
LAYER
  2
223
 70
     0
 62
     6
  6
CONTINUOUS
  0
LAYER
  2
224
 70
     0
 62
     1
  6
CONTINUOUS
  0
LAYER
  2
225
 70
     0
 62
    15
  6
CONTINUOUS
  0
LAYER
  2
226
 70
     0
 62
     2
  6
CONTINUOUS
  0
LAYER
  2
227
 70
     0
 62
    10
  6
CONTINUOUS
  0
LAYER
  2
228
 70
     0
 62
    11
  6
CONTINUOUS
  0
LAYER
  2
229
 70
     0
 62
    12
  6
CONTINUOUS
  0
LAYER
  2
230
 70
     0
 62
     6
  6
CONTINUOUS
  0
LAYER
  2
231
 70
     0
 62
     3
  6
CONTINUOUS
  0
LAYER
  2
232
 70
     0
 62
    12
  6
CONTINUOUS
  0
LAYER
  2
233
 70
     0
 62
     4
  6
CONTINUOUS
  0
LAYER
  2
234
 70
     0
 62
    13
  6
CONTINUOUS
  0
LAYER
  2
235
 70
     0
 62
     5
  6
CONTINUOUS
  0
LAYER
  2
236
 70
     0
 62
     2
  6
CONTINUOUS
  0
LAYER
  2
237
 70
     0
 62
     6
  6
CONTINUOUS
  0
LAYER
  2
238
 70
     0
 62
    12
  6
CONTINUOUS
  0
LAYER
  2
239
 70
     0
 62
    11
  6
CONTINUOUS
  0
LAYER
  2
240
 70
     0
 62
    11
  6
CONTINUOUS
  0
LAYER
  2
241
 70
     0
 62
    12
  6
CONTINUOUS
  0
ENDTAB
  0
TABLE
  2
STYLE
 70
     1
  0
STYLE
  2
STANDARD
 70
    64
 40
0.000000
 41
1.000000
 50
0.000000
 71
     0
 42
0.200000
  3
ROMANS.SHX
  4

  0
STYLE
  2
TQS_CALIBRI
 70
     0
 40
0.000000
 41
1.000000
 50
0.000000
 71
     0
 42
0.200000
  3
calibri.ttf
  0
STYLE
  2
TQS_CALIBRI_U
 70
     0
 40
0.000000
 41
1.000000
 50
0.000000
 71
     0
 42
0.200000
  3
calibri.ttf
  0
STYLE
  2
TQS_CALIBRI_I
 70
     0
 40
0.000000
 41
1.000000
 50
0.000000
 71
     0
 42
0.200000
  3
calibri.ttf
  0
STYLE
  2
TQS_CALIBRI_I_U
 70
     0
 40
0.000000
 41
1.000000
 50
0.000000
 71
     0
 42
0.200000
  3
calibri.ttf
  0
STYLE
  2
TQS_CALIBRI_B
 70
     0
 40
0.000000
 41
1.000000
 50
0.000000
 71
     0
 42
0.200000
  3
calibri.ttf
  0
STYLE
  2
TQS_CALIBRI_B_U
 70
     0
 40
0.000000
 41
1.000000
 50
0.000000
 71
     0
 42
0.200000
  3
calibri.ttf
  0
STYLE
  2
TQS_CALIBRI_B_I
 70
     0
 40
0.000000
 41
1.000000
 50
0.000000
 71
     0
 42
0.200000
  3
calibri.ttf
  0
STYLE
  2
TQS_CALIBRI_B_I_U
 70
     0
 40
0.000000
 41
1.000000
 50
0.000000
 71
     0
 42
0.200000
  3
calibri.ttf
  0
ENDTAB
  0
TABLE
  2
VIEW
 70
     0
  0
ENDTAB
  0
ENDSEC
  0
SECTION
  2
BLOCKS
  0
BLOCK
  8
0
  2
_PLWTQS
 70
    64
 10
0.000000
 20
0.000000
  0
TEXT
  8
0
  6
CONTINUOUS
 10
0.000000
 20
0.000000
 40
0.200000
  1
$PLWDWGGlBMVwAAAAAAAChABAAAAMHC82deG7a4TWoBHUHqWtfWYeFMq5r9Kjc1xYgx3NFD8jW8Vkmln9hnipyg10VjfEcA4WnN8EZuOEZhnvVCvqakwh/mPbemtLWf8eQskj3hNAtRNw9RbjGyexX8iGA3OG3SXMxWlEFJN3xGyKLvs+U=
  7
TQS_CALIBRI
  0
TEXT
  8
0
  6
CONTINUOUS
 10
0.000000
 20
-0.250000
 40
0.200000
  1
$PLWDWGT7UQ1UYjM0M59RPP1uu9sWSDM4RVGwypGTyzA3CyMudSX41MUDkgPiq93Bioo/zbdwbAO99SIaKMxGEUkP8yQmZdttzkNG1LqQRwpiEAvgKhag1srHOyPETuz7sfZaOK2AB8CSvHMLTmdITF2swMJDH9uZ4bab2S1Q5IbmjRWO0=
  7
TQS_CALIBRI
  0
TEXT
  8
0
  6
CONTINUOUS
 10
0.000000
 20
-0.500000
 40
0.200000
  1
$PLWDWG94oulhRAvTEYBBWFZA4kPhrchHxcboiwsGy0ybvMNKBK/uosM3gI/kBIfzcLLIHzQlf3/x0RqE4/jdWhHHDnV03i3Yp/wzBAcF8nDtI31T0jpcSZ79uWjgf3p9bDWqK/9ztrl6+PBkBg6KGBjgKMulzsVkqC5R02ojGMTA1W9gU=
  7
TQS_CALIBRI
  0
TEXT
  8
0
  6
CONTINUOUS
 10
0.000000
 20
-0.750000
 40
0.200000
  1
$PLWDWGZ5zo63MVFMH4yS8ClCrlqoChhYYFQBjVKs41iSinbnzOm7WykKJ8jPt/NLSW2gsIRsngzjYxrcDTQ2QP0YzZKjmPdmsm4H6Cp3OdM497S77zFEY/GbYZViF1577zqPDAU7HPkzH5u2SLGWHvgANqUkHfCdpe2uAQ6wwg94J2I+E=
  7
TQS_CALIBRI
  0
TEXT
  8
0
  6
CONTINUOUS
 10
0.000000
 20
-1.000000
 40
0.200000
  1
$PLWDWG00qC91vDX9B5hmMXw11CK+oXGoILZvICvssbthe5x4339Pi/Fn21kdXHgZeWEoI0a5Mc5ZCrp2Zh0cdQCni2ZGNUNRvyYcE56HIy1tIawheKwFEgpmj1jkXMjh6s6iBqFEJEE7btLp+XdBqYQim38wrlL361LFGOuuw9iK7de5Q=
  7
TQS_CALIBRI
  0
TEXT
  8
0
  6
CONTINUOUS
 10
0.000000
 20
-1.250000
 40
0.200000
  1
$PLWDWGaezRJw8v+4dEhCNuwHHK/5BKRWE7i0ZaaNFWcfTsRPH8+yZRvaMCswTBWxe1K6BVuGyWM9joRJ4ha3vs65XK03PYj3Rou34UcqXTIwELUTAcwXUZb1/adWXm7kBHkZLfxAnzt2+Qyqk+n8Tg0hwTEq0bL6U8ck6IzYPvdLlRoMU=
  7
TQS_CALIBRI
  0
TEXT
  8
0
  6
CONTINUOUS
 10
0.000000
 20
-1.500000
 40
0.200000
  1
$PLWDWGQEegcBSICnB68kThF8h7wWme6KFT7uXadGUHuA07vLf2p/Az9o4RZDZ3cMk5s6wepC7ai/Nwul2mtdOGH39JKVAPV86zV9G++eONNgySwoiQXYWsGvPNp9gqU3swiHweCm/IBYoHY1MLcf1LY7PFYFX8mrP0qLpy88HIUvCs8qs=
  7
TQS_CALIBRI
  0
TEXT
  8
0
  6
CONTINUOUS
 10
0.000000
 20
-1.750000
 40
0.200000
  1
$PLWDWGT3J64vd2mBVkuM7O756Bd49ToQK3Le8CpZzitFwsOCPNKgYUxUUGu3cB1YoWEBuzmsHNUkysCTcAAAAACSZ9nLROIPndo9I9kv0i0JrBzVJMrAk3AAAAAA==
  7
TQS_CALIBRI
  0
ENDBLK
  8
0
  0
ENDSEC
  0
SECTION
  2
ENTITIES
  0
SOLID
  8
13
  6
CONTINUOUS
 10
102.095046
 20
10.244446
 11
102.095046
 21
9.498246
 12
101.971546
 22
9.498246
 13
101.971546
 23
9.498246
  0
SOLID
  8
13
  6
CONTINUOUS
 10
102.095046
 20
10.244446
 11
101.971546
 21
9.498246
 12
101.971546
 22
11.162246
 13
101.971546
 23
11.162246
  0
SOLID
  8
13
  6
CONTINUOUS
 10
102.095046
 20
10.244446
 11
101.971546
 21
11.162246
 12
102.095046
 22
11.162246
 13
102.095046
 23
11.162246
  0
SOLID
  8
13
  6
CONTINUOUS
 10
102.095046
 20
10.244446
 11
102.095046
 21
11.162246
 12
102.095046
 22
10.244446
 13
102.095046
 23
10.244446
  0
SOLID
  8
13
  6
CONTINUOUS
 10
102.522746
 20
10.230979
 11
102.522746
 21
9.498246
 12
102.095046
 22
9.498246
 13
102.095046
 23
9.498246
  0
SOLID
  8
13
  6
CONTINUOUS
 10
102.522746
 20
10.230979
 11
102.095046
 21
9.498246
 12
102.095046
 22
10.244446
 13
102.095046
 23
10.244446
  0
SOLID
  8
13
  6
CONTINUOUS
 10
102.522746
 20
10.230979
 11
102.095046
 21
10.244446
 12
102.143544
 22
10.248642
 13
102.143544
 23
10.248642
  0
SOLID
  8
13
  6
CONTINUOUS
 10
102.522746
 20
10.230979
 11
102.143544
 21
10.248642
 12
102.211078
 22
10.252071
 13
102.211078
 23
10.252071
  0
SOLID
  8
13
  6
CONTINUOUS
 10
102.522746
 20
10.230979
 11
102.211078
 21
10.252071
 12
102.259959
 22
10.252484
 13
102.259959
 23
10.252484
  0
SOLID
  8
13
  6
CONTINUOUS
 10
102.522746
 20
10.230979
 11
102.259959
 21
10.252484
 12
102.290321
 22
10.252141
 13
102.290321
 23
10.252141
  0
SOLID
  8
13
  6
CONTINUOUS
 10
102.522746
 20
10.230979
 11
102.290321
 21
10.252141
 12
102.334203
 22
10.250668
 13
102.334203
 23
10.250668
  0
SOLID
  8
13
  6
CONTINUOUS
 10
102.522746
 20
10.230979
 11
102.334203
 21
10.250668
 12
102.394518
 22
10.246747
 13
102.394518
 23
10.246747
  0
SOLID
  8
13
  6
CONTINUOUS
 10
102.522746
 20
10.230979
 11
102.394518
 21
10.246747
 12
102.446340
 22
10.241621
 13
102.446340
 23
10.241621
  0
SOLID
  8
13
  6
CONTINUOUS
 10
102.522746
 20
10.230979
 11
102.446340
 21
10.241621
 12
102.490083
 22
10.235974
 13
102.490083
 23
10.235974
  0
SOLID
  8
13
  6
CONTINUOUS
 10
102.522746
 20
10.230979
 11
102.490083
 21
10.235974
 12
102.522746
 22
10.230979
 13
102.522746
 23
10.230979
  0
SOLID
  8
13
  6
CONTINUOUS
 10
102.594246
 20
10.217654
 11
102.594246
 21
9.498246
 12
103.021946
 22
9.498246
 13
103.021946
 23
9.498246
  0
SOLID
  8
13
  6
CONTINUOUS
 10
102.594246
 20
10.217654
 11
103.021946
 21
9.498246
 12
103.021946
 22
10.064184
 13
103.021946
 23
10.064184
  0
SOLID
  8
13
  6
CONTINUOUS
 10
102.594246
 20
10.217654
 11
103.021946
 21
10.064184
 12
103.003898
 22
10.073542
 13
103.003898
 23
10.073542
  0
SOLID
  8
13
  6
CONTINUOUS
 10
102.594246
 20
10.217654
 11
103.003898
 21
10.073542
 12
102.981716
 22
10.084501
 13
102.981716
 23
10.084501
  0
SOLID
  8
13
  6
CONTINUOUS
 10
102.594246
 20
10.217654
 11
102.981716
 21
10.084501
 12
102.953307
 22
10.098271
 13
102.953307
 23
10.098271
  0
SOLID
  8
13
  6
CONTINUOUS
 10
102.594246
 20
10.217654
 11
102.953307
 21
10.098271
 12
102.912865
 22
10.116383
 13
102.912865
 23
10.116383
  0
SOLID
  8
13
  6
CONTINUOUS
 10
102.594246
 20
10.217654
 11
102.912865
 21
10.116383
 12
102.885024
 22
10.128001
 13
102.885024
 23
10.128001
  0
SOLID
  8
13
  6
CONTINUOUS
 10
102.594246
 20
10.217654
 11
102.885024
 21
10.128001
 12
102.844071
 22
10.144755
 13
102.844071
 23
10.144755
  0
SOLID
  8
13
  6
CONTINUOUS
 10
102.594246
 20
10.217654
 11
102.844071
 21
10.144755
 12
102.813490
 22
10.155923
 13
102.813490
 23
10.155923
  0
SOLID
  8
13
  6
CONTINUOUS
 10
102.594246
 20
10.217654
 11
102.813490
 21
10.155923
 12
102.778388
 22
10.168156
 13
102.778388
 23
10.168156
  0
SOLID
  8
13
  6
CONTINUOUS
 10
102.594246
 20
10.217654
 11
102.778388
 21
10.168156
 12
102.744083
 22
10.178793
 13
102.744083
 23
10.178793
  0
SOLID
  8
13
  6
CONTINUOUS
 10
102.594246
 20
10.217654
 11
102.744083
 21
10.178793
 12
102.703465
 22
10.191172
 13
102.703465
 23
10.191172
  0
SOLID
  8
13
  6
CONTINUOUS
 10
102.594246
 20
10.217654
 11
102.703465
 21
10.191172
 12
102.665141
 22
10.201162
 13
102.665141
 23
10.201162
  0
SOLID
  8
13
  6
CONTINUOUS
 10
102.594246
 20
10.217654
 11
102.665141
 21
10.201162
 12
102.624819
 22
10.210970
 13
102.624819
 23
10.210970
  0
SOLID
  8
13
  6
CONTINUOUS
 10
102.594246
 20
10.217654
 11
102.624819
 21
10.210970
 12
102.594246
 22
10.217654
 13
102.594246
 23
10.217654
  0
SOLID
  8
13
  6
CONTINUOUS
 10
103.093446
 20
10.024343
 11
103.093446
 21
9.498246
 12
103.521146
 22
9.498246
 13
103.521146
 23
9.498246
  0
SOLID
  8
13
  6
CONTINUOUS
 10
103.093446
 20
10.024343
 11
103.521146
 21
9.498246
 12
103.521146
 22
9.661030
 13
103.521146
 23
9.661030
  0
SOLID
  8
13
  6
CONTINUOUS
 10
103.093446
 20
10.024343
 11
103.521146
 21
9.661030
 12
103.507797
 22
9.676793
 13
103.507797
 23
9.676793
  0
SOLID
  8
13
  6
CONTINUOUS
 10
103.093446
 20
10.024343
 11
103.507797
 21
9.676793
 12
103.495964
 22
9.690528
 13
103.495964
 23
9.690528
  0
SOLID
  8
13
  6
CONTINUOUS
 10
103.093446
 20
10.024343
 11
103.495964
 21
9.690528
 12
103.473877
 22
9.715277
 13
103.473877
 23
9.715277
  0
SOLID
  8
13
  6
CONTINUOUS
 10
103.093446
 20
10.024343
 11
103.473877
 21
9.715277
 12
103.454164
 22
9.736530
 13
103.454164
 23
9.736530
  0
SOLID
  8
13
  6
CONTINUOUS
 10
103.093446
 20
10.024343
 11
103.454164
 21
9.736530
 12
103.434048
 22
9.757502
 13
103.434048
 23
9.757502
  0
SOLID
  8
13
  6
CONTINUOUS
 10
103.093446
 20
10.024343
 11
103.434048
 21
9.757502
 12
103.410015
 22
9.781535
 13
103.410015
 23
9.781535
  0
SOLID
  8
13
  6
CONTINUOUS
 10
103.093446
 20
10.024343
 11
103.410015
 21
9.781535
 12
103.399294
 22
9.791943
 13
103.399294
 23
9.791943
  0
SOLID
  8
13
  6
CONTINUOUS
 10
103.093446
 20
10.024343
 11
103.399294
 21
9.791943
 12
103.388429
 22
9.802406
 13
103.388429
 23
9.802406
  0
SOLID
  8
13
  6
CONTINUOUS
 10
103.093446
 20
10.024343
 11
103.388429
 21
9.802406
 12
103.359952
 22
9.828752
 13
103.359952
 23
9.828752
  0
SOLID
  8
13
  6
CONTINUOUS
 10
103.093446
 20
10.024343
 11
103.359952
 21
9.828752
 12
103.325139
 22
9.859181
 13
103.325139
 23
9.859181
  0
SOLID
  8
13
  6
CONTINUOUS
 10
103.093446
 20
10.024343
 11
103.325139
 21
9.859181
 12
103.286846
 22
9.890826
 13
103.286846
 23
9.890826
  0
SOLID
  8
13
  6
CONTINUOUS
 10
103.093446
 20
10.024343
 11
103.286846
 21
9.890826
 12
103.251036
 22
9.918745
 13
103.251036
 23
9.918745
  0
SOLID
  8
13
  6
CONTINUOUS
 10
103.093446
 20
10.024343
 11
103.251036
 21
9.918745
 12
103.200839
 22
9.955427
 13
103.200839
 23
9.955427
  0
SOLID
  8
13
  6
CONTINUOUS
 10
103.093446
 20
10.024343
 11
103.200839
 21
9.955427
 12
103.134352
 22
9.999676
 13
103.134352
 23
9.999676
  0
SOLID
  8
13
  6
CONTINUOUS
 10
103.093446
 20
10.024343
 11
103.134352
 21
9.999676
 12
103.093446
 22
10.024343
 13
103.093446
 23
10.024343
  0
SOLID
  8
13
  6
CONTINUOUS
 10
102.522746
 20
10.635283
 11
102.522746
 21
11.162246
 12
102.095046
 22
11.162246
 13
102.095046
 23
11.162246
  0
SOLID
  8
13
  6
CONTINUOUS
 10
102.522746
 20
10.635283
 11
102.095046
 21
11.162246
 12
102.095046
 22
10.995122
 13
102.095046
 23
10.995122
  0
SOLID
  8
13
  6
CONTINUOUS
 10
102.522746
 20
10.635283
 11
102.095046
 21
10.995122
 12
102.153689
 22
10.929235
 13
102.153689
 23
10.929235
  0
SOLID
  8
13
  6
CONTINUOUS
 10
102.522746
 20
10.635283
 11
102.153689
 21
10.929235
 12
102.237359
 22
10.846559
 13
102.237359
 23
10.846559
  0
SOLID
  8
13
  6
CONTINUOUS
 10
102.522746
 20
10.635283
 11
102.237359
 21
10.846559
 12
102.308389
 22
10.784730
 13
102.308389
 23
10.784730
  0
SOLID
  8
13
  6
CONTINUOUS
 10
102.522746
 20
10.635283
 11
102.308389
 21
10.784730
 12
102.366624
 22
10.739274
 13
102.366624
 23
10.739274
  0
SOLID
  8
13
  6
CONTINUOUS
 10
102.522746
 20
10.635283
 11
102.366624
 21
10.739274
 12
102.406322
 22
10.710064
 13
102.406322
 23
10.710064
  0
SOLID
  8
13
  6
CONTINUOUS
 10
102.522746
 20
10.635283
 11
102.406322
 21
10.710064
 12
102.455827
 22
10.676682
 13
102.455827
 23
10.676682
  0
SOLID
  8
13
  6
CONTINUOUS
 10
102.522746
 20
10.635283
 11
102.455827
 21
10.676682
 12
102.493954
 22
10.652515
 13
102.493954
 23
10.652515
  0
SOLID
  8
13
  6
CONTINUOUS
 10
102.522746
 20
10.635283
 11
102.493954
 21
10.652515
 12
102.522746
 22
10.635283
 13
102.522746
 23
10.635283
  0
SOLID
  8
13
  6
CONTINUOUS
 10
103.021946
 20
10.443678
 11
103.021946
 21
11.162246
 12
102.594246
 22
11.162246
 13
102.594246
 23
11.162246
  0
SOLID
  8
13
  6
CONTINUOUS
 10
103.021946
 20
10.443678
 11
102.594246
 21
11.162246
 12
102.594246
 22
10.595859
 13
102.594246
 23
10.595859
  0
SOLID
  8
13
  6
CONTINUOUS
 10
103.021946
 20
10.443678
 11
102.594246
 21
10.595859
 12
102.663800
 22
10.561766
 13
102.663800
 23
10.561766
  0
SOLID
  8
13
  6
CONTINUOUS
 10
103.021946
 20
10.443678
 11
102.663800
 21
10.561766
 12
102.744359
 22
10.527375
 13
102.744359
 23
10.527375
  0
SOLID
  8
13
  6
CONTINUOUS
 10
103.021946
 20
10.443678
 11
102.744359
 21
10.527375
 12
102.812197
 22
10.501464
 13
102.812197
 23
10.501464
  0
SOLID
  8
13
  6
CONTINUOUS
 10
103.021946
 20
10.443678
 11
102.812197
 21
10.501464
 12
102.889458
 22
10.476967
 13
102.889458
 23
10.476967
  0
SOLID
  8
13
  6
CONTINUOUS
 10
103.021946
 20
10.443678
 11
102.889458
 21
10.476967
 12
102.950702
 22
10.460007
 13
102.950702
 23
10.460007
  0
SOLID
  8
13
  6
CONTINUOUS
 10
103.021946
 20
10.443678
 11
102.950702
 21
10.460007
 12
103.021946
 22
10.443678
 13
103.021946
 23
10.443678
  0
SOLID
  8
13
  6
CONTINUOUS
 10
103.093446
 20
10.430307
 11
103.093446
 21
11.162246
 12
103.521146
 22
11.162246
 13
103.521146
 23
11.162246
  0
SOLID
  8
13
  6
CONTINUOUS
 10
103.093446
 20
10.430307
 11
103.521146
 21
11.162246
 12
103.521146
 22
10.417580
 13
103.521146
 23
10.417580
  0
SOLID
  8
13
  6
CONTINUOUS
 10
103.093446
 20
10.430307
 11
103.521146
 21
10.417580
 12
103.476372
 22
10.413637
 13
103.476372
 23
10.413637
  0
SOLID
  8
13
  6
CONTINUOUS
 10
103.093446
 20
10.430307
 11
103.476372
 21
10.413637
 12
103.416577
 22
10.410480
 13
103.416577
 23
10.410480
  0
SOLID
  8
13
  6
CONTINUOUS
 10
103.093446
 20
10.430307
 11
103.416577
 21
10.410480
 12
103.366788
 22
10.409453
 13
103.366788
 23
10.409453
  0
SOLID
  8
13
  6
CONTINUOUS
 10
103.093446
 20
10.430307
 11
103.366788
 21
10.409453
 12
103.336830
 22
10.409453
 13
103.336830
 23
10.409453
  0
SOLID
  8
13
  6
CONTINUOUS
 10
103.093446
 20
10.430307
 11
103.336830
 21
10.409453
 12
103.286182
 22
10.410821
 13
103.286182
 23
10.410821
  0
SOLID
  8
13
  6
CONTINUOUS
 10
103.093446
 20
10.430307
 11
103.286182
 21
10.410821
 12
103.241261
 22
10.413321
 13
103.241261
 23
10.413321
  0
SOLID
  8
13
  6
CONTINUOUS
 10
103.093446
 20
10.430307
 11
103.241261
 21
10.413321
 12
103.205545
 22
10.416539
 13
103.205545
 23
10.416539
  0
SOLID
  8
13
  6
CONTINUOUS
 10
103.093446
 20
10.430307
 11
103.205545
 21
10.416539
 12
103.155349
 22
10.421044
 13
103.155349
 23
10.421044
  0
SOLID
  8
13
  6
CONTINUOUS
 10
103.093446
 20
10.430307
 11
103.155349
 21
10.421044
 12
103.093446
 22
10.430307
 13
103.093446
 23
10.430307
  0
SOLID
  8
13
  6
CONTINUOUS
 10
102.594246
 20
9.498246
 11
102.594246
 21
11.162246
 12
102.522746
 22
11.162246
 13
102.522746
 23
11.162246
  0
SOLID
  8
13
  6
CONTINUOUS
 10
102.594246
 20
9.498246
 11
102.522746
 21
11.162246
 12
102.522746
 22
9.498246
 13
102.522746
 23
9.498246
  0
SOLID
  8
13
  6
CONTINUOUS
 10
102.594246
 20
9.498246
 11
102.522746
 21
9.498246
 12
102.522746
 22
9.498246
 13
102.522746
 23
9.498246
  0
SOLID
  8
13
  6
CONTINUOUS
 10
103.021946
 20
11.162246
 11
103.093446
 21
11.162246
 12
103.093446
 22
9.498246
 13
103.093446
 23
9.498246
  0
SOLID
  8
13
  6
CONTINUOUS
 10
103.021946
 20
11.162246
 11
103.093446
 21
9.498246
 12
103.021946
 22
9.498246
 13
103.021946
 23
9.498246
  0
SOLID
  8
13
  6
CONTINUOUS
 10
103.021946
 20
11.162246
 11
103.021946
 21
9.498246
 12
103.021946
 22
11.162246
 13
103.021946
 23
11.162246
  0
SOLID
  8
13
  6
CONTINUOUS
 10
103.521146
 20
9.498246
 11
103.635546
 21
9.498246
 12
103.635546
 22
11.162246
 13
103.635546
 23
11.162246
  0
SOLID
  8
13
  6
CONTINUOUS
 10
103.521146
 20
9.498246
 11
103.635546
 21
11.162246
 12
103.521146
 22
11.162246
 13
103.521146
 23
11.162246
  0
SOLID
  8
13
  6
CONTINUOUS
 10
103.521146
 20
9.498246
 11
103.521146
 21
11.162246
 12
103.521146
 22
9.498246
 13
103.521146
 23
9.498246
  0
POLYLINE
  8
1
  6
CONTINUOUS
 66
     1
  0
VERTEX
  8
1
  6
CONTINUOUS
 10
54.216508
 20
33.940327
  0
VERTEX
  8
1
  6
CONTINUOUS
 10
54.216508
 20
30.140327
  0
SEQEND
  8
1
  6
CONTINUOUS
  0
POLYLINE
  8
1
  6
CONTINUOUS
 66
     1
  0
VERTEX
  8
1
  6
CONTINUOUS
 10
54.616508
 20
30.140327
  0
VERTEX
  8
1
  6
CONTINUOUS
 10
54.616508
 20
33.940327
  0
SEQEND
  8
1
  6
CONTINUOUS
  0
POLYLINE
  8
1
  6
CONTINUOUS
 66
     1
  0
VERTEX
  8
1
  6
CONTINUOUS
 10
7.077003
 20
13.643711
  0
VERTEX
  8
1
  6
CONTINUOUS
 10
6.341934
 20
14.549674
  0
SEQEND
  8
1
  6
CONTINUOUS
  0
POLYLINE
  8
1
  6
CONTINUOUS
 66
     1
  0
VERTEX
  8
1
  6
CONTINUOUS
 10
5.884208
 20
14.161531
  0
VERTEX
  8
1
  6
CONTINUOUS
 10
6.626715
 20
13.246399
  0
SEQEND
  8
1
  6
CONTINUOUS
  0
POLYLINE
  8
1
  6
CONTINUOUS
 66
     1
  0
VERTEX
  8
1
  6
CONTINUOUS
 10
7.823342
 20
12.865232
  0
VERTEX
  8
1
  6
CONTINUOUS
 10
7.077003
 20
13.643711
  0
SEQEND
  8
1
  6
CONTINUOUS
  0
POLYLINE
  8
1
  6
CONTINUOUS
 66
     1
  0
VERTEX
  8
1
  6
CONTINUOUS
 10
6.626715
 20
13.246399
  0
VERTEX
  8
1
  6
CONTINUOUS
 10
7.397760
 20
12.442149
  0
SEQEND
  8
1
  6
CONTINUOUS
  0
POLYLINE
  8
1
  6
CONTINUOUS
 66
     1
  0
VERTEX
  8
1
  6
CONTINUOUS
 10
8.605181
 20
12.106786
  0
VERTEX
  8
1
  6
CONTINUOUS
 10
7.823342
 20
12.865232
  0
SEQEND
  8
1
  6
CONTINUOUS
  0
POLYLINE
  8
1
  6
CONTINUOUS
 66
     1
  0
VERTEX
  8
1
  6
CONTINUOUS
 10
7.397760
 20
12.442149
  0
VERTEX
  8
1
  6
CONTINUOUS
 10
8.197141
 20
11.666687
  0
SEQEND
  8
1
  6
CONTINUOUS
  0
POLYLINE
  8
1
  6
CONTINUOUS
 66
     1
  0
VERTEX
  8
1
  6
CONTINUOUS
 10
9.418317
 20
11.386354
  0
VERTEX
  8
1
  6
CONTINUOUS
 10
8.605181
 20
12.106786
  0
SEQEND
  8
1
  6
CONTINUOUS
  0
POLYLINE
  8
1
  6
CONTINUOUS
 66
     1
  0
VERTEX
  8
1
  6
CONTINUOUS
 10
8.197141
 20
11.666687
  0
VERTEX
  8
1
  6
CONTINUOUS
 10
9.028958
 20
10.929704
  0
SEQEND
  8
1
  6
CONTINUOUS
  0
POLYLINE
  8
1
  6
CONTINUOUS
 66
     1
  0
VERTEX
  8
1
  6
CONTINUOUS
 10
10.256145
 20
10.699041
  0
VERTEX
  8
1
  6
CONTINUOUS
 10
9.418317
 20
11.386354
  0
SEQEND
  8
1
  6
CONTINUOUS
  0
POLYLINE
  8
1
  6
CONTINUOUS
 66
     1
  0
VERTEX
  8
1
  6
CONTINUOUS
 10
9.028958
 20
10.929704
  0
VERTEX
  8
1
  6
CONTINUOUS
 10
9.884567
 20
10.227804
  0
SEQEND
  8
1
  6
CONTINUOUS
  0
POLYLINE
  8
1
  6
CONTINUOUS
 66
     1
  0
VERTEX
  8
1
  6
CONTINUOUS
 10
11.122118
 20
10.042945
  0
VERTEX
  8
1
  6
CONTINUOUS
 10
10.256145
 20
10.699041
  0
SEQEND
  8
1
  6
CONTINUOUS
  0
POLYLINE
  8
1
  6
CONTINUOUS
 66
     1
  0
VERTEX
  8
1
  6
CONTINUOUS
 10
9.884567
 20
10.227804
  0
VERTEX
  8
1
  6
CONTINUOUS
 10
10.769447
 20
9.557383
  0
SEQEND
  8
1
  6
CONTINUOUS
  0
POLYLINE
  8
1
  6
CONTINUOUS
 66
     1
  0
VERTEX
  8
1
  6
CONTINUOUS
 10
12.014388
 20
9.422018
  0
VERTEX
  8
1
  6
CONTINUOUS
 10
11.122118
 20
10.042945
  0
SEQEND
  8
1
  6
CONTINUOUS
  0
POLYLINE
  8
1
  6
CONTINUOUS
 66
     1
  0
VERTEX
  8
1
  6
CONTINUOUS
 10
10.769447
 20
9.557383
  0
VERTEX
  8
1
  6
CONTINUOUS
 10
11.681792
 20
8.922486
  0
SEQEND
  8
1
  6
CONTINUOUS
  0
POLYLINE
  8
1
  6
CONTINUOUS
 66
     1
  0
VERTEX
  8
1
  6
CONTINUOUS
 10
12.929386
 20
8.839577
  0
VERTEX
  8
1
  6
CONTINUOUS
 10
12.014388
 20
9.422018
  0
SEQEND
  8
1
  6
CONTINUOUS
  0
POLYLINE
  8
1
  6
CONTINUOUS
 66
     1
  0
VERTEX
  8
1
  6
CONTINUOUS
 10
11.681792
 20
8.922486
  0
VERTEX
  8
1
  6
CONTINUOUS
 10
12.617842
 20
8.326645
  0
SEQEND
  8
1
  6
CONTINUOUS
  0
POLYLINE
  8
1
  6
CONTINUOUS
 66
     1
  0
VERTEX
  8
1
  6
CONTINUOUS
 10
13.056429
 20
8.766026
  0
VERTEX
  8
1
  6
CONTINUOUS
 10
12.929386
 20
8.839577
  0
SEQEND
  8
1
  6
CONTINUOUS
  0
POLYLINE
  8
1
  6
CONTINUOUS
 66
     1
  0
VERTEX
  8
1
  6
CONTINUOUS
 10
12.617842
 20
8.326645
  0
VERTEX
  8
1
  6
CONTINUOUS
 10
12.753484
 20
8.248116
  0
SEQEND
  8
1
  6
CONTINUOUS
  0
POLYLINE
  8
1
  6
CONTINUOUS
 66
     1
  0
VERTEX
  8
1
  6
CONTINUOUS
 10
13.870911
 20
8.294487
  0
VERTEX
  8
1
  6
CONTINUOUS
 10
13.402604
 20
8.565611
  0
SEQEND
  8
1
  6
CONTINUOUS
  0
POLYLINE
  8
1
  6
CONTINUOUS
 66
     1
  0
VERTEX
  8
1
  6
CONTINUOUS
 10
13.099658
 20
8.047700
  0
VERTEX
  8
1
  6
CONTINUOUS
 10
13.579796
 20
7.769727
  0
SEQEND
  8
1
  6
CONTINUOUS
  0
POLYLINE
  8
1
  6
CONTINUOUS
 66
     1
  0
VERTEX
  8
1
  6
CONTINUOUS
 10
14.827915
 20
7.786261
  0
VERTEX
  8
1
  6
CONTINUOUS
 10
13.870911
 20
8.294487
  0
SEQEND
  8
1
  6
CONTINUOUS
  0
POLYLINE
  8
1
  6
CONTINUOUS
 66
     1
  0
VERTEX
  8
1
  6
CONTINUOUS
 10
13.579796
 20
7.769727
  0
VERTEX
  8
1
  6
CONTINUOUS
 10
14.558221
 20
7.250126
  0
SEQEND
  8
1
  6
CONTINUOUS
  0
POLYLINE
  8
1
  6
CONTINUOUS
 66
     1
  0
VERTEX
  8
1
  6
CONTINUOUS
 10
15.806315
 20
7.320911
  0
VERTEX
  8
1
  6
CONTINUOUS
 10
14.827915
 20
7.786261
  0
SEQEND
  8
1
  6
CONTINUOUS
  0
POLYLINE
  8
1
  6
CONTINUOUS
 66
     1
  0
VERTEX
  8
1
  6
CONTINUOUS
 10
14.558221
 20
7.250126
  0
VERTEX
  8
1
  6
CONTINUOUS
 10
15.558678
 20
6.774284
  0
SEQEND
  8
1
  6
CONTINUOUS
  0
POLYLINE
  8
1
  6
CONTINUOUS
 66
     1
  0
VERTEX
  8
1
  6
CONTINUOUS
 10
16.801801
 20
6.892046
  0
VERTEX
  8
1
  6
CONTINUOUS
 10
15.806315
 20
7.320911
  0
SEQEND
  8
1
  6
CONTINUOUS
  0
POLYLINE
  8
1
  6
CONTINUOUS
 66
     1
  0
VERTEX
  8
1
  6
CONTINUOUS
 10
15.558678
 20
6.774284
  0
VERTEX
  8
1
  6
CONTINUOUS
 10
16.575944
 20
6.336037
  0
SEQEND
  8
1
  6
CONTINUOUS
  0
POLYLINE
  8
1
  6
CONTINUOUS
 66
     1
  0
VERTEX
  8
1
  6
CONTINUOUS
 10
17.816673
 20
6.504337
  0
VERTEX
  8
1
  6
CONTINUOUS
 10
16.801801
 20
6.892046
  0
SEQEND
  8
1
  6
CONTINUOUS
  0
POLYLINE
  8
1
  6
CONTINUOUS
 66
     1
  0
VERTEX
  8
1
  6
CONTINUOUS
 10
16.575944
 20
6.336037
  0
VERTEX
  8
1
  6
CONTINUOUS
 10
17.613390
 20
5.939704
  0
SEQEND
  8
1
  6
CONTINUOUS
  0
POLYLINE
  8
1
  6
CONTINUOUS
 66
     1
  0
VERTEX
  8
1
  6
CONTINUOUS
 10
18.849662
 20
6.154845
  0
VERTEX
  8
1
  6
CONTINUOUS
 10
17.816673
 20
6.504337
  0
SEQEND
  8
1
  6
CONTINUOUS
  0
POLYLINE
  8
1
  6
CONTINUOUS
 66
     1
  0
VERTEX
  8
1
  6
CONTINUOUS
 10
17.613390
 20
5.939704
  0
VERTEX
  8
1
  6
CONTINUOUS
 10
18.657371
 20
5.586493
  0
SEQEND
  8
1
  6
CONTINUOUS
  0
POLYLINE
  8
1
  6
CONTINUOUS
 66
     1
  0
VERTEX
  8
1
  6
CONTINUOUS
 10
19.584966
 20
5.934449
  0
VERTEX
  8
1
  6
CONTINUOUS
 10
18.839719
 20
6.158018
  0
SEQEND
  8
1
  6
CONTINUOUS
  0
POLYLINE
  8
1
  6
CONTINUOUS
 66
     1
  0
VERTEX
  8
1
  6
CONTINUOUS
 10
18.667314
 20
5.583321
  0
VERTEX
  8
1
  6
CONTINUOUS
 10
19.424457
 20
5.356183
  0
SEQEND
  8
1
  6
CONTINUOUS
  0
POLYLINE
  8
1
  6
CONTINUOUS
 66
     1
  0
VERTEX
  8
1
  6
CONTINUOUS
 10
19.025955
 20
6.077222
  0
VERTEX
  8
1
  6
CONTINUOUS
 10
19.584966
 20
5.934449
  0
SEQEND
  8
1
  6
CONTINUOUS
  0
POLYLINE
  8
1
  6
CONTINUOUS
 66
     1
  0
VERTEX
  8
1
  6
CONTINUOUS
 10
19.424457
 20
5.356183
  0
VERTEX
  8
1
  6
CONTINUOUS
 10
19.911743
 20
5.231728
  0
SEQEND
  8
1
  6
CONTINUOUS
  0
POLYLINE
  8
1
  6
CONTINUOUS
 66
     1
  0
VERTEX
  8
1
  6
CONTINUOUS
 10
20.937778
 20
5.588936
  0
VERTEX
  8
1
  6
CONTINUOUS
 10
20.685059
 20
5.653481
  0
SEQEND
  8
1
  6
CONTINUOUS
  0
POLYLINE
  8
1
  6
CONTINUOUS
 66
     1
  0
VERTEX
  8
1
  6
CONTINUOUS
 10
19.911743
 20
5.231728
  0
VERTEX
  8
1
  6
CONTINUOUS
 10
20.802002
 20
5.004353
  0
SEQEND
  8
1
  6
CONTINUOUS
  0
POLYLINE
  8
1
  6
CONTINUOUS
 66
     1
  0
VERTEX
  8
1
  6
CONTINUOUS
 10
21.997523
 20
5.367073
  0
VERTEX
  8
1
  6
CONTINUOUS
 10
20.937778
 20
5.588936
  0
SEQEND
  8
1
  6
CONTINUOUS
  0
POLYLINE
  8
1
  6
CONTINUOUS
 66
     1
  0
VERTEX
  8
1
  6
CONTINUOUS
 10
20.802002
 20
5.004353
  0
VERTEX
  8
1
  6
CONTINUOUS
 10
21.887027
 20
4.777198
  0
SEQEND
  8
1
  6
CONTINUOUS
  0
POLYLINE
  8
1
  6
CONTINUOUS
 66
     1
  0
VERTEX
  8
1
  6
CONTINUOUS
 10
22.180172
 20
5.336852
  0
VERTEX
  8
1
  6
CONTINUOUS
 10
21.997523
 20
5.367073
  0
SEQEND
  8
1
  6
CONTINUOUS
  0
POLYLINE
  8
1
  6
CONTINUOUS
 66
     1
  0
VERTEX
  8
1
  6
CONTINUOUS
 10
21.887027
 20
4.777198
  0
VERTEX
  8
1
  6
CONTINUOUS
 10
22.082538
 20
4.744849
  0
SEQEND
  8
1
  6
CONTINUOUS
  0
POLYLINE
  8
1
  6
CONTINUOUS
 66
     1
  0
VERTEX
  8
1
  6
CONTINUOUS
 10
23.067126
 20
5.190097
  0
VERTEX
  8
1
  6
CONTINUOUS
 10
22.772123
 20
5.238908
  0
SEQEND
  8
1
  6
CONTINUOUS
  0
POLYLINE
  8
1
  6
CONTINUOUS
 66
     1
  0
VERTEX
  8
1
  6
CONTINUOUS
 10
22.674490
 20
4.646905
  0
VERTEX
  8
1
  6
CONTINUOUS
 10
22.980648
 20
4.596248
  0
SEQEND
  8
1
  6
CONTINUOUS
  0
POLYLINE
  8
1
  6
CONTINUOUS
 66
     1
  0
VERTEX
  8
1
  6
CONTINUOUS
 10
24.143546
 20
5.054578
  0
VERTEX
  8
1
  6
CONTINUOUS
 10
23.067126
 20
5.190097
  0
SEQEND
  8
1
  6
CONTINUOUS
  0
POLYLINE
  8
1
  6
CONTINUOUS
 66
     1
  0
VERTEX
  8
1
  6
CONTINUOUS
 10
22.980648
 20
4.596248
  0
VERTEX
  8
1
  6
CONTINUOUS
 10
24.080886
 20
4.457730
  0
SEQEND
  8
1
  6
CONTINUOUS
  0
POLYLINE
  8
1
  6
CONTINUOUS
 66
     1
  0
VERTEX
  8
1
  6
CONTINUOUS
 10
25.229688
 20
4.963165
  0
VERTEX
  8
1
  6
CONTINUOUS
 10
24.143546
 20
5.054578
  0
SEQEND
  8
1
  6
CONTINUOUS
  0
POLYLINE
  8
1
  6
CONTINUOUS
 66
     1
  0
VERTEX
  8
1
  6
CONTINUOUS
 10
24.080886
 20
4.457730
  0
VERTEX
  8
1
  6
CONTINUOUS
 10
25.179368
 20
4.365278
  0
SEQEND
  8
1
  6
CONTINUOUS
  0
POLYLINE
  8
1
  6
CONTINUOUS
 66
     1
  0
VERTEX
  8
1
  6
CONTINUOUS
 10
25.968391
 20
4.924466
  0
VERTEX
  8
1
  6
CONTINUOUS
 10
25.220282
 20
4.963808
  0
SEQEND
  8
1
  6
CONTINUOUS
  0
POLYLINE
  8
1
  6
CONTINUOUS
 66
     1
  0
VERTEX
  8
1
  6
CONTINUOUS
 10
25.188773
 20
4.364636
  0
VERTEX
  8
1
  6
CONTINUOUS
 10
25.950151
 20
4.324596
  0
SEQEND
  8
1
  6
CONTINUOUS
  0
POLYLINE
  8
1
  6
CONTINUOUS
 66
     1
  0
VERTEX
  8
1
  6
CONTINUOUS
 10
25.829628
 20
4.925611
  0
VERTEX
  8
1
  6
CONTINUOUS
 10
25.968391
 20
4.924466
  0
SEQEND
  8
1
  6
CONTINUOUS
  0
POLYLINE
  8
1
  6
CONTINUOUS
 66
     1
  0
VERTEX
  8
1
  6
CONTINUOUS
 10
25.950151
 20
4.324596
  0
VERTEX
  8
1
  6
CONTINUOUS
 10
26.692954
 20
4.318466
  0
SEQEND
  8
1
  6
CONTINUOUS
  0
POLYLINE
  8
1
  6
CONTINUOUS
 66
     1
  0
VERTEX
  8
1
  6
CONTINUOUS
 10
27.474914
 20
4.912034
  0
VERTEX
  8
1
  6
CONTINUOUS
 10
27.332239
 20
4.913211
  0
SEQEND
  8
1
  6
CONTINUOUS
  0
POLYLINE
  8
1
  6
CONTINUOUS
 66
     1
  0
VERTEX
  8
1
  6
CONTINUOUS
 10
26.692954
 20
4.318466
  0
VERTEX
  8
1
  6
CONTINUOUS
 10
27.483711
 20
4.311941
  0
SEQEND
  8
1
  6
CONTINUOUS
  0
POLYLINE
  8
1
  6
CONTINUOUS
 66
     1
  0
VERTEX
  8
1
  6
CONTINUOUS
 10
28.473935
 20
4.949584
  0
VERTEX
  8
1
  6
CONTINUOUS
 10
27.474914
 20
4.912034
  0
SEQEND
  8
1
  6
CONTINUOUS
  0
POLYLINE
  8
1
  6
CONTINUOUS
 66
     1
  0
VERTEX
  8
1
  6
CONTINUOUS
 10
27.483711
 20
4.311941
  0
VERTEX
  8
1
  6
CONTINUOUS
 10
28.507920
 20
4.350438
  0
SEQEND
  8
1
  6
CONTINUOUS
  0
POLYLINE
  8
1
  6
CONTINUOUS
 66
     1
  0
VERTEX
  8
1
  6
CONTINUOUS
 10
29.554619
 20
5.031607
  0
VERTEX
  8
1
  6
CONTINUOUS
 10
28.473935
 20
4.949584
  0
SEQEND
  8
1
  6
CONTINUOUS
  0
POLYLINE
  8
1
  6
CONTINUOUS
 66
     1
  0
VERTEX
  8
1
  6
CONTINUOUS
 10
28.507920
 20
4.350438
  0
VERTEX
  8
1
  6
CONTINUOUS
 10
29.612219
 20
4.434254
  0
SEQEND
  8
1
  6
CONTINUOUS
  0
POLYLINE
  8
1
  6
CONTINUOUS
 66
     1
  0
VERTEX
  8
1
  6
CONTINUOUS
 10
30.631181
 20
5.157602
  0
VERTEX
  8
1
  6
CONTINUOUS
 10
29.554619
 20
5.031607
  0
SEQEND
  8
1
  6
CONTINUOUS
  0
POLYLINE
  8
1
  6
CONTINUOUS
 66
     1
  0
VERTEX
  8
1
  6
CONTINUOUS
 10
29.612219
 20
4.434254
  0
VERTEX
  8
1
  6
CONTINUOUS
 10
30.712741
 20
4.563052
  0
SEQEND
  8
1
  6
CONTINUOUS
  0
POLYLINE
  8
1
  6
CONTINUOUS
 66
     1
  0
VERTEX
  8
1
  6
CONTINUOUS
 10
31.701849
 20
5.326162
  0
VERTEX
  8
1
  6
CONTINUOUS
 10
30.631181
 20
5.157602
  0
SEQEND
  8
1
  6
CONTINUOUS
  0
POLYLINE
  8
1
  6
CONTINUOUS
 66
     1
  0
VERTEX
  8
1
  6
CONTINUOUS
 10
30.712741
 20
4.563052
  0
VERTEX
  8
1
  6
CONTINUOUS
 10
31.807158
 20
4.735351
  0
SEQEND
  8
1
  6
CONTINUOUS
  0
POLYLINE
  8
1
  6
CONTINUOUS
 66
     1
  0
VERTEX
  8
1
  6
CONTINUOUS
 10
32.764280
 20
5.537803
  0
VERTEX
  8
1
  6
CONTINUOUS
 10
31.701849
 20
5.326162
  0
SEQEND
  8
1
  6
CONTINUOUS
  0
POLYLINE
  8
1
  6
CONTINUOUS
 66
     1
  0
VERTEX
  8
1
  6
CONTINUOUS
 10
31.807158
 20
4.735351
  0
VERTEX
  8
1
  6
CONTINUOUS
 10
32.893694
 20
4.951794
  0
SEQEND
  8
1
  6
CONTINUOUS
  0
POLYLINE
  8
1
  6
CONTINUOUS
 66
     1
  0
VERTEX
  8
1
  6
CONTINUOUS
 10
33.058984
 20
5.609320
  0
VERTEX
  8
1
  6
CONTINUOUS
 10
32.764280
 20
5.537803
  0
SEQEND
  8
1
  6
CONTINUOUS
  0
POLYLINE
  8
1
  6
CONTINUOUS
 66
     1
  0
VERTEX
  8
1
  6
CONTINUOUS
 10
32.893694
 20
4.951794
  0
VERTEX
  8
1
  6
CONTINUOUS
 10
33.928275
 20
5.202860
  0
SEQEND
  8
1
  6
CONTINUOUS
  0
POLYLINE
  8
1
  6
CONTINUOUS
 66
     1
  0
VERTEX
  8
1
  6
CONTINUOUS
 10
34.866768
 20
6.091036
  0
VERTEX
  8
1
  6
CONTINUOUS
 10
34.421410
 20
5.965396
  0
SEQEND
  8
1
  6
CONTINUOUS
  0
POLYLINE
  8
1
  6
CONTINUOUS
 66
     1
  0
VERTEX
  8
1
  6
CONTINUOUS
 10
33.928275
 20
5.202860
  0
VERTEX
  8
1
  6
CONTINUOUS
 10
35.029675
 20
5.513575
  0
SEQEND
  8
1
  6
CONTINUOUS
  0
POLYLINE
  8
1
  6
CONTINUOUS
 66
     1
  0
VERTEX
  8
1
  6
CONTINUOUS
 10
35.744880
 20
6.370233
  0
VERTEX
  8
1
  6
CONTINUOUS
 10
34.857370
 20
6.088218
  0
SEQEND
  8
1
  6
CONTINUOUS
  0
POLYLINE
  8
1
  6
CONTINUOUS
 66
     1
  0
VERTEX
  8
1
  6
CONTINUOUS
 10
35.039073
 20
5.516393
  0
VERTEX
  8
1
  6
CONTINUOUS
 10
36.092520
 20
5.851136
  0
SEQEND
  8
1
  6
CONTINUOUS
  0
POLYLINE
  8
1
  6
CONTINUOUS
 66
     1
  0
VERTEX
  8
1
  6
CONTINUOUS
 10
39.410567
 20
7.756569
  0
VERTEX
  8
1
  6
CONTINUOUS
 10
36.161576
 20
6.519454
  0
SEQEND
  8
1
  6
CONTINUOUS
  0
POLYLINE
  8
1
  6
CONTINUOUS
 66
     1
  0
VERTEX
  8
1
  6
CONTINUOUS
 10
36.092520
 20
5.851136
  0
VERTEX
  8
1
  6
CONTINUOUS
 10
40.558540
 20
7.551657
  0
SEQEND
  8
1
  6
CONTINUOUS
  0
POLYLINE
  8
1
  6
CONTINUOUS
 66
     1
  0
VERTEX
  8
1
  6
CONTINUOUS
 10
44.464707
 20
9.681027
  0
VERTEX
  8
1
  6
CONTINUOUS
 10
41.279657
 20
8.468260
  0
SEQEND
  8
1
  6
CONTINUOUS
  0
POLYLINE
  8
1
  6
CONTINUOUS
 66
     1
  0
VERTEX
  8
1
  6
CONTINUOUS
 10
40.558540
 20
7.551657
  0
VERTEX
  8
1
  6
CONTINUOUS
 10
44.678055
 20
9.120240
  0
SEQEND
  8
1
  6
CONTINUOUS
  0
POLYLINE
  8
1
  6
CONTINUOUS
 66
     1
  0
VERTEX
  8
1
  6
CONTINUOUS
 10
45.952381
 20
10.247487
  0
VERTEX
  8
1
  6
CONTINUOUS
 10
45.025434
 20
9.894534
  0
SEQEND
  8
1
  6
CONTINUOUS
  0
POLYLINE
  8
1
  6
CONTINUOUS
 66
     1
  0
VERTEX
  8
1
  6
CONTINUOUS
 10
45.238782
 20
9.333747
  0
VERTEX
  8
1
  6
CONTINUOUS
 10
47.100354
 20
10.042575
  0
SEQEND
  8
1
  6
CONTINUOUS
  0
POLYLINE
  8
1
  6
CONTINUOUS
 66
     1
  0
VERTEX
  8
1
  6
CONTINUOUS
 10
52.400741
 20
12.702821
  0
VERTEX
  8
1
  6
CONTINUOUS
 10
47.821471
 20
10.959178
  0
SEQEND
  8
1
  6
CONTINUOUS
  0
POLYLINE
  8
1
  6
CONTINUOUS
 66
     1
  0
VERTEX
  8
1
  6
CONTINUOUS
 10
47.100354
 20
10.042575
  0
VERTEX
  8
1
  6
CONTINUOUS
 10
53.268350
 20
12.391155
  0
SEQEND
  8
1
  6
CONTINUOUS
  0
POLYLINE
  8
1
  6
CONTINUOUS
 66
     1
  0
VERTEX
  8
1
  6
CONTINUOUS
 10
55.679245
 20
13.951173
  0
VERTEX
  8
1
  6
CONTINUOUS
 10
53.709103
 20
13.201005
  0
SEQEND
  8
1
  6
CONTINUOUS
  0
POLYLINE
  8
1
  6
CONTINUOUS
 66
     1
  0
VERTEX
  8
1
  6
CONTINUOUS
 10
53.268350
 20
12.391155
  0
VERTEX
  8
1
  6
CONTINUOUS
 10
55.892593
 20
13.390385
  0
SEQEND
  8
1
  6
CONTINUOUS
  0
POLYLINE
  8
1
  6
CONTINUOUS
 66
     1
  0
VERTEX
  8
1
  6
CONTINUOUS
 10
64.886575
 20
17.457037
  0
VERTEX
  8
1
  6
CONTINUOUS
 10
56.239972
 20
14.164680
  0
SEQEND
  8
1
  6
CONTINUOUS
  0
POLYLINE
  8
1
  6
CONTINUOUS
 66
     1
  0
VERTEX
  8
1
  6
CONTINUOUS
 10
56.453320
 20
13.603893
  0
VERTEX
  8
1
  6
CONTINUOUS
 10
65.099923
 20
16.896249
  0
SEQEND
  8
1
  6
CONTINUOUS
  0
POLYLINE
  8
1
  6
CONTINUOUS
 66
     1
  0
VERTEX
  8
1
  6
CONTINUOUS
 10
18.667314
 20
5.583321
  0
VERTEX
  8
1
  6
CONTINUOUS
 10
18.657371
 20
5.586493
  0
SEQEND
  8
1
  6
CONTINUOUS
  0
POLYLINE
  8
1
  6
CONTINUOUS
 66
     1
  0
VERTEX
  8
1
  6
CONTINUOUS
 10
18.839719
 20
6.158018
  0
VERTEX
  8
1
  6
CONTINUOUS
 10
18.849662
 20
6.154845
  0
SEQEND
  8
1
  6
CONTINUOUS
  0
POLYLINE
  8
1
  6
CONTINUOUS
 66
     1
  0
VERTEX
  8
1
  6
CONTINUOUS
 10
25.188773
 20
4.364636
  0
VERTEX
  8
1
  6
CONTINUOUS
 10
25.179368
 20
4.365278
  0
SEQEND
  8
1
  6
CONTINUOUS
  0
POLYLINE
  8
1
  6
CONTINUOUS
 66
     1
  0
VERTEX
  8
1
  6
CONTINUOUS
 10
25.220282
 20
4.963808
  0
VERTEX
  8
1
  6
CONTINUOUS
 10
25.229688
 20
4.963165
  0
SEQEND
  8
1
  6
CONTINUOUS
  0
POLYLINE
  8
1
  6
CONTINUOUS
 66
     1
  0
VERTEX
  8
1
  6
CONTINUOUS
 10
35.039073
 20
5.516393
  0
VERTEX
  8
1
  6
CONTINUOUS
 10
35.029675
 20
5.513575
  0
SEQEND
  8
1
  6
CONTINUOUS
  0
POLYLINE
  8
1
  6
CONTINUOUS
 66
     1
  0
VERTEX
  8
1
  6
CONTINUOUS
 10
34.857370
 20
6.088218
  0
VERTEX
  8
1
  6
CONTINUOUS
 10
34.866768
 20
6.091036
  0
SEQEND
  8
1
  6
CONTINUOUS
  0
POLYLINE
  8
1
  6
CONTINUOUS
 66
     1
  0
VERTEX
  8
1
  6
CONTINUOUS
 10
5.688139
 20
15.716134
  0
VERTEX
  8
1
  6
CONTINUOUS
 10
5.741963
 20
14.535384
  0
SEQEND
  8
1
  6
CONTINUOUS
  0
POLYLINE
  8
1
  6
CONTINUOUS
 66
     1
  0
VERTEX
  8
1
  6
CONTINUOUS
 10
6.341934
 20
14.549674
  0
VERTEX
  8
1
  6
CONTINUOUS
 10
6.288640
 20
15.718807
  0
SEQEND
  8
1
  6
CONTINUOUS
  0
POLYLINE
  8
1
  6
CONTINUOUS
 66
     1
  0
VERTEX
  8
1
  6
CONTINUOUS
 10
5.729187
 20
16.835640
  0
VERTEX
  8
1
  6
CONTINUOUS
 10
5.688139
 20
15.716134
  0
SEQEND
  8
1
  6
CONTINUOUS
  0
POLYLINE
  8
1
  6
CONTINUOUS
 66
     1
  0
VERTEX
  8
1
  6
CONTINUOUS
 10
6.288640
 20
15.718807
  0
VERTEX
  8
1
  6
CONTINUOUS
 10
6.328350
 20
16.801817
  0
SEQEND
  8
1
  6
CONTINUOUS
  0
POLYLINE
  8
1
  6
CONTINUOUS
 66
     1
  0
VERTEX
  8
1
  6
CONTINUOUS
 10
5.813563
 20
17.941800
  0
VERTEX
  8
1
  6
CONTINUOUS
 10
5.729187
 20
16.835640
  0
SEQEND
  8
1
  6
CONTINUOUS
  0
POLYLINE
  8
1
  6
CONTINUOUS
 66
     1
  0
VERTEX
  8
1
  6
CONTINUOUS
 10
6.328350
 20
16.801817
  0
VERTEX
  8
1
  6
CONTINUOUS
 10
6.410914
 20
17.884224
  0
SEQEND
  8
1
  6
CONTINUOUS
  0
POLYLINE
  8
1
  6
CONTINUOUS
 66
     1
  0
VERTEX
  8
1
  6
CONTINUOUS
 10
5.941989
 20
19.043496
  0
VERTEX
  8
1
  6
CONTINUOUS
 10
5.813563
 20
17.941800
  0
SEQEND
  8
1
  6
CONTINUOUS
  0
POLYLINE
  8
1
  6
CONTINUOUS
 66
     1
  0
VERTEX
  8
1
  6
CONTINUOUS
 10
6.410914
 20
17.884224
  0
VERTEX
  8
1
  6
CONTINUOUS
 10
6.536487
 20
18.961446
  0
SEQEND
  8
1
  6
CONTINUOUS
  0
POLYLINE
  8
1
  6
CONTINUOUS
 66
     1
  0
VERTEX
  8
1
  6
CONTINUOUS
 10
6.117230
 20
20.141599
  0
VERTEX
  8
1
  6
CONTINUOUS
 10
5.941989
 20
19.043496
  0
SEQEND
  8
1
  6
CONTINUOUS
  0
POLYLINE
  8
1
  6
CONTINUOUS
 66
     1
  0
VERTEX
  8
1
  6
CONTINUOUS
 10
6.536487
 20
18.961446
  0
VERTEX
  8
1
  6
CONTINUOUS
 10
6.708022
 20
20.036328
  0
SEQEND
  8
1
  6
CONTINUOUS
  0
POLYLINE
  8
1
  6
CONTINUOUS
 66
     1
  0
VERTEX
  8
1
  6
CONTINUOUS
 10
6.332258
 20
21.233633
  0
VERTEX
  8
1
  6
CONTINUOUS
 10
6.117230
 20
20.141599
  0
SEQEND
  8
1
  6
CONTINUOUS
  0
POLYLINE
  8
1
  6
CONTINUOUS
 66
     1
  0
VERTEX
  8
1
  6
CONTINUOUS
 10
6.708022
 20
20.036328
  0
VERTEX
  8
1
  6
CONTINUOUS
 10
6.918376
 20
21.104619
  0
SEQEND
  8
1
  6
CONTINUOUS
  0
POLYLINE
  8
1
  6
CONTINUOUS
 66
     1
  0
VERTEX
  8
1
  6
CONTINUOUS
 10
6.592382
 20
22.301654
  0
VERTEX
  8
1
  6
CONTINUOUS
 10
6.332258
 20
21.233633
  0
SEQEND
  8
1
  6
CONTINUOUS
  0
POLYLINE
  8
1
  6
CONTINUOUS
 66
     1
  0
VERTEX
  8
1
  6
CONTINUOUS
 10
6.918376
 20
21.104619
  0
VERTEX
  8
1
  6
CONTINUOUS
 10
7.175341
 20
22.159671
  0
SEQEND
  8
1
  6
CONTINUOUS
  0
POLYLINE
  8
1
  6
CONTINUOUS
 66
     1
  0
VERTEX
  8
1
  6
CONTINUOUS
 10
6.777444
 20
22.975067
  0
VERTEX
  8
1
  6
CONTINUOUS
 10
6.594601
 20
22.310213
  0
SEQEND
  8
1
  6
CONTINUOUS
  0
POLYLINE
  8
1
  6
CONTINUOUS
 66
     1
  0
VERTEX
  8
1
  6
CONTINUOUS
 10
7.173122
 20
22.151112
  0
VERTEX
  8
1
  6
CONTINUOUS
 10
7.352736
 20
22.804222
  0
SEQEND
  8
1
  6
CONTINUOUS
  0
POLYLINE
  8
1
  6
CONTINUOUS
 66
     1
  0
VERTEX
  8
1
  6
CONTINUOUS
 10
6.952826
 20
23.524517
  0
VERTEX
  8
1
  6
CONTINUOUS
 10
6.777444
 20
22.975067
  0
SEQEND
  8
1
  6
CONTINUOUS
  0
POLYLINE
  8
1
  6
CONTINUOUS
 66
     1
  0
VERTEX
  8
1
  6
CONTINUOUS
 10
7.352736
 20
22.804222
  0
VERTEX
  8
1
  6
CONTINUOUS
 10
7.584712
 20
23.530975
  0
SEQEND
  8
1
  6
CONTINUOUS
  0
POLYLINE
  8
1
  6
CONTINUOUS
 66
     1
  0
VERTEX
  8
1
  6
CONTINUOUS
 10
7.241662
 20
24.429404
  0
VERTEX
  8
1
  6
CONTINUOUS
 10
7.074460
 20
23.905582
  0
SEQEND
  8
1
  6
CONTINUOUS
  0
POLYLINE
  8
1
  6
CONTINUOUS
 66
     1
  0
VERTEX
  8
1
  6
CONTINUOUS
 10
7.584712
 20
23.530975
  0
VERTEX
  8
1
  6
CONTINUOUS
 10
7.808642
 20
24.232520
  0
SEQEND
  8
1
  6
CONTINUOUS
  0
POLYLINE
  8
1
  6
CONTINUOUS
 66
     1
  0
VERTEX
  8
1
  6
CONTINUOUS
 10
7.634379
 20
25.474412
  0
VERTEX
  8
1
  6
CONTINUOUS
 10
7.241662
 20
24.429404
  0
SEQEND
  8
1
  6
CONTINUOUS
  0
POLYLINE
  8
1
  6
CONTINUOUS
 66
     1
  0
VERTEX
  8
1
  6
CONTINUOUS
 10
7.808642
 20
24.232520
  0
VERTEX
  8
1
  6
CONTINUOUS
 10
8.191898
 20
25.252353
  0
SEQEND
  8
1
  6
CONTINUOUS
  0
POLYLINE
  8
1
  6
CONTINUOUS
 66
     1
  0
VERTEX
  8
1
  6
CONTINUOUS
 10
8.063120
 20
26.492435
  0
VERTEX
  8
1
  6
CONTINUOUS
 10
7.634379
 20
25.474412
  0
SEQEND
  8
1
  6
CONTINUOUS
  0
POLYLINE
  8
1
  6
CONTINUOUS
 66
     1
  0
VERTEX
  8
1
  6
CONTINUOUS
 10
8.191898
 20
25.252353
  0
VERTEX
  8
1
  6
CONTINUOUS
 10
8.611686
 20
26.249115
  0
SEQEND
  8
1
  6
CONTINUOUS
  0
POLYLINE
  8
1
  6
CONTINUOUS
 66
     1
  0
VERTEX
  8
1
  6
CONTINUOUS
 10
8.533328
 20
27.500732
  0
VERTEX
  8
1
  6
CONTINUOUS
 10
8.063120
 20
26.492435
  0
SEQEND
  8
1
  6
CONTINUOUS
  0
POLYLINE
  8
1
  6
CONTINUOUS
 66
     1
  0
VERTEX
  8
1
  6
CONTINUOUS
 10
8.611686
 20
26.249115
  0
VERTEX
  8
1
  6
CONTINUOUS
 10
9.071588
 20
27.235315
  0
SEQEND
  8
1
  6
CONTINUOUS
  0
POLYLINE
  8
1
  6
CONTINUOUS
 66
     1
  0
VERTEX
  8
1
  6
CONTINUOUS
 10
9.045415
 20
28.484675
  0
VERTEX
  8
1
  6
CONTINUOUS
 10
8.533328
 20
27.500732
  0
SEQEND
  8
1
  6
CONTINUOUS
  0
POLYLINE
  8
1
  6
CONTINUOUS
 66
     1
  0
VERTEX
  8
1
  6
CONTINUOUS
 10
9.071588
 20
27.235315
  0
VERTEX
  8
1
  6
CONTINUOUS
 10
9.572465
 20
28.197717
  0
SEQEND
  8
1
  6
CONTINUOUS
  0
POLYLINE
  8
1
  6
CONTINUOUS
 66
     1
  0
VERTEX
  8
1
  6
CONTINUOUS
 10
9.592543
 20
29.446284
  0
VERTEX
  8
1
  6
CONTINUOUS
 10
9.045415
 20
28.484675
  0
SEQEND
  8
1
  6
CONTINUOUS
  0
POLYLINE
  8
1
  6
CONTINUOUS
 66
     1
  0
VERTEX
  8
1
  6
CONTINUOUS
 10
9.572465
 20
28.197717
  0
VERTEX
  8
1
  6
CONTINUOUS
 10
10.108799
 20
29.140356
  0
SEQEND
  8
1
  6
CONTINUOUS
  0
POLYLINE
  8
1
  6
CONTINUOUS
 66
     1
  0
VERTEX
  8
1
  6
CONTINUOUS
 10
9.960945
 20
30.043654
  0
VERTEX
  8
1
  6
CONTINUOUS
 10
9.592543
 20
29.446284
  0
SEQEND
  8
1
  6
CONTINUOUS
  0
POLYLINE
  8
1
  6
CONTINUOUS
 66
     1
  0
VERTEX
  8
1
  6
CONTINUOUS
 10
10.108799
 20
29.140356
  0
VERTEX
  8
1
  6
CONTINUOUS
 10
10.465385
 20
29.718565
  0
SEQEND
  8
1
  6
CONTINUOUS
  0
POLYLINE
  8
1
  6
CONTINUOUS
 66
     1
  0
VERTEX
  8
1
  6
CONTINUOUS
 10
10.287327
 20
30.528675
  0
VERTEX
  8
1
  6
CONTINUOUS
 10
9.960945
 20
30.043654
  0
SEQEND
  8
1
  6
CONTINUOUS
  0
POLYLINE
  8
1
  6
CONTINUOUS
 66
     1
  0
VERTEX
  8
1
  6
CONTINUOUS
 10
10.465385
 20
29.718565
  0
VERTEX
  8
1
  6
CONTINUOUS
 10
10.188370
 20
29.306905
  0
SEQEND
  8
1
  6
CONTINUOUS
  0
POLYLINE
  8
1
  6
CONTINUOUS
 66
     1
  0
VERTEX
  8
1
  6
CONTINUOUS
 10
10.805861
 20
31.299246
  0
VERTEX
  8
1
  6
CONTINUOUS
 10
10.287327
 20
30.528675
  0
SEQEND
  8
1
  6
CONTINUOUS
  0
POLYLINE
  8
1
  6
CONTINUOUS
 66
     1
  0
VERTEX
  8
1
  6
CONTINUOUS
 10
11.145270
 20
30.728912
  0
VERTEX
  8
1
  6
CONTINUOUS
 10
11.297002
 20
30.954395
  0
SEQEND
  8
1
  6
CONTINUOUS
  0
POLYLINE
  8
1
  6
CONTINUOUS
 66
     1
  0
VERTEX
  8
1
  6
CONTINUOUS
 10
11.289717
 20
31.960078
  0
VERTEX
  8
1
  6
CONTINUOUS
 10
10.805861
 20
31.299246
  0
SEQEND
  8
1
  6
CONTINUOUS
  0
POLYLINE
  8
1
  6
CONTINUOUS
 66
     1
  0
VERTEX
  8
1
  6
CONTINUOUS
 10
11.297002
 20
30.954395
  0
VERTEX
  8
1
  6
CONTINUOUS
 10
11.766338
 20
31.595396
  0
SEQEND
  8
1
  6
CONTINUOUS
  0
POLYLINE
  8
1
  6
CONTINUOUS
 66
     1
  0
VERTEX
  8
1
  6
CONTINUOUS
 10
11.562645
 20
32.301593
  0
VERTEX
  8
1
  6
CONTINUOUS
 10
11.289717
 20
31.960078
  0
SEQEND
  8
1
  6
CONTINUOUS
  0
POLYLINE
  8
1
  6
CONTINUOUS
 66
     1
  0
VERTEX
  8
1
  6
CONTINUOUS
 10
11.766338
 20
31.595396
  0
VERTEX
  8
1
  6
CONTINUOUS
 10
12.030139
 20
31.925490
  0
SEQEND
  8
1
  6
CONTINUOUS
  0
POLYLINE
  8
1
  6
CONTINUOUS
 66
     1
  0
VERTEX
  8
1
  6
CONTINUOUS
 10
12.165083
 20
33.055422
  0
VERTEX
  8
1
  6
CONTINUOUS
 10
11.937227
 20
32.770306
  0
SEQEND
  8
1
  6
CONTINUOUS
  0
POLYLINE
  8
1
  6
CONTINUOUS
 66
     1
  0
VERTEX
  8
1
  6
CONTINUOUS
 10
12.404721
 20
32.394203
  0
VERTEX
  8
1
  6
CONTINUOUS
 10
12.625257
 20
32.670160
  0
SEQEND
  8
1
  6
CONTINUOUS
  0
POLYLINE
  8
1
  6
CONTINUOUS
 66
     1
  0
VERTEX
  8
1
  6
CONTINUOUS
 10
12.896300
 20
33.889449
  0
VERTEX
  8
1
  6
CONTINUOUS
 10
12.165083
 20
33.055422
  0
SEQEND
  8
1
  6
CONTINUOUS
  0
POLYLINE
  8
1
  6
CONTINUOUS
 66
     1
  0
VERTEX
  8
1
  6
CONTINUOUS
 10
12.625257
 20
32.670160
  0
VERTEX
  8
1
  6
CONTINUOUS
 10
13.339722
 20
33.485079
  0
SEQEND
  8
1
  6
CONTINUOUS
  0
POLYLINE
  8
1
  6
CONTINUOUS
 66
     1
  0
VERTEX
  8
1
  6
CONTINUOUS
 10
13.655522
 20
34.689972
  0
VERTEX
  8
1
  6
CONTINUOUS
 10
12.896300
 20
33.889449
  0
SEQEND
  8
1
  6
CONTINUOUS
  0
POLYLINE
  8
1
  6
CONTINUOUS
 66
     1
  0
VERTEX
  8
1
  6
CONTINUOUS
 10
13.339722
 20
33.485079
  0
VERTEX
  8
1
  6
CONTINUOUS
 10
14.083585
 20
34.269409
  0
SEQEND
  8
1
  6
CONTINUOUS
  0
POLYLINE
  8
1
  6
CONTINUOUS
 66
     1
  0
VERTEX
  8
1
  6
CONTINUOUS
 10
14.264641
 20
35.288465
  0
VERTEX
  8
1
  6
CONTINUOUS
 10
13.655522
 20
34.689972
  0
SEQEND
  8
1
  6
CONTINUOUS
  0
POLYLINE
  8
1
  6
CONTINUOUS
 66
     1
  0
VERTEX
  8
1
  6
CONTINUOUS
 10
14.083585
 20
34.269409
  0
VERTEX
  8
1
  6
CONTINUOUS
 10
14.675319
 20
34.850819
  0
SEQEND
  8
1
  6
CONTINUOUS
  0
POLYLINE
  8
1
  6
CONTINUOUS
 66
     1
  0
VERTEX
  8
1
  6
CONTINUOUS
 10
14.747432
 20
35.721078
  0
VERTEX
  8
1
  6
CONTINUOUS
 10
14.264641
 20
35.288465
  0
SEQEND
  8
1
  6
CONTINUOUS
  0
POLYLINE
  8
1
  6
CONTINUOUS
 66
     1
  0
VERTEX
  8
1
  6
CONTINUOUS
 10
14.675319
 20
34.850819
  0
VERTEX
  8
1
  6
CONTINUOUS
 10
14.503385
 20
34.696755
  0
SEQEND
  8
1
  6
CONTINUOUS
  0
POLYLINE
  8
1
  6
CONTINUOUS
 66
     1
  0
VERTEX
  8
1
  6
CONTINUOUS
 10
15.284443
 20
36.202277
  0
VERTEX
  8
1
  6
CONTINUOUS
 10
14.747432
 20
35.721078
  0
SEQEND
  8
1
  6
CONTINUOUS
  0
POLYLINE
  8
1
  6
CONTINUOUS
 66
     1
  0
VERTEX
  8
1
  6
CONTINUOUS
 10
15.620463
 20
35.697733
  0
VERTEX
  8
1
  6
CONTINUOUS
 10
15.676160
 20
35.747641
  0
SEQEND
  8
1
  6
CONTINUOUS
  0
POLYLINE
  8
1
  6
CONTINUOUS
 66
     1
  0
VERTEX
  8
1
  6
CONTINUOUS
 10
16.138001
 20
36.909261
  0
VERTEX
  8
1
  6
CONTINUOUS
 10
15.284443
 20
36.202277
  0
SEQEND
  8
1
  6
CONTINUOUS
  0
POLYLINE
  8
1
  6
CONTINUOUS
 66
     1
  0
VERTEX
  8
1
  6
CONTINUOUS
 10
15.676160
 20
35.747641
  0
VERTEX
  8
1
  6
CONTINUOUS
 10
16.511416
 20
36.439466
  0
SEQEND
  8
1
  6
CONTINUOUS
  0
POLYLINE
  8
1
  6
CONTINUOUS
 66
     1
  0
VERTEX
  8
1
  6
CONTINUOUS
 10
17.019527
 20
37.581400
  0
VERTEX
  8
1
  6
CONTINUOUS
 10
16.138001
 20
36.909261
  0
SEQEND
  8
1
  6
CONTINUOUS
  0
POLYLINE
  8
1
  6
CONTINUOUS
 66
     1
  0
VERTEX
  8
1
  6
CONTINUOUS
 10
16.511416
 20
36.439466
  0
VERTEX
  8
1
  6
CONTINUOUS
 10
17.373706
 20
37.096937
  0
SEQEND
  8
1
  6
CONTINUOUS
  0
POLYLINE
  8
1
  6
CONTINUOUS
 66
     1
  0
VERTEX
  8
1
  6
CONTINUOUS
 10
17.927427
 20
38.217465
  0
VERTEX
  8
1
  6
CONTINUOUS
 10
17.019527
 20
37.581400
  0
SEQEND
  8
1
  6
CONTINUOUS
  0
POLYLINE
  8
1
  6
CONTINUOUS
 66
     1
  0
VERTEX
  8
1
  6
CONTINUOUS
 10
17.373706
 20
37.096937
  0
VERTEX
  8
1
  6
CONTINUOUS
 10
18.261792
 20
37.719122
  0
SEQEND
  8
1
  6
CONTINUOUS
  0
POLYLINE
  8
1
  6
CONTINUOUS
 66
     1
  0
VERTEX
  8
1
  6
CONTINUOUS
 10
18.860223
 20
38.816423
  0
VERTEX
  8
1
  6
CONTINUOUS
 10
17.927427
 20
38.217465
  0
SEQEND
  8
1
  6
CONTINUOUS
  0
POLYLINE
  8
1
  6
CONTINUOUS
 66
     1
  0
VERTEX
  8
1
  6
CONTINUOUS
 10
18.261792
 20
37.719122
  0
VERTEX
  8
1
  6
CONTINUOUS
 10
19.174233
 20
38.305009
  0
SEQEND
  8
1
  6
CONTINUOUS
  0
POLYLINE
  8
1
  6
CONTINUOUS
 66
     1
  0
VERTEX
  8
1
  6
CONTINUOUS
 10
19.816401
 20
39.377301
  0
VERTEX
  8
1
  6
CONTINUOUS
 10
18.860223
 20
38.816423
  0
SEQEND
  8
1
  6
CONTINUOUS
  0
POLYLINE
  8
1
  6
CONTINUOUS
 66
     1
  0
VERTEX
  8
1
  6
CONTINUOUS
 10
19.174233
 20
38.305009
  0
VERTEX
  8
1
  6
CONTINUOUS
 10
20.109544
 20
38.853648
  0
SEQEND
  8
1
  6
CONTINUOUS
  0
POLYLINE
  8
1
  6
CONTINUOUS
 66
     1
  0
VERTEX
  8
1
  6
CONTINUOUS
 10
20.739266
 20
39.869763
  0
VERTEX
  8
1
  6
CONTINUOUS
 10
19.816401
 20
39.377301
  0
SEQEND
  8
1
  6
CONTINUOUS
  0
POLYLINE
  8
1
  6
CONTINUOUS
 66
     1
  0
VERTEX
  8
1
  6
CONTINUOUS
 10
20.109544
 20
38.853648
  0
VERTEX
  8
1
  6
CONTINUOUS
 10
20.360452
 20
38.987538
  0
SEQEND
  8
1
  6
CONTINUOUS
  0
POLYLINE
  8
1
  6
CONTINUOUS
 66
     1
  0
VERTEX
  8
1
  6
CONTINUOUS
 10
21.792353
 20
40.381104
  0
VERTEX
  8
1
  6
CONTINUOUS
 10
20.739266
 20
39.869763
  0
SEQEND
  8
1
  6
CONTINUOUS
  0
POLYLINE
  8
1
  6
CONTINUOUS
 66
     1
  0
VERTEX
  8
1
  6
CONTINUOUS
 10
21.614736
 20
39.627868
  0
VERTEX
  8
1
  6
CONTINUOUS
 10
22.042965
 20
39.835801
  0
SEQEND
  8
1
  6
CONTINUOUS
  0
POLYLINE
  8
1
  6
CONTINUOUS
 66
     1
  0
VERTEX
  8
1
  6
CONTINUOUS
 10
22.219866
 20
40.566690
  0
VERTEX
  8
1
  6
CONTINUOUS
 10
21.792353
 20
40.381104
  0
SEQEND
  8
1
  6
CONTINUOUS
  0
POLYLINE
  8
1
  6
CONTINUOUS
 66
     1
  0
VERTEX
  8
1
  6
CONTINUOUS
 10
22.042965
 20
39.835801
  0
VERTEX
  8
1
  6
CONTINUOUS
 10
22.984402
 20
40.244483
  0
SEQEND
  8
1
  6
CONTINUOUS
  0
POLYLINE
  8
1
  6
CONTINUOUS
 66
     1
  0
VERTEX
  8
1
  6
CONTINUOUS
 10
22.810840
 20
40.823234
  0
VERTEX
  8
1
  6
CONTINUOUS
 10
22.770828
 20
40.805864
  0
SEQEND
  8
1
  6
CONTINUOUS
  0
POLYLINE
  8
1
  6
CONTINUOUS
 66
     1
  0
VERTEX
  8
1
  6
CONTINUOUS
 10
22.984402
 20
40.244483
  0
VERTEX
  8
1
  6
CONTINUOUS
 10
23.037072
 20
40.267347
  0
SEQEND
  8
1
  6
CONTINUOUS
  0
POLYLINE
  8
1
  6
CONTINUOUS
 66
     1
  0
VERTEX
  8
1
  6
CONTINUOUS
 10
27.257126
 20
42.514386
  0
VERTEX
  8
1
  6
CONTINUOUS
 10
22.810840
 20
40.823234
  0
SEQEND
  8
1
  6
CONTINUOUS
  0
POLYLINE
  8
1
  6
CONTINUOUS
 66
     1
  0
VERTEX
  8
1
  6
CONTINUOUS
 10
23.037072
 20
40.267347
  0
VERTEX
  8
1
  6
CONTINUOUS
 10
26.535777
 20
41.598085
  0
SEQEND
  8
1
  6
CONTINUOUS
  0
POLYLINE
  8
1
  6
CONTINUOUS
 66
     1
  0
VERTEX
  8
1
  6
CONTINUOUS
 10
32.178067
 20
44.386073
  0
VERTEX
  8
1
  6
CONTINUOUS
 10
27.257126
 20
42.514386
  0
SEQEND
  8
1
  6
CONTINUOUS
  0
POLYLINE
  8
1
  6
CONTINUOUS
 66
     1
  0
VERTEX
  8
1
  6
CONTINUOUS
 10
28.405126
 20
42.309094
  0
VERTEX
  8
1
  6
CONTINUOUS
 10
32.391415
 20
43.825286
  0
SEQEND
  8
1
  6
CONTINUOUS
  0
POLYLINE
  8
1
  6
CONTINUOUS
 66
     1
  0
VERTEX
  8
1
  6
CONTINUOUS
 10
33.799847
 20
45.002920
  0
VERTEX
  8
1
  6
CONTINUOUS
 10
32.738872
 20
44.599376
  0
SEQEND
  8
1
  6
CONTINUOUS
  0
POLYLINE
  8
1
  6
CONTINUOUS
 66
     1
  0
VERTEX
  8
1
  6
CONTINUOUS
 10
32.952220
 20
44.038589
  0
VERTEX
  8
1
  6
CONTINUOUS
 10
33.078498
 20
44.086619
  0
SEQEND
  8
1
  6
CONTINUOUS
  0
POLYLINE
  8
1
  6
CONTINUOUS
 66
     1
  0
VERTEX
  8
1
  6
CONTINUOUS
 10
39.968698
 20
47.349252
  0
VERTEX
  8
1
  6
CONTINUOUS
 10
33.799847
 20
45.002920
  0
SEQEND
  8
1
  6
CONTINUOUS
  0
POLYLINE
  8
1
  6
CONTINUOUS
 66
     1
  0
VERTEX
  8
1
  6
CONTINUOUS
 10
34.947847
 20
44.797629
  0
VERTEX
  8
1
  6
CONTINUOUS
 10
39.527752
 20
46.539603
  0
SEQEND
  8
1
  6
CONTINUOUS
  0
POLYLINE
  8
1
  6
CONTINUOUS
 66
     1
  0
VERTEX
  8
1
  6
CONTINUOUS
 10
43.394160
 20
48.652132
  0
VERTEX
  8
1
  6
CONTINUOUS
 10
39.968698
 20
47.349252
  0
SEQEND
  8
1
  6
CONTINUOUS
  0
POLYLINE
  8
1
  6
CONTINUOUS
 66
     1
  0
VERTEX
  8
1
  6
CONTINUOUS
 10
40.836296
 20
47.037309
  0
VERTEX
  8
1
  6
CONTINUOUS
 10
43.607508
 20
48.091344
  0
SEQEND
  8
1
  6
CONTINUOUS
  0
POLYLINE
  8
1
  6
CONTINUOUS
 66
     1
  0
VERTEX
  8
1
  6
CONTINUOUS
 10
51.801814
 20
51.849996
  0
VERTEX
  8
1
  6
CONTINUOUS
 10
43.954965
 20
48.865435
  0
SEQEND
  8
1
  6
CONTINUOUS
  0
POLYLINE
  8
1
  6
CONTINUOUS
 66
     1
  0
VERTEX
  8
1
  6
CONTINUOUS
 10
44.168313
 20
48.304647
  0
VERTEX
  8
1
  6
CONTINUOUS
 10
52.015162
 20
51.289209
  0
SEQEND
  8
1
  6
CONTINUOUS
  0
POLYLINE
  8
1
  6
CONTINUOUS
 66
     1
  0
VERTEX
  8
1
  6
CONTINUOUS
 10
7.173122
 20
22.151112
  0
VERTEX
  8
1
  6
CONTINUOUS
 10
7.175341
 20
22.159671
  0
SEQEND
  8
1
  6
CONTINUOUS
  0
POLYLINE
  8
1
  6
CONTINUOUS
 66
     1
  0
VERTEX
  8
1
  6
CONTINUOUS
 10
6.594601
 20
22.310213
  0
VERTEX
  8
1
  6
CONTINUOUS
 10
6.592382
 20
22.301654
  0
SEQEND
  8
1
  6
CONTINUOUS
  0
POLYLINE
  8
1
  6
CONTINUOUS
 66
     1
  0
VERTEX
  8
1
  6
CONTINUOUS
 10
60.877480
 20
28.556778
  0
VERTEX
  8
1
  6
CONTINUOUS
 10
65.073278
 20
17.528067
  0
SEQEND
  8
1
  6
CONTINUOUS
  0
POLYLINE
  8
1
  6
CONTINUOUS
 66
     1
  0
VERTEX
  8
1
  6
CONTINUOUS
 10
65.447136
 20
17.670299
  0
VERTEX
  8
1
  6
CONTINUOUS
 10
61.251345
 20
28.698990
  0
SEQEND
  8
1
  6
CONTINUOUS
  0
POLYLINE
  8
1
  6
CONTINUOUS
 66
     1
  0
VERTEX
  8
1
  6
CONTINUOUS
 10
57.093311
 20
38.503514
  0
VERTEX
  8
1
  6
CONTINUOUS
 10
60.735248
 20
28.930636
  0
SEQEND
  8
1
  6
CONTINUOUS
  0
POLYLINE
  8
1
  6
CONTINUOUS
 66
     1
  0
VERTEX
  8
1
  6
CONTINUOUS
 10
61.109113
 20
29.072849
  0
VERTEX
  8
1
  6
CONTINUOUS
 10
57.467170
 20
38.645746
  0
SEQEND
  8
1
  6
CONTINUOUS
  0
POLYLINE
  8
1
  6
CONTINUOUS
 66
     1
  0
VERTEX
  8
1
  6
CONTINUOUS
 10
65.483774
 20
37.288787
  0
VERTEX
  8
1
  6
CONTINUOUS
 10
63.111856
 20
37.288787
  0
SEQEND
  8
1
  6
CONTINUOUS
  0
POLYLINE
  8
1
  6
CONTINUOUS
 66
     1
  0
VERTEX
  8
1
  6
CONTINUOUS
 10
62.711856
 20
36.688787
  0
VERTEX
  8
1
  6
CONTINUOUS
 10
65.811901
 20
36.688787
  0
SEQEND
  8
1
  6
CONTINUOUS
  0
POLYLINE
  8
1
  6
CONTINUOUS
 66
     1
  0
VERTEX
  8
1
  6
CONTINUOUS
 10
67.286119
 20
37.288787
  0
VERTEX
  8
1
  6
CONTINUOUS
 10
65.911747
 20
37.288787
  0
SEQEND
  8
1
  6
CONTINUOUS
  0
POLYLINE
  8
1
  6
CONTINUOUS
 66
     1
  0
VERTEX
  8
1
  6
CONTINUOUS
 10
65.811901
 20
36.688787
  0
VERTEX
  8
1
  6
CONTINUOUS
 10
67.286119
 20
36.688787
  0
SEQEND
  8
1
  6
CONTINUOUS
  0
POLYLINE
  8
1
  6
CONTINUOUS
 66
     1
  0
VERTEX
  8
1
  6
CONTINUOUS
 10
87.241501
 20
37.288787
  0
VERTEX
  8
1
  6
CONTINUOUS
 10
67.286119
 20
37.288787
  0
SEQEND
  8
1
  6
CONTINUOUS
  0
POLYLINE
  8
1
  6
CONTINUOUS
 66
     1
  0
VERTEX
  8
1
  6
CONTINUOUS
 10
67.286119
 20
36.688787
  0
VERTEX
  8
1
  6
CONTINUOUS
 10
87.841501
 20
36.688787
  0
SEQEND
  8
1
  6
CONTINUOUS
  0
POLYLINE
  8
1
  6
CONTINUOUS
 66
     1
  0
VERTEX
  8
1
  6
CONTINUOUS
 10
87.241501
 20
42.838791
  0
VERTEX
  8
1
  6
CONTINUOUS
 10
87.241501
 20
37.288787
  0
SEQEND
  8
1
  6
CONTINUOUS
  0
POLYLINE
  8
1
  6
CONTINUOUS
 66
     1
  0
VERTEX
  8
1
  6
CONTINUOUS
 10
87.841501
 20
36.688787
  0
VERTEX
  8
1
  6
CONTINUOUS
 10
87.841501
 20
42.838787
  0
SEQEND
  8
1
  6
CONTINUOUS
  0
POLYLINE
  8
1
  6
CONTINUOUS
 66
     1
  0
VERTEX
  8
1
  6
CONTINUOUS
 10
87.241501
 20
49.229165
  0
VERTEX
  8
1
  6
CONTINUOUS
 10
87.241501
 20
43.838791
  0
SEQEND
  8
1
  6
CONTINUOUS
  0
POLYLINE
  8
1
  6
CONTINUOUS
 66
     1
  0
VERTEX
  8
1
  6
CONTINUOUS
 10
87.841501
 20
43.838791
  0
VERTEX
  8
1
  6
CONTINUOUS
 10
87.841501
 20
49.029165
  0
SEQEND
  8
1
  6
CONTINUOUS
  0
POLYLINE
  8
1
  6
CONTINUOUS
 66
     1
  0
VERTEX
  8
1
  6
CONTINUOUS
 10
87.241501
 20
49.972761
  0
VERTEX
  8
1
  6
CONTINUOUS
 10
87.241501
 20
49.229165
  0
SEQEND
  8
1
  6
CONTINUOUS
  0
POLYLINE
  8
1
  6
CONTINUOUS
 66
     1
  0
VERTEX
  8
1
  6
CONTINUOUS
 10
87.841501
 20
49.429165
  0
VERTEX
  8
1
  6
CONTINUOUS
 10
87.841501
 20
50.300846
  0
SEQEND
  8
1
  6
CONTINUOUS
  0
POLYLINE
  8
1
  6
CONTINUOUS
 66
     1
  0
VERTEX
  8
1
  6
CONTINUOUS
 10
87.241501
 20
58.819160
  0
VERTEX
  8
1
  6
CONTINUOUS
 10
87.241501
 20
50.400718
  0
SEQEND
  8
1
  6
CONTINUOUS
  0
POLYLINE
  8
1
  6
CONTINUOUS
 66
     1
  0
VERTEX
  8
1
  6
CONTINUOUS
 10
87.841501
 20
50.300846
  0
VERTEX
  8
1
  6
CONTINUOUS
 10
87.841501
 20
58.419160
  0
SEQEND
  8
1
  6
CONTINUOUS
  0
POLYLINE
  8
1
  6
CONTINUOUS
 66
     1
  0
VERTEX
  8
1
  6
CONTINUOUS
 10
62.711856
 20
40.642511
  0
VERTEX
  8
1
  6
CONTINUOUS
 10
62.711856
 20
36.688787
  0
SEQEND
  8
1
  6
CONTINUOUS
  0
POLYLINE
  8
1
  6
CONTINUOUS
 66
     1
  0
VERTEX
  8
1
  6
CONTINUOUS
 10
63.111856
 20
37.288787
  0
VERTEX
  8
1
  6
CONTINUOUS
 10
63.111856
 20
40.794763
  0
SEQEND
  8
1
  6
CONTINUOUS
  0
POLYLINE
  8
1
  6
CONTINUOUS
 66
     1
  0
VERTEX
  8
1
  6
CONTINUOUS
 10
62.635010
 20
54.901701
  0
VERTEX
  8
1
  6
CONTINUOUS
 10
52.717853
 20
51.129562
  0
SEQEND
  8
1
  6
CONTINUOUS
  0
POLYLINE
  8
1
  6
CONTINUOUS
 66
     1
  0
VERTEX
  8
1
  6
CONTINUOUS
 10
52.860085
 20
50.755703
  0
VERTEX
  8
1
  6
CONTINUOUS
 10
62.590282
 20
54.456729
  0
SEQEND
  8
1
  6
CONTINUOUS
  0
POLYLINE
  8
1
  6
CONTINUOUS
 66
     1
  0
VERTEX
  8
1
  6
CONTINUOUS
 10
63.943876
 20
55.399547
  0
VERTEX
  8
1
  6
CONTINUOUS
 10
62.635010
 20
54.901701
  0
SEQEND
  8
1
  6
CONTINUOUS
  0
POLYLINE
  8
1
  6
CONTINUOUS
 66
     1
  0
VERTEX
  8
1
  6
CONTINUOUS
 10
62.964151
 20
54.598936
  0
VERTEX
  8
1
  6
CONTINUOUS
 10
64.086108
 20
55.025689
  0
SEQEND
  8
1
  6
CONTINUOUS
  0
POLYLINE
  8
1
  6
CONTINUOUS
 66
     1
  0
VERTEX
  8
1
  6
CONTINUOUS
 10
62.590282
 20
54.456729
  0
VERTEX
  8
1
  6
CONTINUOUS
 10
64.300136
 20
49.961426
  0
SEQEND
  8
1
  6
CONTINUOUS
  0
POLYLINE
  8
1
  6
CONTINUOUS
 66
     1
  0
VERTEX
  8
1
  6
CONTINUOUS
 10
64.673991
 20
50.103665
  0
VERTEX
  8
1
  6
CONTINUOUS
 10
62.964151
 20
54.598936
  0
SEQEND
  8
1
  6
CONTINUOUS
  0
POLYLINE
  8
1
  6
CONTINUOUS
 66
     1
  0
VERTEX
  8
1
  6
CONTINUOUS
 10
64.018559
 20
41.139882
  0
VERTEX
  8
1
  6
CONTINUOUS
 10
65.483774
 20
37.288787
  0
SEQEND
  8
1
  6
CONTINUOUS
  0
POLYLINE
  8
1
  6
CONTINUOUS
 66
     1
  0
VERTEX
  8
1
  6
CONTINUOUS
 10
65.911747
 20
37.288787
  0
VERTEX
  8
1
  6
CONTINUOUS
 10
64.392416
 20
41.282118
  0
SEQEND
  8
1
  6
CONTINUOUS
  0
POLYLINE
  8
1
  6
CONTINUOUS
 66
     1
  0
VERTEX
  8
1
  6
CONTINUOUS
 10
62.489277
 20
45.159368
  0
VERTEX
  8
1
  6
CONTINUOUS
 10
63.876320
 20
41.513738
  0
SEQEND
  8
1
  6
CONTINUOUS
  0
POLYLINE
  8
1
  6
CONTINUOUS
 66
     1
  0
VERTEX
  8
1
  6
CONTINUOUS
 10
64.250176
 20
41.655974
  0
VERTEX
  8
1
  6
CONTINUOUS
 10
62.863133
 20
45.301606
  0
SEQEND
  8
1
  6
CONTINUOUS
  0
POLYLINE
  8
1
  6
CONTINUOUS
 66
     1
  0
VERTEX
  8
1
  6
CONTINUOUS
 10
61.122254
 20
48.752382
  0
VERTEX
  8
1
  6
CONTINUOUS
 10
62.347038
 20
45.533223
  0
SEQEND
  8
1
  6
CONTINUOUS
  0
POLYLINE
  8
1
  6
CONTINUOUS
 66
     1
  0
VERTEX
  8
1
  6
CONTINUOUS
 10
62.720893
 20
45.675463
  0
VERTEX
  8
1
  6
CONTINUOUS
 10
61.638350
 20
48.520763
  0
SEQEND
  8
1
  6
CONTINUOUS
  0
POLYLINE
  8
1
  6
CONTINUOUS
 66
     1
  0
VERTEX
  8
1
  6
CONTINUOUS
 10
64.300119
 20
49.961420
  0
VERTEX
  8
1
  6
CONTINUOUS
 10
61.122254
 20
48.752382
  0
SEQEND
  8
1
  6
CONTINUOUS
  0
POLYLINE
  8
1
  6
CONTINUOUS
 66
     1
  0
VERTEX
  8
1
  6
CONTINUOUS
 10
61.638350
 20
48.520763
  0
VERTEX
  8
1
  6
CONTINUOUS
 10
64.442358
 20
49.587564
  0
SEQEND
  8
1
  6
CONTINUOUS
  0
POLYLINE
  8
1
  6
CONTINUOUS
 66
     1
  0
VERTEX
  8
1
  6
CONTINUOUS
 10
52.486579
 20
50.612582
  0
VERTEX
  8
1
  6
CONTINUOUS
 10
55.421523
 20
42.898297
  0
SEQEND
  8
1
  6
CONTINUOUS
  0
POLYLINE
  8
1
  6
CONTINUOUS
 66
     1
  0
VERTEX
  8
1
  6
CONTINUOUS
 10
55.795379
 20
43.040536
  0
VERTEX
  8
1
  6
CONTINUOUS
 10
52.860437
 20
50.754815
  0
SEQEND
  8
1
  6
CONTINUOUS
  0
POLYLINE
  8
1
  6
CONTINUOUS
 66
     1
  0
VERTEX
  8
1
  6
CONTINUOUS
 10
93.969236
 20
66.159160
  0
VERTEX
  8
1
  6
CONTINUOUS
 10
90.469236
 20
66.159160
  0
SEQEND
  8
1
  6
CONTINUOUS
  0
POLYLINE
  8
1
  6
CONTINUOUS
 66
     1
  0
VERTEX
  8
1
  6
CONTINUOUS
 10
90.469236
 20
65.759160
  0
VERTEX
  8
1
  6
CONTINUOUS
 10
93.969236
 20
65.759160
  0
SEQEND
  8
1
  6
CONTINUOUS
  0
POLYLINE
  8
1
  6
CONTINUOUS
 66
     1
  0
VERTEX
  8
1
  6
CONTINUOUS
 10
97.959240
 20
66.159160
  0
VERTEX
  8
1
  6
CONTINUOUS
 10
94.769629
 20
66.159160
  0
SEQEND
  8
1
  6
CONTINUOUS
  0
POLYLINE
  8
1
  6
CONTINUOUS
 66
     1
  0
VERTEX
  8
1
  6
CONTINUOUS
 10
94.769236
 20
65.759160
  0
VERTEX
  8
1
  6
CONTINUOUS
 10
97.959240
 20
65.759160
  0
SEQEND
  8
1
  6
CONTINUOUS
  0
POLYLINE
  8
1
  6
CONTINUOUS
 66
     1
  0
VERTEX
  8
1
  6
CONTINUOUS
 10
94.369629
 20
69.959165
  0
VERTEX
  8
1
  6
CONTINUOUS
 10
94.369629
 20
66.159165
  0
SEQEND
  8
1
  6
CONTINUOUS
  0
POLYLINE
  8
1
  6
CONTINUOUS
 66
     1
  0
VERTEX
  8
1
  6
CONTINUOUS
 10
94.769629
 20
66.159165
  0
VERTEX
  8
1
  6
CONTINUOUS
 10
94.769629
 20
69.959160
  0
SEQEND
  8
1
  6
CONTINUOUS
  0
POLYLINE
  8
1
  6
CONTINUOUS
 66
     1
  0
VERTEX
  8
1
  6
CONTINUOUS
 10
93.969236
 20
70.359160
  0
VERTEX
  8
1
  6
CONTINUOUS
 10
90.469236
 20
70.359160
  0
SEQEND
  8
1
  6
CONTINUOUS
  0
POLYLINE
  8
1
  6
CONTINUOUS
 66
     1
  0
VERTEX
  8
1
  6
CONTINUOUS
 10
90.469236
 20
69.959160
  0
VERTEX
  8
1
  6
CONTINUOUS
 10
93.969236
 20
69.959160
  0
SEQEND
  8
1
  6
CONTINUOUS
  0
POLYLINE
  8
1
  6
CONTINUOUS
 66
     1
  0
VERTEX
  8
1
  6
CONTINUOUS
 10
97.959240
 20
70.359160
  0
VERTEX
  8
1
  6
CONTINUOUS
 10
94.769236
 20
70.359160
  0
SEQEND
  8
1
  6
CONTINUOUS
  0
POLYLINE
  8
1
  6
CONTINUOUS
 66
     1
  0
VERTEX
  8
1
  6
CONTINUOUS
 10
94.769629
 20
69.959160
  0
VERTEX
  8
1
  6
CONTINUOUS
 10
97.959240
 20
69.959160
  0
SEQEND
  8
1
  6
CONTINUOUS
  0
POLYLINE
  8
1
  6
CONTINUOUS
 66
     1
  0
VERTEX
  8
1
  6
CONTINUOUS
 10
97.959240
 20
63.989160
  0
VERTEX
  8
1
  6
CONTINUOUS
 10
97.959240
 20
59.219160
  0
SEQEND
  8
1
  6
CONTINUOUS
  0
POLYLINE
  8
1
  6
CONTINUOUS
 66
     1
  0
VERTEX
  8
1
  6
CONTINUOUS
 10
98.359240
 20
59.263355
  0
VERTEX
  8
1
  6
CONTINUOUS
 10
98.359240
 20
63.989160
  0
SEQEND
  8
1
  6
CONTINUOUS
  0
POLYLINE
  8
1
  6
CONTINUOUS
 66
     1
  0
VERTEX
  8
1
  6
CONTINUOUS
 10
97.959240
 20
65.759160
  0
VERTEX
  8
1
  6
CONTINUOUS
 10
97.959240
 20
64.789160
  0
SEQEND
  8
1
  6
CONTINUOUS
  0
POLYLINE
  8
1
  6
CONTINUOUS
 66
     1
  0
VERTEX
  8
1
  6
CONTINUOUS
 10
98.359240
 20
64.789160
  0
VERTEX
  8
1
  6
CONTINUOUS
 10
98.359240
 20
65.959160
  0
SEQEND
  8
1
  6
CONTINUOUS
  0
POLYLINE
  8
1
  6
CONTINUOUS
 66
     1
  0
VERTEX
  8
1
  6
CONTINUOUS
 10
97.959240
 20
67.363293
  0
VERTEX
  8
1
  6
CONTINUOUS
 10
97.959240
 20
66.159160
  0
SEQEND
  8
1
  6
CONTINUOUS
  0
POLYLINE
  8
1
  6
CONTINUOUS
 66
     1
  0
VERTEX
  8
1
  6
CONTINUOUS
 10
98.359240
 20
65.959160
  0
VERTEX
  8
1
  6
CONTINUOUS
 10
98.359240
 20
67.163293
  0
SEQEND
  8
1
  6
CONTINUOUS
  0
POLYLINE
  8
1
  6
CONTINUOUS
 66
     1
  0
VERTEX
  8
1
  6
CONTINUOUS
 10
97.959240
 20
69.559160
  0
VERTEX
  8
1
  6
CONTINUOUS
 10
97.959240
 20
67.363293
  0
SEQEND
  8
1
  6
CONTINUOUS
  0
POLYLINE
  8
1
  6
CONTINUOUS
 66
     1
  0
VERTEX
  8
1
  6
CONTINUOUS
 10
98.359240
 20
67.563293
  0
VERTEX
  8
1
  6
CONTINUOUS
 10
98.359240
 20
69.559160
  0
SEQEND
  8
1
  6
CONTINUOUS
  0
POLYLINE
  8
1
  6
CONTINUOUS
 66
     1
  0
VERTEX
  8
1
  6
CONTINUOUS
 10
90.069236
 20
58.819160
  0
VERTEX
  8
1
  6
CONTINUOUS
 10
87.241501
 20
58.819160
  0
SEQEND
  8
1
  6
CONTINUOUS
  0
POLYLINE
  8
1
  6
CONTINUOUS
 66
     1
  0
VERTEX
  8
1
  6
CONTINUOUS
 10
87.841501
 20
58.419160
  0
VERTEX
  8
1
  6
CONTINUOUS
 10
90.069236
 20
58.419160
  0
SEQEND
  8
1
  6
CONTINUOUS
  0
POLYLINE
  8
1
  6
CONTINUOUS
 66
     1
  0
VERTEX
  8
1
  6
CONTINUOUS
 10
97.959240
 20
58.819160
  0
VERTEX
  8
1
  6
CONTINUOUS
 10
90.469236
 20
58.819160
  0
SEQEND
  8
1
  6
CONTINUOUS
  0
POLYLINE
  8
1
  6
CONTINUOUS
 66
     1
  0
VERTEX
  8
1
  6
CONTINUOUS
 10
90.469236
 20
58.419160
  0
VERTEX
  8
1
  6
CONTINUOUS
 10
97.959240
 20
58.419160
  0
SEQEND
  8
1
  6
CONTINUOUS
  0
POLYLINE
  8
1
  6
ESTILO_TQS_0001
 66
     1
  0
VERTEX
  8
1
  6
ESTILO_TQS_0001
 10
56.951046
 20
38.877769
  0
VERTEX
  8
1
  6
ESTILO_TQS_0001
 10
45.586258
 20
34.551986
  0
SEQEND
  8
1
  6
ESTILO_TQS_0001
  0
POLYLINE
  8
1
  6
CONTINUOUS
 66
     1
  0
VERTEX
  8
1
  6
CONTINUOUS
 10
45.728490
 20
34.178127
  0
VERTEX
  8
1
  6
CONTINUOUS
 10
57.093278
 20
38.503910
  0
SEQEND
  8
1
  6
CONTINUOUS
  0
POLYLINE
  8
1
  6
CONTINUOUS
 66
     1
  0
VERTEX
  8
1
  6
CONTINUOUS
 10
45.728490
 20
34.178127
  0
VERTEX
  8
1
  6
CONTINUOUS
 10
45.586258
 20
34.551986
  0
SEQEND
  8
1
  6
CONTINUOUS
  0
POLYLINE
  8
1
  6
CONTINUOUS
 66
     1
  0
VERTEX
  8
1
  6
CONTINUOUS
 10
44.348910
 20
33.867138
  0
VERTEX
  8
1
  6
CONTINUOUS
 10
52.400741
 20
12.702821
  0
SEQEND
  8
1
  6
CONTINUOUS
  0
POLYLINE
  8
1
  6
CONTINUOUS
 66
     1
  0
VERTEX
  8
1
  6
CONTINUOUS
 10
53.709103
 20
13.201005
  0
VERTEX
  8
1
  6
CONTINUOUS
 10
45.728490
 20
34.178127
  0
SEQEND
  8
1
  6
CONTINUOUS
  0
POLYLINE
  8
1
  6
CONTINUOUS
 66
     1
  0
VERTEX
  8
1
  6
CONTINUOUS
 10
42.818680
 20
37.889365
  0
VERTEX
  8
1
  6
CONTINUOUS
 10
44.348910
 20
33.867138
  0
SEQEND
  8
1
  6
CONTINUOUS
  0
POLYLINE
  8
1
  6
CONTINUOUS
 66
     1
  0
VERTEX
  8
1
  6
CONTINUOUS
 10
45.586258
 20
34.551986
  0
VERTEX
  8
1
  6
CONTINUOUS
 10
44.198295
 20
38.200261
  0
SEQEND
  8
1
  6
CONTINUOUS
  0
POLYLINE
  8
1
  6
CONTINUOUS
 66
     1
  0
VERTEX
  8
1
  6
CONTINUOUS
 10
39.527752
 20
46.539603
  0
VERTEX
  8
1
  6
CONTINUOUS
 10
42.818680
 20
37.889365
  0
SEQEND
  8
1
  6
CONTINUOUS
  0
POLYLINE
  8
1
  6
CONTINUOUS
 66
     1
  0
VERTEX
  8
1
  6
CONTINUOUS
 10
44.056063
 20
38.574119
  0
VERTEX
  8
1
  6
CONTINUOUS
 10
40.836296
 20
47.037309
  0
SEQEND
  8
1
  6
CONTINUOUS
  0
POLYLINE
  8
1
  6
CONTINUOUS
 66
     1
  0
VERTEX
  8
1
  6
CONTINUOUS
 10
53.709103
 20
13.201005
  0
VERTEX
  8
1
  6
CONTINUOUS
 10
52.400741
 20
12.702821
  0
SEQEND
  8
1
  6
CONTINUOUS
  0
POLYLINE
  8
1
  6
CONTINUOUS
 66
     1
  0
VERTEX
  8
1
  6
CONTINUOUS
 10
40.836296
 20
47.037309
  0
VERTEX
  8
1
  6
CONTINUOUS
 10
39.527752
 20
46.539603
  0
SEQEND
  8
1
  6
CONTINUOUS
  0
POLYLINE
  8
1
  6
CONTINUOUS
 66
     1
  0
VERTEX
  8
1
  6
CONTINUOUS
 10
33.078498
 20
44.086619
  0
VERTEX
  8
1
  6
CONTINUOUS
 10
45.952381
 20
10.247487
  0
SEQEND
  8
1
  6
CONTINUOUS
  0
POLYLINE
  8
1
  6
CONTINUOUS
 66
     1
  0
VERTEX
  8
1
  6
CONTINUOUS
 10
47.821471
 20
10.959178
  0
VERTEX
  8
1
  6
CONTINUOUS
 10
34.947847
 20
44.797629
  0
SEQEND
  8
1
  6
CONTINUOUS
  0
POLYLINE
  8
1
  6
CONTINUOUS
 66
     1
  0
VERTEX
  8
1
  6
CONTINUOUS
 10
47.821471
 20
10.959178
  0
VERTEX
  8
1
  6
CONTINUOUS
 10
45.952381
 20
10.247487
  0
SEQEND
  8
1
  6
CONTINUOUS
  0
POLYLINE
  8
1
  6
CONTINUOUS
 66
     1
  0
VERTEX
  8
1
  6
CONTINUOUS
 10
34.947847
 20
44.797629
  0
VERTEX
  8
1
  6
CONTINUOUS
 10
33.078498
 20
44.086619
  0
SEQEND
  8
1
  6
CONTINUOUS
  0
POLYLINE
  8
1
  6
CONTINUOUS
 66
     1
  0
VERTEX
  8
1
  6
CONTINUOUS
 10
26.535777
 20
41.598085
  0
VERTEX
  8
1
  6
CONTINUOUS
 10
39.410567
 20
7.756569
  0
SEQEND
  8
1
  6
CONTINUOUS
  0
POLYLINE
  8
1
  6
CONTINUOUS
 66
     1
  0
VERTEX
  8
1
  6
CONTINUOUS
 10
41.279657
 20
8.468260
  0
VERTEX
  8
1
  6
CONTINUOUS
 10
28.405126
 20
42.309094
  0
SEQEND
  8
1
  6
CONTINUOUS
  0
POLYLINE
  8
1
  6
CONTINUOUS
 66
     1
  0
VERTEX
  8
1
  6
CONTINUOUS
 10
41.279657
 20
8.468260
  0
VERTEX
  8
1
  6
CONTINUOUS
 10
39.410567
 20
7.756569
  0
SEQEND
  8
1
  6
CONTINUOUS
  0
POLYLINE
  8
1
  6
CONTINUOUS
 66
     1
  0
VERTEX
  8
1
  6
CONTINUOUS
 10
28.405126
 20
42.309094
  0
VERTEX
  8
1
  6
CONTINUOUS
 10
26.535777
 20
41.598085
  0
SEQEND
  8
1
  6
CONTINUOUS
  0
POLYLINE
  8
1
  6
CONTINUOUS
 66
     1
  0
VERTEX
  8
1
  6
CONTINUOUS
 10
20.360452
 20
38.987538
  0
VERTEX
  8
1
  6
CONTINUOUS
 10
33.058984
 20
5.609320
  0
SEQEND
  8
1
  6
CONTINUOUS
  0
POLYLINE
  8
1
  6
CONTINUOUS
 66
     1
  0
VERTEX
  8
1
  6
CONTINUOUS
 10
34.421410
 20
5.965396
  0
VERTEX
  8
1
  6
CONTINUOUS
 10
21.614736
 20
39.627868
  0
SEQEND
  8
1
  6
CONTINUOUS
  0
POLYLINE
  8
1
  6
CONTINUOUS
 66
     1
  0
VERTEX
  8
1
  6
CONTINUOUS
 10
34.421410
 20
5.965396
  0
VERTEX
  8
1
  6
CONTINUOUS
 10
33.058984
 20
5.609320
  0
SEQEND
  8
1
  6
CONTINUOUS
  0
POLYLINE
  8
1
  6
CONTINUOUS
 66
     1
  0
VERTEX
  8
1
  6
CONTINUOUS
 10
21.614736
 20
39.627868
  0
VERTEX
  8
1
  6
CONTINUOUS
 10
20.360452
 20
38.987538
  0
SEQEND
  8
1
  6
CONTINUOUS
  0
POLYLINE
  8
1
  6
CONTINUOUS
 66
     1
  0
VERTEX
  8
1
  6
CONTINUOUS
 10
14.503385
 20
34.696755
  0
VERTEX
  8
1
  6
CONTINUOUS
 10
25.829628
 20
4.925611
  0
SEQEND
  8
1
  6
CONTINUOUS
  0
POLYLINE
  8
1
  6
CONTINUOUS
 66
     1
  0
VERTEX
  8
1
  6
CONTINUOUS
 10
27.332239
 20
4.913211
  0
VERTEX
  8
1
  6
CONTINUOUS
 10
15.620463
 20
35.697733
  0
SEQEND
  8
1
  6
CONTINUOUS
  0
POLYLINE
  8
1
  6
CONTINUOUS
 66
     1
  0
VERTEX
  8
1
  6
CONTINUOUS
 10
27.332239
 20
4.913211
  0
VERTEX
  8
1
  6
CONTINUOUS
 10
25.829628
 20
4.925611
  0
SEQEND
  8
1
  6
CONTINUOUS
  0
POLYLINE
  8
1
  6
CONTINUOUS
 66
     1
  0
VERTEX
  8
1
  6
CONTINUOUS
 10
15.620463
 20
35.697733
  0
VERTEX
  8
1
  6
CONTINUOUS
 10
14.503385
 20
34.696755
  0
SEQEND
  8
1
  6
CONTINUOUS
  0
POLYLINE
  8
1
  6
CONTINUOUS
 66
     1
  0
VERTEX
  8
1
  6
CONTINUOUS
 10
10.188370
 20
29.306905
  0
VERTEX
  8
1
  6
CONTINUOUS
 10
19.025955
 20
6.077222
  0
SEQEND
  8
1
  6
CONTINUOUS
  0
POLYLINE
  8
1
  6
CONTINUOUS
 66
     1
  0
VERTEX
  8
1
  6
CONTINUOUS
 10
20.685059
 20
5.653481
  0
VERTEX
  8
1
  6
CONTINUOUS
 10
11.145270
 20
30.728912
  0
SEQEND
  8
1
  6
CONTINUOUS
  0
POLYLINE
  8
1
  6
CONTINUOUS
 66
     1
  0
VERTEX
  8
1
  6
CONTINUOUS
 10
20.685059
 20
5.653481
  0
VERTEX
  8
1
  6
CONTINUOUS
 10
19.025955
 20
6.077222
  0
SEQEND
  8
1
  6
CONTINUOUS
  0
POLYLINE
  8
1
  6
CONTINUOUS
 66
     1
  0
VERTEX
  8
1
  6
CONTINUOUS
 10
11.145270
 20
30.728912
  0
VERTEX
  8
1
  6
CONTINUOUS
 10
10.188370
 20
29.306905
  0
SEQEND
  8
1
  6
CONTINUOUS
  0
POLYLINE
  8
1
  6
CONTINUOUS
 66
     1
  0
VERTEX
  8
1
  6
CONTINUOUS
 10
55.421523
 20
42.898297
  0
VERTEX
  8
1
  6
CONTINUOUS
 10
44.056063
 20
38.574119
  0
SEQEND
  8
1
  6
CONTINUOUS
  0
POLYLINE
  8
1
  6
ESTILO_TQS_0001
 66
     1
  0
VERTEX
  8
1
  6
ESTILO_TQS_0001
 10
44.198295
 20
38.200261
  0
VERTEX
  8
1
  6
ESTILO_TQS_0001
 10
55.750689
 20
42.595561
  0
SEQEND
  8
1
  6
ESTILO_TQS_0001
  0
POLYLINE
  8
1
  6
CONTINUOUS
 66
     1
  0
VERTEX
  8
1
  6
CONTINUOUS
 10
44.198295
 20
38.200261
  0
VERTEX
  8
1
  6
CONTINUOUS
 10
44.056063
 20
38.574119
  0
SEQEND
  8
1
  6
CONTINUOUS
  0
POLYLINE
  8
1
  6
CONTINUOUS
 66
     1
  0
VERTEX
  8
1
  6
CONTINUOUS
 10
55.563763
 20
42.524441
  0
VERTEX
  8
1
  6
CONTINUOUS
 10
55.421523
 20
42.898297
  0
SEQEND
  8
1
  6
CONTINUOUS
  0
POLYLINE
  8
1
  6
CONTINUOUS
 66
     1
  0
VERTEX
  8
1
  6
CONTINUOUS
 10
56.554767
 20
43.329458
  0
VERTEX
  8
1
  6
CONTINUOUS
 10
55.795379
 20
43.040536
  0
SEQEND
  8
1
  6
CONTINUOUS
  0
POLYLINE
  8
1
  6
CONTINUOUS
 66
     1
  0
VERTEX
  8
1
  6
CONTINUOUS
 10
55.750689
 20
42.595561
  0
VERTEX
  8
1
  6
CONTINUOUS
 10
56.675427
 20
42.947393
  0
SEQEND
  8
1
  6
CONTINUOUS
  0
POLYLINE
  8
1
  6
CONTINUOUS
 66
     1
  0
VERTEX
  8
1
  6
CONTINUOUS
 10
58.229728
 20
43.966725
  0
VERTEX
  8
1
  6
CONTINUOUS
 10
57.764112
 20
43.789574
  0
SEQEND
  8
1
  6
CONTINUOUS
  0
POLYLINE
  8
1
  6
CONTINUOUS
 66
     1
  0
VERTEX
  8
1
  6
CONTINUOUS
 10
57.931604
 20
43.425326
  0
VERTEX
  8
1
  6
CONTINUOUS
 10
58.185038
 20
43.521749
  0
SEQEND
  8
1
  6
CONTINUOUS
  0
POLYLINE
  8
1
  6
CONTINUOUS
 66
     1
  0
VERTEX
  8
1
  6
CONTINUOUS
 10
62.347007
 20
45.533212
  0
VERTEX
  8
1
  6
CONTINUOUS
 10
58.229728
 20
43.966725
  0
SEQEND
  8
1
  6
CONTINUOUS
  0
POLYLINE
  8
1
  6
CONTINUOUS
 66
     1
  0
VERTEX
  8
1
  6
CONTINUOUS
 10
58.558893
 20
43.663988
  0
VERTEX
  8
1
  6
CONTINUOUS
 10
62.489245
 20
45.159356
  0
SEQEND
  8
1
  6
CONTINUOUS
  0
POLYLINE
  8
1
  6
CONTINUOUS
 66
     1
  0
VERTEX
  8
1
  6
CONTINUOUS
 10
69.421126
 20
48.224677
  0
VERTEX
  8
1
  6
CONTINUOUS
 10
62.720893
 20
45.675463
  0
SEQEND
  8
1
  6
CONTINUOUS
  0
POLYLINE
  8
1
  6
CONTINUOUS
 66
     1
  0
VERTEX
  8
1
  6
CONTINUOUS
 10
62.863133
 20
45.301607
  0
VERTEX
  8
1
  6
CONTINUOUS
 10
69.546335
 20
47.844342
  0
SEQEND
  8
1
  6
CONTINUOUS
  0
POLYLINE
  8
1
  6
CONTINUOUS
 66
     1
  0
VERTEX
  8
1
  6
CONTINUOUS
 10
59.572277
 20
39.875489
  0
VERTEX
  8
1
  6
CONTINUOUS
 10
57.324882
 20
39.020062
  0
SEQEND
  8
1
  6
CONTINUOUS
  0
POLYLINE
  8
1
  6
CONTINUOUS
 66
     1
  0
VERTEX
  8
1
  6
CONTINUOUS
 10
57.467114
 20
38.646203
  0
VERTEX
  8
1
  6
CONTINUOUS
 10
59.901459
 20
39.572789
  0
SEQEND
  8
1
  6
CONTINUOUS
  0
POLYLINE
  8
1
  6
CONTINUOUS
 66
     1
  0
VERTEX
  8
1
  6
CONTINUOUS
 10
62.840710
 20
41.119553
  0
VERTEX
  8
1
  6
CONTINUOUS
 10
59.946112
 20
40.017782
  0
SEQEND
  8
1
  6
CONTINUOUS
  0
POLYLINE
  8
1
  6
CONTINUOUS
 66
     1
  0
VERTEX
  8
1
  6
CONTINUOUS
 10
59.901459
 20
39.572789
  0
VERTEX
  8
1
  6
CONTINUOUS
 10
62.711856
 20
40.642511
  0
SEQEND
  8
1
  6
CONTINUOUS
  0
POLYLINE
  8
1
  6
CONTINUOUS
 66
     1
  0
VERTEX
  8
1
  6
CONTINUOUS
 10
63.876320
 20
41.513738
  0
VERTEX
  8
1
  6
CONTINUOUS
 10
62.840710
 20
41.119553
  0
SEQEND
  8
1
  6
CONTINUOUS
  0
POLYLINE
  8
1
  6
CONTINUOUS
 66
     1
  0
VERTEX
  8
1
  6
CONTINUOUS
 10
63.111856
 20
40.794763
  0
VERTEX
  8
1
  6
CONTINUOUS
 10
64.018559
 20
41.139882
  0
SEQEND
  8
1
  6
CONTINUOUS
  0
POLYLINE
  8
1
  6
CONTINUOUS
 66
     1
  0
VERTEX
  8
1
  6
CONTINUOUS
 10
66.016083
 20
42.327515
  0
VERTEX
  8
1
  6
CONTINUOUS
 10
64.250176
 20
41.655974
  0
SEQEND
  8
1
  6
CONTINUOUS
  0
POLYLINE
  8
1
  6
CONTINUOUS
 66
     1
  0
VERTEX
  8
1
  6
CONTINUOUS
 10
64.392416
 20
41.282118
  0
VERTEX
  8
1
  6
CONTINUOUS
 10
66.158262
 20
41.953637
  0
SEQEND
  8
1
  6
CONTINUOUS
  0
POLYLINE
  8
1
  6
CONTINUOUS
 66
     1
  0
VERTEX
  8
1
  6
CONTINUOUS
 10
66.556160
 20
42.532157
  0
VERTEX
  8
1
  6
CONTINUOUS
 10
66.016306
 20
42.327600
  0
SEQEND
  8
1
  6
CONTINUOUS
  0
POLYLINE
  8
1
  6
CONTINUOUS
 66
     1
  0
VERTEX
  8
1
  6
CONTINUOUS
 10
66.158038
 20
41.953552
  0
VERTEX
  8
1
  6
CONTINUOUS
 10
66.677800
 20
42.150496
  0
SEQEND
  8
1
  6
CONTINUOUS
  0
POLYLINE
  8
1
  6
CONTINUOUS
 66
     1
  0
VERTEX
  8
1
  6
CONTINUOUS
 10
67.556325
 20
42.686047
  0
VERTEX
  8
1
  6
CONTINUOUS
 10
68.427084
 20
42.816009
  0
SEQEND
  8
1
  6
CONTINUOUS
  0
POLYLINE
  8
1
  6
CONTINUOUS
 66
     1
  0
VERTEX
  8
1
  6
CONTINUOUS
 10
66.677800
 20
42.150496
  0
VERTEX
  8
1
  6
CONTINUOUS
 10
67.597699
 20
42.287792
  0
SEQEND
  8
1
  6
CONTINUOUS
  0
POLYLINE
  8
1
  6
CONTINUOUS
 66
     1
  0
VERTEX
  8
1
  6
CONTINUOUS
 10
68.074206
 20
42.716572
  0
VERTEX
  8
1
  6
CONTINUOUS
 10
67.556325
 20
42.686047
  0
SEQEND
  8
1
  6
CONTINUOUS
  0
POLYLINE
  8
1
  6
CONTINUOUS
 66
     1
  0
VERTEX
  8
1
  6
CONTINUOUS
 10
67.597699
 20
42.287792
  0
VERTEX
  8
1
  6
CONTINUOUS
 10
68.079603
 20
42.316196
  0
SEQEND
  8
1
  6
CONTINUOUS
  0
POLYLINE
  8
1
  6
CONTINUOUS
 66
     1
  0
VERTEX
  8
1
  6
CONTINUOUS
 10
68.670185
 20
42.697544
  0
VERTEX
  8
1
  6
CONTINUOUS
 10
68.074206
 20
42.716572
  0
SEQEND
  8
1
  6
CONTINUOUS
  0
POLYLINE
  8
1
  6
CONTINUOUS
 66
     1
  0
VERTEX
  8
1
  6
CONTINUOUS
 10
68.079603
 20
42.316196
  0
VERTEX
  8
1
  6
CONTINUOUS
 10
68.647539
 20
42.298063
  0
SEQEND
  8
1
  6
CONTINUOUS
  0
POLYLINE
  8
1
  6
CONTINUOUS
 66
     1
  0
VERTEX
  8
1
  6
CONTINUOUS
 10
68.975491
 20
42.672655
  0
VERTEX
  8
1
  6
CONTINUOUS
 10
68.670185
 20
42.697544
  0
SEQEND
  8
1
  6
CONTINUOUS
  0
POLYLINE
  8
1
  6
CONTINUOUS
 66
     1
  0
VERTEX
  8
1
  6
CONTINUOUS
 10
68.647539
 20
42.298063
  0
VERTEX
  8
1
  6
CONTINUOUS
 10
68.923272
 20
42.275585
  0
SEQEND
  8
1
  6
CONTINUOUS
  0
POLYLINE
  8
1
  6
CONTINUOUS
 66
     1
  0
VERTEX
  8
1
  6
CONTINUOUS
 10
69.568484
 20
42.564636
  0
VERTEX
  8
1
  6
CONTINUOUS
 10
68.975491
 20
42.672655
  0
SEQEND
  8
1
  6
CONTINUOUS
  0
POLYLINE
  8
1
  6
CONTINUOUS
 66
     1
  0
VERTEX
  8
1
  6
CONTINUOUS
 10
68.923272
 20
42.275585
  0
VERTEX
  8
1
  6
CONTINUOUS
 10
69.477335
 20
42.174657
  0
SEQEND
  8
1
  6
CONTINUOUS
  0
POLYLINE
  8
1
  6
CONTINUOUS
 66
     1
  0
VERTEX
  8
1
  6
CONTINUOUS
 10
70.147923
 20
42.398625
  0
VERTEX
  8
1
  6
CONTINUOUS
 10
69.568484
 20
42.564636
  0
SEQEND
  8
1
  6
CONTINUOUS
  0
POLYLINE
  8
1
  6
CONTINUOUS
 66
     1
  0
VERTEX
  8
1
  6
CONTINUOUS
 10
69.477335
 20
42.174657
  0
VERTEX
  8
1
  6
CONTINUOUS
 10
70.018735
 20
42.019545
  0
SEQEND
  8
1
  6
CONTINUOUS
  0
POLYLINE
  8
1
  6
CONTINUOUS
 66
     1
  0
VERTEX
  8
1
  6
CONTINUOUS
 10
70.708151
 20
42.176244
  0
VERTEX
  8
1
  6
CONTINUOUS
 10
70.147923
 20
42.398625
  0
SEQEND
  8
1
  6
CONTINUOUS
  0
POLYLINE
  8
1
  6
CONTINUOUS
 66
     1
  0
VERTEX
  8
1
  6
CONTINUOUS
 10
70.018735
 20
42.019545
  0
VERTEX
  8
1
  6
CONTINUOUS
 10
70.542185
 20
41.811763
  0
SEQEND
  8
1
  6
CONTINUOUS
  0
POLYLINE
  8
1
  6
CONTINUOUS
 66
     1
  0
VERTEX
  8
1
  6
CONTINUOUS
 10
71.243699
 20
41.899664
  0
VERTEX
  8
1
  6
CONTINUOUS
 10
70.708151
 20
42.176244
  0
SEQEND
  8
1
  6
CONTINUOUS
  0
POLYLINE
  8
1
  6
CONTINUOUS
 66
     1
  0
VERTEX
  8
1
  6
CONTINUOUS
 10
70.542185
 20
41.811763
  0
VERTEX
  8
1
  6
CONTINUOUS
 10
71.042575
 20
41.553340
  0
SEQEND
  8
1
  6
CONTINUOUS
  0
POLYLINE
  8
1
  6
CONTINUOUS
 66
     1
  0
VERTEX
  8
1
  6
CONTINUOUS
 10
71.732743
 20
41.582353
  0
VERTEX
  8
1
  6
CONTINUOUS
 10
71.243699
 20
41.899664
  0
SEQEND
  8
1
  6
CONTINUOUS
  0
POLYLINE
  8
1
  6
CONTINUOUS
 66
     1
  0
VERTEX
  8
1
  6
CONTINUOUS
 10
71.042575
 20
41.553340
  0
VERTEX
  8
1
  6
CONTINUOUS
 10
71.515021
 20
41.246798
  0
SEQEND
  8
1
  6
CONTINUOUS
  0
POLYLINE
  8
1
  6
CONTINUOUS
 66
     1
  0
VERTEX
  8
1
  6
CONTINUOUS
 10
72.172014
 20
41.297336
  0
VERTEX
  8
1
  6
CONTINUOUS
 10
71.732743
 20
41.582353
  0
SEQEND
  8
1
  6
CONTINUOUS
  0
POLYLINE
  8
1
  6
CONTINUOUS
 66
     1
  0
VERTEX
  8
1
  6
CONTINUOUS
 10
71.515021
 20
41.246798
  0
VERTEX
  8
1
  6
CONTINUOUS
 10
71.970890
 20
40.951012
  0
SEQEND
  8
1
  6
CONTINUOUS
  0
POLYLINE
  8
1
  6
CONTINUOUS
 66
     1
  0
VERTEX
  8
1
  6
CONTINUOUS
 10
72.619689
 20
41.066137
  0
VERTEX
  8
1
  6
CONTINUOUS
 10
72.172014
 20
41.297336
  0
SEQEND
  8
1
  6
CONTINUOUS
  0
POLYLINE
  8
1
  6
CONTINUOUS
 66
     1
  0
VERTEX
  8
1
  6
CONTINUOUS
 10
71.970890
 20
40.951012
  0
VERTEX
  8
1
  6
CONTINUOUS
 10
72.453722
 20
40.701656
  0
SEQEND
  8
1
  6
CONTINUOUS
  0
POLYLINE
  8
1
  6
CONTINUOUS
 66
     1
  0
VERTEX
  8
1
  6
CONTINUOUS
 10
73.087994
 20
40.880245
  0
VERTEX
  8
1
  6
CONTINUOUS
 10
72.619689
 20
41.066137
  0
SEQEND
  8
1
  6
CONTINUOUS
  0
POLYLINE
  8
1
  6
CONTINUOUS
 66
     1
  0
VERTEX
  8
1
  6
CONTINUOUS
 10
72.453722
 20
40.701656
  0
VERTEX
  8
1
  6
CONTINUOUS
 10
72.958805
 20
40.501164
  0
SEQEND
  8
1
  6
CONTINUOUS
  0
POLYLINE
  8
1
  6
CONTINUOUS
 66
     1
  0
VERTEX
  8
1
  6
CONTINUOUS
 10
73.572357
 20
40.741473
  0
VERTEX
  8
1
  6
CONTINUOUS
 10
73.087994
 20
40.880245
  0
SEQEND
  8
1
  6
CONTINUOUS
  0
POLYLINE
  8
1
  6
CONTINUOUS
 66
     1
  0
VERTEX
  8
1
  6
CONTINUOUS
 10
72.958805
 20
40.501164
  0
VERTEX
  8
1
  6
CONTINUOUS
 10
73.481208
 20
40.351495
  0
SEQEND
  8
1
  6
CONTINUOUS
  0
POLYLINE
  8
1
  6
CONTINUOUS
 66
     1
  0
VERTEX
  8
1
  6
CONTINUOUS
 10
74.068051
 20
40.651178
  0
VERTEX
  8
1
  6
CONTINUOUS
 10
73.572357
 20
40.741473
  0
SEQEND
  8
1
  6
CONTINUOUS
  0
POLYLINE
  8
1
  6
CONTINUOUS
 66
     1
  0
VERTEX
  8
1
  6
CONTINUOUS
 10
73.481208
 20
40.351495
  0
VERTEX
  8
1
  6
CONTINUOUS
 10
74.015831
 20
40.254108
  0
SEQEND
  8
1
  6
CONTINUOUS
  0
POLYLINE
  8
1
  6
CONTINUOUS
 66
     1
  0
VERTEX
  8
1
  6
CONTINUOUS
 10
74.570236
 20
40.610240
  0
VERTEX
  8
1
  6
CONTINUOUS
 10
74.068051
 20
40.651178
  0
SEQEND
  8
1
  6
CONTINUOUS
  0
POLYLINE
  8
1
  6
CONTINUOUS
 66
     1
  0
VERTEX
  8
1
  6
CONTINUOUS
 10
74.015831
 20
40.254108
  0
VERTEX
  8
1
  6
CONTINUOUS
 10
74.557455
 20
40.209955
  0
SEQEND
  8
1
  6
CONTINUOUS
  0
POLYLINE
  8
1
  6
CONTINUOUS
 66
     1
  0
VERTEX
  8
1
  6
CONTINUOUS
 10
75.074009
 20
40.619059
  0
VERTEX
  8
1
  6
CONTINUOUS
 10
74.570236
 20
40.610240
  0
SEQEND
  8
1
  6
CONTINUOUS
  0
POLYLINE
  8
1
  6
CONTINUOUS
 66
     1
  0
VERTEX
  8
1
  6
CONTINUOUS
 10
74.557455
 20
40.209955
  0
VERTEX
  8
1
  6
CONTINUOUS
 10
75.100792
 20
40.219467
  0
SEQEND
  8
1
  6
CONTINUOUS
  0
POLYLINE
  8
1
  6
CONTINUOUS
 66
     1
  0
VERTEX
  8
1
  6
CONTINUOUS
 10
75.574453
 20
40.677549
  0
VERTEX
  8
1
  6
CONTINUOUS
 10
75.074009
 20
40.619059
  0
SEQEND
  8
1
  6
CONTINUOUS
  0
POLYLINE
  8
1
  6
CONTINUOUS
 66
     1
  0
VERTEX
  8
1
  6
CONTINUOUS
 10
75.100792
 20
40.219467
  0
VERTEX
  8
1
  6
CONTINUOUS
 10
75.640539
 20
40.282550
  0
SEQEND
  8
1
  6
CONTINUOUS
  0
POLYLINE
  8
1
  6
CONTINUOUS
 66
     1
  0
VERTEX
  8
1
  6
CONTINUOUS
 10
76.066683
 20
40.785139
  0
VERTEX
  8
1
  6
CONTINUOUS
 10
75.574453
 20
40.677549
  0
SEQEND
  8
1
  6
CONTINUOUS
  0
POLYLINE
  8
1
  6
CONTINUOUS
 66
     1
  0
VERTEX
  8
1
  6
CONTINUOUS
 10
75.640539
 20
40.282550
  0
VERTEX
  8
1
  6
CONTINUOUS
 10
76.171425
 20
40.398589
  0
SEQEND
  8
1
  6
CONTINUOUS
  0
POLYLINE
  8
1
  6
CONTINUOUS
 66
     1
  0
VERTEX
  8
1
  6
CONTINUOUS
 10
76.545893
 20
40.940778
  0
VERTEX
  8
1
  6
CONTINUOUS
 10
76.066683
 20
40.785139
  0
SEQEND
  8
1
  6
CONTINUOUS
  0
POLYLINE
  8
1
  6
CONTINUOUS
 66
     1
  0
VERTEX
  8
1
  6
CONTINUOUS
 10
76.171425
 20
40.398589
  0
VERTEX
  8
1
  6
CONTINUOUS
 10
76.688270
 20
40.566452
  0
SEQEND
  8
1
  6
CONTINUOUS
  0
POLYLINE
  8
1
  6
CONTINUOUS
 66
     1
  0
VERTEX
  8
1
  6
CONTINUOUS
 10
77.007404
 20
41.142947
  0
VERTEX
  8
1
  6
CONTINUOUS
 10
76.545893
 20
40.940778
  0
SEQEND
  8
1
  6
CONTINUOUS
  0
POLYLINE
  8
1
  6
CONTINUOUS
 66
     1
  0
VERTEX
  8
1
  6
CONTINUOUS
 10
76.688270
 20
40.566452
  0
VERTEX
  8
1
  6
CONTINUOUS
 10
77.186026
 20
40.784498
  0
SEQEND
  8
1
  6
CONTINUOUS
  0
POLYLINE
  8
1
  6
CONTINUOUS
 66
     1
  0
VERTEX
  8
1
  6
CONTINUOUS
 10
77.446713
 20
41.389673
  0
VERTEX
  8
1
  6
CONTINUOUS
 10
77.007404
 20
41.142947
  0
SEQEND
  8
1
  6
CONTINUOUS
  0
POLYLINE
  8
1
  6
CONTINUOUS
 66
     1
  0
VERTEX
  8
1
  6
CONTINUOUS
 10
77.186026
 20
40.784498
  0
VERTEX
  8
1
  6
CONTINUOUS
 10
77.659835
 20
41.050601
  0
SEQEND
  8
1
  6
CONTINUOUS
  0
POLYLINE
  8
1
  6
CONTINUOUS
 66
     1
  0
VERTEX
  8
1
  6
CONTINUOUS
 10
77.859529
 20
41.678547
  0
VERTEX
  8
1
  6
CONTINUOUS
 10
77.446713
 20
41.389673
  0
SEQEND
  8
1
  6
CONTINUOUS
  0
POLYLINE
  8
1
  6
CONTINUOUS
 66
     1
  0
VERTEX
  8
1
  6
CONTINUOUS
 10
77.659835
 20
41.050601
  0
VERTEX
  8
1
  6
CONTINUOUS
 10
78.105072
 20
41.362162
  0
SEQEND
  8
1
  6
CONTINUOUS
  0
POLYLINE
  8
1
  6
CONTINUOUS
 66
     1
  0
VERTEX
  8
1
  6
CONTINUOUS
 10
78.241823
 20
42.006749
  0
VERTEX
  8
1
  6
CONTINUOUS
 10
77.859529
 20
41.678547
  0
SEQEND
  8
1
  6
CONTINUOUS
  0
POLYLINE
  8
1
  6
CONTINUOUS
 66
     1
  0
VERTEX
  8
1
  6
CONTINUOUS
 10
78.105072
 20
41.362162
  0
VERTEX
  8
1
  6
CONTINUOUS
 10
78.517390
 20
41.716139
  0
SEQEND
  8
1
  6
CONTINUOUS
  0
POLYLINE
  8
1
  6
CONTINUOUS
 66
     1
  0
VERTEX
  8
1
  6
CONTINUOUS
 10
78.589863
 20
42.371075
  0
VERTEX
  8
1
  6
CONTINUOUS
 10
78.241823
 20
42.006749
  0
SEQEND
  8
1
  6
CONTINUOUS
  0
POLYLINE
  8
1
  6
CONTINUOUS
 66
     1
  0
VERTEX
  8
1
  6
CONTINUOUS
 10
78.517390
 20
41.716139
  0
VERTEX
  8
1
  6
CONTINUOUS
 10
78.892763
 20
42.109077
  0
SEQEND
  8
1
  6
CONTINUOUS
  0
POLYLINE
  8
1
  6
CONTINUOUS
 66
     1
  0
VERTEX
  8
1
  6
CONTINUOUS
 10
78.900252
 20
42.767969
  0
VERTEX
  8
1
  6
CONTINUOUS
 10
78.589863
 20
42.371075
  0
SEQEND
  8
1
  6
CONTINUOUS
  0
POLYLINE
  8
1
  6
CONTINUOUS
 66
     1
  0
VERTEX
  8
1
  6
CONTINUOUS
 10
78.892763
 20
42.109077
  0
VERTEX
  8
1
  6
CONTINUOUS
 10
79.227528
 20
42.537141
  0
SEQEND
  8
1
  6
CONTINUOUS
  0
POLYLINE
  8
1
  6
CONTINUOUS
 66
     1
  0
VERTEX
  8
1
  6
CONTINUOUS
 10
79.169959
 20
43.193555
  0
VERTEX
  8
1
  6
CONTINUOUS
 10
78.900252
 20
42.767969
  0
SEQEND
  8
1
  6
CONTINUOUS
  0
POLYLINE
  8
1
  6
CONTINUOUS
 66
     1
  0
VERTEX
  8
1
  6
CONTINUOUS
 10
79.227528
 20
42.537141
  0
VERTEX
  8
1
  6
CONTINUOUS
 10
79.518417
 20
42.996150
  0
SEQEND
  8
1
  6
CONTINUOUS
  0
POLYLINE
  8
1
  6
CONTINUOUS
 66
     1
  0
VERTEX
  8
1
  6
CONTINUOUS
 10
79.396351
 20
43.643679
  0
VERTEX
  8
1
  6
CONTINUOUS
 10
79.169959
 20
43.193555
  0
SEQEND
  8
1
  6
CONTINUOUS
  0
POLYLINE
  8
1
  6
CONTINUOUS
 66
     1
  0
VERTEX
  8
1
  6
CONTINUOUS
 10
79.518417
 20
42.996150
  0
VERTEX
  8
1
  6
CONTINUOUS
 10
79.762589
 20
43.481625
  0
SEQEND
  8
1
  6
CONTINUOUS
  0
POLYLINE
  8
1
  6
CONTINUOUS
 66
     1
  0
VERTEX
  8
1
  6
CONTINUOUS
 10
79.577219
 20
44.113948
  0
VERTEX
  8
1
  6
CONTINUOUS
 10
79.396351
 20
43.643679
  0
SEQEND
  8
1
  6
CONTINUOUS
  0
POLYLINE
  8
1
  6
CONTINUOUS
 66
     1
  0
VERTEX
  8
1
  6
CONTINUOUS
 10
79.762589
 20
43.481625
  0
VERTEX
  8
1
  6
CONTINUOUS
 10
79.957661
 20
43.988826
  0
SEQEND
  8
1
  6
CONTINUOUS
  0
POLYLINE
  8
1
  6
CONTINUOUS
 66
     1
  0
VERTEX
  8
1
  6
CONTINUOUS
 10
79.716041
 20
44.618846
  0
VERTEX
  8
1
  6
CONTINUOUS
 10
79.577219
 20
44.113948
  0
SEQEND
  8
1
  6
CONTINUOUS
  0
POLYLINE
  8
1
  6
CONTINUOUS
 66
     1
  0
VERTEX
  8
1
  6
CONTINUOUS
 10
79.957661
 20
43.988826
  0
VERTEX
  8
1
  6
CONTINUOUS
 10
80.101728
 20
44.512801
  0
SEQEND
  8
1
  6
CONTINUOUS
  0
POLYLINE
  8
1
  6
CONTINUOUS
 66
     1
  0
VERTEX
  8
1
  6
CONTINUOUS
 10
79.870593
 20
45.180952
  0
VERTEX
  8
1
  6
CONTINUOUS
 10
79.716041
 20
44.618846
  0
SEQEND
  8
1
  6
CONTINUOUS
  0
POLYLINE
  8
1
  6
CONTINUOUS
 66
     1
  0
VERTEX
  8
1
  6
CONTINUOUS
 10
80.101728
 20
44.512801
  0
VERTEX
  8
1
  6
CONTINUOUS
 10
80.251035
 20
45.055830
  0
SEQEND
  8
1
  6
CONTINUOUS
  0
POLYLINE
  8
1
  6
CONTINUOUS
 66
     1
  0
VERTEX
  8
1
  6
CONTINUOUS
 10
80.086963
 20
45.743529
  0
VERTEX
  8
1
  6
CONTINUOUS
 10
79.870593
 20
45.180952
  0
SEQEND
  8
1
  6
CONTINUOUS
  0
POLYLINE
  8
1
  6
CONTINUOUS
 66
     1
  0
VERTEX
  8
1
  6
CONTINUOUS
 10
80.251035
 20
45.055830
  0
VERTEX
  8
1
  6
CONTINUOUS
 10
80.453201
 20
45.581475
  0
SEQEND
  8
1
  6
CONTINUOUS
  0
POLYLINE
  8
1
  6
CONTINUOUS
 66
     1
  0
VERTEX
  8
1
  6
CONTINUOUS
 10
80.357794
 20
46.282008
  0
VERTEX
  8
1
  6
CONTINUOUS
 10
80.086963
 20
45.743529
  0
SEQEND
  8
1
  6
CONTINUOUS
  0
POLYLINE
  8
1
  6
CONTINUOUS
 66
     1
  0
VERTEX
  8
1
  6
CONTINUOUS
 10
80.453201
 20
45.581475
  0
VERTEX
  8
1
  6
CONTINUOUS
 10
80.706252
 20
46.084603
  0
SEQEND
  8
1
  6
CONTINUOUS
  0
POLYLINE
  8
1
  6
CONTINUOUS
 66
     1
  0
VERTEX
  8
1
  6
CONTINUOUS
 10
80.680441
 20
46.791132
  0
VERTEX
  8
1
  6
CONTINUOUS
 10
80.357794
 20
46.282008
  0
SEQEND
  8
1
  6
CONTINUOUS
  0
POLYLINE
  8
1
  6
CONTINUOUS
 66
     1
  0
VERTEX
  8
1
  6
CONTINUOUS
 10
80.706252
 20
46.084603
  0
VERTEX
  8
1
  6
CONTINUOUS
 10
81.007718
 20
46.560304
  0
SEQEND
  8
1
  6
CONTINUOUS
  0
POLYLINE
  8
1
  6
CONTINUOUS
 66
     1
  0
VERTEX
  8
1
  6
CONTINUOUS
 10
81.051756
 20
47.265932
  0
VERTEX
  8
1
  6
CONTINUOUS
 10
80.680441
 20
46.791132
  0
SEQEND
  8
1
  6
CONTINUOUS
  0
POLYLINE
  8
1
  6
CONTINUOUS
 66
     1
  0
VERTEX
  8
1
  6
CONTINUOUS
 10
81.007718
 20
46.560304
  0
VERTEX
  8
1
  6
CONTINUOUS
 10
81.354656
 20
47.003933
  0
SEQEND
  8
1
  6
CONTINUOUS
  0
POLYLINE
  8
1
  6
CONTINUOUS
 66
     1
  0
VERTEX
  8
1
  6
CONTINUOUS
 10
81.468113
 20
47.701771
  0
VERTEX
  8
1
  6
CONTINUOUS
 10
81.051756
 20
47.265932
  0
SEQEND
  8
1
  6
CONTINUOUS
  0
POLYLINE
  8
1
  6
CONTINUOUS
 66
     1
  0
VERTEX
  8
1
  6
CONTINUOUS
 10
81.354656
 20
47.003933
  0
VERTEX
  8
1
  6
CONTINUOUS
 10
81.743679
 20
47.411160
  0
SEQEND
  8
1
  6
CONTINUOUS
  0
POLYLINE
  8
1
  6
CONTINUOUS
 66
     1
  0
VERTEX
  8
1
  6
CONTINUOUS
 10
81.925447
 20
48.094395
  0
VERTEX
  8
1
  6
CONTINUOUS
 10
81.468113
 20
47.701771
  0
SEQEND
  8
1
  6
CONTINUOUS
  0
POLYLINE
  8
1
  6
CONTINUOUS
 66
     1
  0
VERTEX
  8
1
  6
CONTINUOUS
 10
81.743679
 20
47.411160
  0
VERTEX
  8
1
  6
CONTINUOUS
 10
82.170991
 20
47.778010
  0
SEQEND
  8
1
  6
CONTINUOUS
  0
POLYLINE
  8
1
  6
CONTINUOUS
 66
     1
  0
VERTEX
  8
1
  6
CONTINUOUS
 10
82.419295
 20
48.439972
  0
VERTEX
  8
1
  6
CONTINUOUS
 10
81.925447
 20
48.094395
  0
SEQEND
  8
1
  6
CONTINUOUS
  0
POLYLINE
  8
1
  6
CONTINUOUS
 66
     1
  0
VERTEX
  8
1
  6
CONTINUOUS
 10
82.170991
 20
47.778010
  0
VERTEX
  8
1
  6
CONTINUOUS
 10
82.632418
 20
48.100900
  0
SEQEND
  8
1
  6
CONTINUOUS
  0
POLYLINE
  8
1
  6
CONTINUOUS
 66
     1
  0
VERTEX
  8
1
  6
CONTINUOUS
 10
82.944834
 20
48.735128
  0
VERTEX
  8
1
  6
CONTINUOUS
 10
82.419295
 20
48.439972
  0
SEQEND
  8
1
  6
CONTINUOUS
  0
POLYLINE
  8
1
  6
CONTINUOUS
 66
     1
  0
VERTEX
  8
1
  6
CONTINUOUS
 10
82.632418
 20
48.100900
  0
VERTEX
  8
1
  6
CONTINUOUS
 10
83.123456
 20
48.376679
  0
SEQEND
  8
1
  6
CONTINUOUS
  0
POLYLINE
  8
1
  6
CONTINUOUS
 66
     1
  0
VERTEX
  8
1
  6
CONTINUOUS
 10
83.487869
 20
48.973009
  0
VERTEX
  8
1
  6
CONTINUOUS
 10
82.944834
 20
48.735128
  0
SEQEND
  8
1
  6
CONTINUOUS
  0
POLYLINE
  8
1
  6
CONTINUOUS
 66
     1
  0
VERTEX
  8
1
  6
CONTINUOUS
 10
83.123456
 20
48.376679
  0
VERTEX
  8
1
  6
CONTINUOUS
 10
83.639313
 20
48.602655
  0
SEQEND
  8
1
  6
CONTINUOUS
  0
POLYLINE
  8
1
  6
CONTINUOUS
 66
     1
  0
VERTEX
  8
1
  6
CONTINUOUS
 10
87.241501
 20
50.400718
  0
VERTEX
  8
1
  6
CONTINUOUS
 10
83.487869
 20
48.973009
  0
SEQEND
  8
1
  6
CONTINUOUS
  0
POLYLINE
  8
1
  6
CONTINUOUS
 66
     1
  0
VERTEX
  8
1
  6
CONTINUOUS
 10
83.639313
 20
48.602655
  0
VERTEX
  8
1
  6
CONTINUOUS
 10
87.241501
 20
49.972761
  0
SEQEND
  8
1
  6
CONTINUOUS
  0
POLYLINE
  8
1
  6
CONTINUOUS
 66
     1
  0
VERTEX
  8
1
  6
CONTINUOUS
 10
66.158038
 20
41.953552
  0
VERTEX
  8
1
  6
CONTINUOUS
 10
66.158262
 20
41.953637
  0
SEQEND
  8
1
  6
CONTINUOUS
  0
POLYLINE
  8
1
  6
CONTINUOUS
 66
     1
  0
VERTEX
  8
1
  6
CONTINUOUS
 10
66.016306
 20
42.327600
  0
VERTEX
  8
1
  6
CONTINUOUS
 10
66.016083
 20
42.327515
  0
SEQEND
  8
1
  6
CONTINUOUS
  0
POLYLINE
  8
1
  6
CONTINUOUS
 66
     1
  0
VERTEX
  8
1
  6
CONTINUOUS
 10
87.241501
 20
49.972761
  0
VERTEX
  8
1
  6
CONTINUOUS
 10
87.241501
 20
50.400718
  0
SEQEND
  8
1
  6
CONTINUOUS
  0
POLYLINE
  8
1
  6
CONTINUOUS
 66
     1
  0
VERTEX
  8
1
  6
CONTINUOUS
 10
58.185038
 20
43.521749
  0
VERTEX
  8
1
  6
CONTINUOUS
 10
59.572277
 20
39.875489
  0
SEQEND
  8
1
  6
CONTINUOUS
  0
POLYLINE
  8
1
  6
CONTINUOUS
 66
     1
  0
VERTEX
  8
1
  6
CONTINUOUS
 10
59.946112
 20
40.017782
  0
VERTEX
  8
1
  6
CONTINUOUS
 10
58.558893
 20
43.663988
  0
SEQEND
  8
1
  6
CONTINUOUS
  0
POLYLINE
  8
1
  6
CONTINUOUS
 66
     1
  0
VERTEX
  8
1
  6
CONTINUOUS
 10
87.841501
 20
49.029165
  0
VERTEX
  8
1
  6
CONTINUOUS
 10
87.841501
 20
49.429165
  0
SEQEND
  8
1
  6
CONTINUOUS
  0
POLYLINE
  8
1
  6
CONTINUOUS
 66
     1
  0
VERTEX
  8
1
  6
CONTINUOUS
 10
98.359240
 20
59.263355
  0
VERTEX
  8
1
  6
CONTINUOUS
 10
98.359240
 20
59.219160
  0
SEQEND
  8
1
  6
CONTINUOUS
  0
POLYLINE
  8
1
  6
CONTINUOUS
 66
     1
  0
VERTEX
  8
1
  6
CONTINUOUS
 10
98.359240
 20
67.163293
  0
VERTEX
  8
1
  6
CONTINUOUS
 10
98.359240
 20
67.563293
  0
SEQEND
  8
1
  6
CONTINUOUS
  0
POLYLINE
  8
1
  6
CONTINUOUS
 66
     1
  0
VERTEX
  8
1
  6
CONTINUOUS
 10
73.729726
 20
45.261459
  0
VERTEX
  8
1
  6
CONTINUOUS
 10
66.555906
 20
42.532061
  0
SEQEND
  8
1
  6
CONTINUOUS
  0
POLYLINE
  8
1
  6
CONTINUOUS
 66
     1
  0
VERTEX
  8
1
  6
CONTINUOUS
 10
68.427084
 20
42.816009
  0
VERTEX
  8
1
  6
CONTINUOUS
 10
74.245777
 20
45.029827
  0
SEQEND
  8
1
  6
CONTINUOUS
  0
POLYLINE
  8
1
  6
CONTINUOUS
 66
     1
  0
VERTEX
  8
1
  6
CONTINUOUS
 10
66.555906
 20
42.532061
  0
VERTEX
  8
1
  6
CONTINUOUS
 10
66.556160
 20
42.532157
  0
SEQEND
  8
1
  6
CONTINUOUS
  0
POLYLINE
  8
1
  6
CONTINUOUS
 66
     1
  0
VERTEX
  8
1
  6
CONTINUOUS
 10
69.967024
 20
48.377238
  0
VERTEX
  8
1
  6
CONTINUOUS
 10
69.421126
 20
48.224677
  0
SEQEND
  8
1
  6
CONTINUOUS
  0
POLYLINE
  8
1
  6
CONTINUOUS
 66
     1
  0
VERTEX
  8
1
  6
CONTINUOUS
 10
69.546335
 20
47.844342
  0
VERTEX
  8
1
  6
CONTINUOUS
 10
70.041684
 20
47.982776
  0
SEQEND
  8
1
  6
CONTINUOUS
  0
POLYLINE
  8
1
  6
CONTINUOUS
 66
     1
  0
VERTEX
  8
1
  6
CONTINUOUS
 10
70.556486
 20
48.437333
  0
VERTEX
  8
1
  6
CONTINUOUS
 10
69.967024
 20
48.377238
  0
SEQEND
  8
1
  6
CONTINUOUS
  0
POLYLINE
  8
1
  6
CONTINUOUS
 66
     1
  0
VERTEX
  8
1
  6
CONTINUOUS
 10
70.041684
 20
47.982776
  0
VERTEX
  8
1
  6
CONTINUOUS
 10
70.562256
 20
48.035848
  0
SEQEND
  8
1
  6
CONTINUOUS
  0
POLYLINE
  8
1
  6
CONTINUOUS
 66
     1
  0
VERTEX
  8
1
  6
CONTINUOUS
 10
71.147668
 20
48.394186
  0
VERTEX
  8
1
  6
CONTINUOUS
 10
70.556486
 20
48.437333
  0
SEQEND
  8
1
  6
CONTINUOUS
  0
POLYLINE
  8
1
  6
CONTINUOUS
 66
     1
  0
VERTEX
  8
1
  6
CONTINUOUS
 10
70.562256
 20
48.035848
  0
VERTEX
  8
1
  6
CONTINUOUS
 10
71.083664
 20
47.997793
  0
SEQEND
  8
1
  6
CONTINUOUS
  0
POLYLINE
  8
1
  6
CONTINUOUS
 66
     1
  0
VERTEX
  8
1
  6
CONTINUOUS
 10
71.722387
 20
48.249082
  0
VERTEX
  8
1
  6
CONTINUOUS
 10
71.147668
 20
48.394186
  0
SEQEND
  8
1
  6
CONTINUOUS
  0
POLYLINE
  8
1
  6
CONTINUOUS
 66
     1
  0
VERTEX
  8
1
  6
CONTINUOUS
 10
71.083664
 20
47.997793
  0
VERTEX
  8
1
  6
CONTINUOUS
 10
71.590553
 20
47.869815
  0
SEQEND
  8
1
  6
CONTINUOUS
  0
POLYLINE
  8
1
  6
CONTINUOUS
 66
     1
  0
VERTEX
  8
1
  6
CONTINUOUS
 10
72.263197
 20
48.006427
  0
VERTEX
  8
1
  6
CONTINUOUS
 10
71.722387
 20
48.249082
  0
SEQEND
  8
1
  6
CONTINUOUS
  0
POLYLINE
  8
1
  6
CONTINUOUS
 66
     1
  0
VERTEX
  8
1
  6
CONTINUOUS
 10
71.590553
 20
47.869815
  0
VERTEX
  8
1
  6
CONTINUOUS
 10
72.067535
 20
47.655799
  0
SEQEND
  8
1
  6
CONTINUOUS
  0
POLYLINE
  8
1
  6
CONTINUOUS
 66
     1
  0
VERTEX
  8
1
  6
CONTINUOUS
 10
72.753680
 20
47.673586
  0
VERTEX
  8
1
  6
CONTINUOUS
 10
72.263197
 20
48.006427
  0
SEQEND
  8
1
  6
CONTINUOUS
  0
POLYLINE
  8
1
  6
CONTINUOUS
 66
     1
  0
VERTEX
  8
1
  6
CONTINUOUS
 10
72.067535
 20
47.655799
  0
VERTEX
  8
1
  6
CONTINUOUS
 10
72.500130
 20
47.362242
  0
SEQEND
  8
1
  6
CONTINUOUS
  0
POLYLINE
  8
1
  6
CONTINUOUS
 66
     1
  0
VERTEX
  8
1
  6
CONTINUOUS
 10
73.178948
 20
47.260664
  0
VERTEX
  8
1
  6
CONTINUOUS
 10
72.753680
 20
47.673586
  0
SEQEND
  8
1
  6
CONTINUOUS
  0
POLYLINE
  8
1
  6
CONTINUOUS
 66
     1
  0
VERTEX
  8
1
  6
CONTINUOUS
 10
72.500130
 20
47.362242
  0
VERTEX
  8
1
  6
CONTINUOUS
 10
72.875206
 20
46.998054
  0
SEQEND
  8
1
  6
CONTINUOUS
  0
POLYLINE
  8
1
  6
CONTINUOUS
 66
     1
  0
VERTEX
  8
1
  6
CONTINUOUS
 10
73.526090
 20
46.780196
  0
VERTEX
  8
1
  6
CONTINUOUS
 10
73.178948
 20
47.260664
  0
SEQEND
  8
1
  6
CONTINUOUS
  0
POLYLINE
  8
1
  6
CONTINUOUS
 66
     1
  0
VERTEX
  8
1
  6
CONTINUOUS
 10
72.875206
 20
46.998054
  0
VERTEX
  8
1
  6
CONTINUOUS
 10
73.181377
 20
46.574293
  0
SEQEND
  8
1
  6
CONTINUOUS
  0
POLYLINE
  8
1
  6
CONTINUOUS
 66
     1
  0
VERTEX
  8
1
  6
CONTINUOUS
 10
73.776975
 20
46.262437
  0
VERTEX
  8
1
  6
CONTINUOUS
 10
73.526090
 20
46.780196
  0
SEQEND
  8
1
  6
CONTINUOUS
  0
POLYLINE
  8
1
  6
CONTINUOUS
 66
     1
  0
VERTEX
  8
1
  6
CONTINUOUS
 10
73.181377
 20
46.574293
  0
VERTEX
  8
1
  6
CONTINUOUS
 10
73.409348
 20
46.103821
  0
SEQEND
  8
1
  6
CONTINUOUS
  0
POLYLINE
  8
1
  6
CONTINUOUS
 66
     1
  0
VERTEX
  8
1
  6
CONTINUOUS
 10
74.245777
 20
45.029827
  0
VERTEX
  8
1
  6
CONTINUOUS
 10
73.776975
 20
46.262437
  0
SEQEND
  8
1
  6
CONTINUOUS
  0
POLYLINE
  8
1
  6
CONTINUOUS
 66
     1
  0
VERTEX
  8
1
  6
CONTINUOUS
 10
73.409348
 20
46.103821
  0
VERTEX
  8
1
  6
CONTINUOUS
 10
73.729726
 20
45.261459
  0
SEQEND
  8
1
  6
CONTINUOUS
  0
POLYLINE
  8
1
  6
CONTINUOUS
 66
     1
  0
VERTEX
  8
1
  6
CONTINUOUS
 10
90.069236
 20
65.759160
  0
VERTEX
  8
1
  6
CONTINUOUS
 10
90.069236
 20
59.219165
  0
SEQEND
  8
1
  6
CONTINUOUS
  0
POLYLINE
  8
1
  6
CONTINUOUS
 66
     1
  0
VERTEX
  8
1
  6
CONTINUOUS
 10
90.469236
 20
59.219165
  0
VERTEX
  8
1
  6
CONTINUOUS
 10
90.469236
 20
65.759160
  0
SEQEND
  8
1
  6
CONTINUOUS
  0
LINE
  8
1
  6
CONTINUOUS
 10
48.389956
 20
35.619180
 11
47.002096
 21
39.266964
  0
LINE
  8
1
  6
CONTINUOUS
 10
9.328952
 20
11.460223
 11
9.373669
 21
11.853857
  0
LINE
  8
1
  6
CONTINUOUS
 10
9.373669
 20
11.853857
 11
9.416112
 21
12.327261
  0
LINE
  8
1
  6
CONTINUOUS
 10
9.416112
 20
12.327261
 11
9.450414
 21
12.772863
  0
LINE
  8
1
  6
CONTINUOUS
 10
9.450414
 20
12.772863
 11
9.477182
 21
13.225082
  0
LINE
  8
1
  6
CONTINUOUS
 10
9.477182
 20
13.225082
 11
9.485053
 21
13.508990
  0
LINE
  8
1
  6
CONTINUOUS
 10
9.485053
 20
13.508990
 11
9.480469
 21
13.735918
  0
LINE
  8
1
  6
CONTINUOUS
 10
9.480469
 20
13.735918
 11
9.475167
 21
13.845143
  0
LINE
  8
1
  6
CONTINUOUS
 10
9.475167
 20
13.845143
 11
9.470280
 21
13.921373
  0
LINE
  8
1
  6
CONTINUOUS
 10
9.470280
 20
13.921373
 11
9.465380
 21
13.984552
  0
LINE
  8
1
  6
CONTINUOUS
 10
9.465380
 20
13.984552
 11
9.458009
 21
14.066943
  0
LINE
  8
1
  6
CONTINUOUS
 10
9.458009
 20
14.066943
 11
9.451126
 21
14.131586
  0
LINE
  8
1
  6
CONTINUOUS
 10
9.451126
 20
14.131586
 11
9.445700
 21
14.176866
  0
LINE
  8
1
  6
CONTINUOUS
 10
9.445700
 20
14.176866
 11
9.429058
 21
14.305579
  0
LINE
  8
1
  6
CONTINUOUS
 10
9.429058
 20
14.305579
 11
9.408764
 21
14.441463
  0
LINE
  8
1
  6
CONTINUOUS
 10
9.408764
 20
14.441463
 11
9.377073
 21
14.617146
  0
LINE
  8
1
  6
CONTINUOUS
 10
9.377073
 20
14.617146
 11
9.331857
 21
14.822553
  0
LINE
  8
1
  6
CONTINUOUS
 10
9.331857
 20
14.822553
 11
9.254751
 21
15.122831
  0
LINE
  8
1
  6
CONTINUOUS
 10
9.254751
 20
15.122831
 11
9.213140
 21
15.248610
  0
LINE
  8
1
  6
CONTINUOUS
 10
9.213140
 20
15.248610
 11
9.094462
 21
15.590047
  0
LINE
  8
1
  6
CONTINUOUS
 10
9.094462
 20
15.590047
 11
8.978708
 21
15.858109
  0
LINE
  8
1
  6
CONTINUOUS
 10
8.978708
 20
15.858109
 11
8.884277
 21
16.065247
  0
LINE
  8
1
  6
CONTINUOUS
 10
8.884277
 20
16.065247
 11
8.744008
 21
16.323060
  0
LINE
  8
1
  6
CONTINUOUS
 10
8.744008
 20
16.323060
 11
8.592888
 21
16.581069
  0
LINE
  8
1
  6
CONTINUOUS
 10
8.592888
 20
16.581069
 11
8.396408
 21
16.873759
  0
LINE
  8
1
  6
CONTINUOUS
 10
8.396408
 20
16.873759
 11
8.196544
 21
17.122335
  0
LINE
  8
1
  6
CONTINUOUS
 10
8.196544
 20
17.122335
 11
7.966043
 21
17.389582
  0
LINE
  8
1
  6
CONTINUOUS
 10
7.966043
 20
17.389582
 11
7.615547
 21
17.736929
  0
LINE
  8
1
  6
CONTINUOUS
 10
7.615547
 20
17.736929
 11
7.518615
 21
17.828566
  0
LINE
  8
1
  6
CONTINUOUS
 10
7.518615
 20
17.828566
 11
7.401444
 21
17.938634
  0
LINE
  8
1
  6
CONTINUOUS
 10
7.401444
 20
17.938634
 11
7.206247
 21
18.119362
  0
LINE
  8
1
  6
CONTINUOUS
 10
7.206247
 20
18.119362
 11
7.003199
 21
18.301782
  0
LINE
  8
1
  6
CONTINUOUS
 10
7.003199
 20
18.301782
 11
6.740781
 21
18.535021
  0
LINE
  8
1
  6
CONTINUOUS
 10
6.740781
 20
18.535021
 11
6.508360
 21
18.734023
  0
LINE
  8
1
  6
CONTINUOUS
 10
12.088654
 20
20.383373
 11
11.953498
 21
19.402452
  0
LINE
  8
1
  6
CONTINUOUS
 10
11.953498
 20
19.402452
 11
11.939418
 21
18.710579
  0
LINE
  8
1
  6
CONTINUOUS
 10
11.939418
 20
18.710579
 11
12.023483
 21
17.820791
  0
LINE
  8
1
  6
CONTINUOUS
 10
12.023483
 20
17.820791
 11
12.247435
 21
16.924982
  0
LINE
  8
1
  6
CONTINUOUS
 10
12.247435
 20
16.924982
 11
12.458613
 21
16.369903
  0
LINE
  8
1
  6
CONTINUOUS
 10
12.458613
 20
16.369903
 11
12.741733
 21
15.625723
  0
LINE
  8
1
  6
CONTINUOUS
 10
12.741733
 20
15.625723
 11
13.153486
 21
15.081377
  0
LINE
  8
1
  6
CONTINUOUS
 10
13.153486
 20
15.081377
 11
13.894066
 21
14.119703
  0
LINE
  8
1
  6
CONTINUOUS
 10
13.894066
 20
14.119703
 11
14.438100
 21
13.626952
  0
LINE
  8
1
  6
CONTINUOUS
 10
14.438100
 20
13.626952
 11
15.203348
 21
13.067900
  0
LINE
  8
1
  6
CONTINUOUS
 10
15.203348
 20
13.067900
 11
15.354903
 21
14.025866
  0
LINE
  8
1
  6
CONTINUOUS
 10
15.354903
 20
14.025866
 11
15.330853
 21
15.106028
  0
LINE
  8
1
  6
CONTINUOUS
 10
15.330853
 20
15.106028
 11
15.099344
 21
16.398389
  0
LINE
  8
1
  6
CONTINUOUS
 10
14.687933
 20
17.479800
 11
14.295036
 21
18.169325
  0
LINE
  8
1
  6
CONTINUOUS
 10
14.295036
 20
18.169325
 11
13.813591
 21
18.890842
  0
LINE
  8
1
  6
CONTINUOUS
 10
13.813591
 20
18.890842
 11
13.231942
 21
19.485801
  0
LINE
  8
1
  6
CONTINUOUS
 10
13.231942
 20
19.485801
 11
12.566795
 21
20.081541
  0
LINE
  8
1
  6
CONTINUOUS
 10
12.566795
 20
20.081541
 11
12.088654
 21
20.383373
  0
LINE
  8
1
  6
CONTINUOUS
 10
92.869235
 20
63.359160
 11
94.549235
 21
63.359160
  0
LINE
  8
1
  6
CONTINUOUS
 10
94.549235
 20
63.359160
 11
94.549235
 21
65.759160
  0
LINE
  8
1
  6
CONTINUOUS
 10
92.869235
 20
63.359160
 11
92.869235
 21
61.119160
  0
LINE
  8
1
  6
CONTINUOUS
 10
92.869235
 20
61.119160
 11
95.671351
 21
61.119160
  0
LINE
  8
1
  6
CONTINUOUS
 10
95.671351
 20
61.119160
 11
95.671351
 21
61.679161
  0
LINE
  8
1
  6
CONTINUOUS
 10
95.671351
 20
61.679161
 11
97.959240
 21
61.679161
  0
LINE
  8
1
  6
CONTINUOUS
 10
90.469236
 20
58.419160
 11
90.469236
 21
58.019160
  0
LINE
  8
1
  6
CONTINUOUS
 10
90.469236
 20
58.019160
 11
94.229236
 21
58.019160
  0
LINE
  8
1
  6
CONTINUOUS
 10
94.229236
 20
58.019160
 11
94.229236
 21
58.419160
  0
LINE
  8
1
  6
CONTINUOUS
 10
90.269236
 20
58.819165
 11
90.269236
 21
58.819165
  0
POLYLINE
  8
1
  6
CONTINUOUS
 66
     1
  0
VERTEX
  8
1
  6
CONTINUOUS
 10
90.069236
 20
58.419165
  0
VERTEX
  8
1
  6
CONTINUOUS
 10
90.469236
 20
58.419165
  0
VERTEX
  8
1
  6
CONTINUOUS
 10
90.469236
 20
59.219165
  0
VERTEX
  8
1
  6
CONTINUOUS
 10
90.069236
 20
59.219165
  0
VERTEX
  8
1
  6
CONTINUOUS
 10
90.069236
 20
58.419165
  0
SEQEND
  8
1
  6
CONTINUOUS
  0
LINE
  8
1
  6
CONTINUOUS
 10
43.780195
 20
48.481127
 11
43.780195
 21
48.481127
  0
POLYLINE
  8
1
  6
CONTINUOUS
 66
     1
  0
VERTEX
  8
1
  6
CONTINUOUS
 10
43.606475
 20
48.094060
  0
VERTEX
  8
1
  6
CONTINUOUS
 10
44.167263
 20
48.307408
  0
VERTEX
  8
1
  6
CONTINUOUS
 10
43.953915
 20
48.868195
  0
VERTEX
  8
1
  6
CONTINUOUS
 10
43.393127
 20
48.654847
  0
VERTEX
  8
1
  6
CONTINUOUS
 10
43.606475
 20
48.094060
  0
SEQEND
  8
1
  6
CONTINUOUS
  0
LINE
  8
1
  6
CONTINUOUS
 10
32.564445
 20
44.214166
 11
32.564445
 21
44.214166
  0
POLYLINE
  8
1
  6
CONTINUOUS
 66
     1
  0
VERTEX
  8
1
  6
CONTINUOUS
 10
32.390726
 20
43.827099
  0
VERTEX
  8
1
  6
CONTINUOUS
 10
32.951513
 20
44.040447
  0
VERTEX
  8
1
  6
CONTINUOUS
 10
32.738165
 20
44.601234
  0
VERTEX
  8
1
  6
CONTINUOUS
 10
32.177378
 20
44.387886
  0
VERTEX
  8
1
  6
CONTINUOUS
 10
32.390726
 20
43.827099
  0
SEQEND
  8
1
  6
CONTINUOUS
  0
LINE
  8
1
  6
CONTINUOUS
 10
22.596795
 20
40.419619
 11
22.596795
 21
40.419619
  0
POLYLINE
  8
1
  6
CONTINUOUS
 66
     1
  0
VERTEX
  8
1
  6
CONTINUOUS
 10
22.423075
 20
40.032552
  0
VERTEX
  8
1
  6
CONTINUOUS
 10
22.983863
 20
40.245900
  0
VERTEX
  8
1
  6
CONTINUOUS
 10
22.770515
 20
40.806687
  0
VERTEX
  8
1
  6
CONTINUOUS
 10
22.209727
 20
40.593339
  0
VERTEX
  8
1
  6
CONTINUOUS
 10
22.423075
 20
40.032552
  0
SEQEND
  8
1
  6
CONTINUOUS
  0
LINE
  8
1
  6
CONTINUOUS
 10
35.984763
 20
6.140518
 11
35.984763
 21
6.140518
  0
POLYLINE
  8
1
  6
CONTINUOUS
 66
     1
  0
VERTEX
  8
1
  6
CONTINUOUS
 10
35.811043
 20
5.753450
  0
VERTEX
  8
1
  6
CONTINUOUS
 10
36.371831
 20
5.966798
  0
VERTEX
  8
1
  6
CONTINUOUS
 10
36.158483
 20
6.527585
  0
VERTEX
  8
1
  6
CONTINUOUS
 10
35.597695
 20
6.314237
  0
VERTEX
  8
1
  6
CONTINUOUS
 10
35.811043
 20
5.753450
  0
SEQEND
  8
1
  6
CONTINUOUS
  0
LINE
  8
1
  6
CONTINUOUS
 10
44.849607
 20
9.513005
 11
44.849607
 21
9.513005
  0
POLYLINE
  8
1
  6
CONTINUOUS
 66
     1
  0
VERTEX
  8
1
  6
CONTINUOUS
 10
44.675887
 20
9.125938
  0
VERTEX
  8
1
  6
CONTINUOUS
 10
45.236675
 20
9.339286
  0
VERTEX
  8
1
  6
CONTINUOUS
 10
45.023326
 20
9.900073
  0
VERTEX
  8
1
  6
CONTINUOUS
 10
44.462539
 20
9.686725
  0
VERTEX
  8
1
  6
CONTINUOUS
 10
44.675887
 20
9.125938
  0
SEQEND
  8
1
  6
CONTINUOUS
  0
LINE
  8
1
  6
CONTINUOUS
 10
56.065321
 20
13.780060
 11
56.065321
 21
13.780060
  0
POLYLINE
  8
1
  6
CONTINUOUS
 66
     1
  0
VERTEX
  8
1
  6
CONTINUOUS
 10
55.891601
 20
13.392992
  0
VERTEX
  8
1
  6
CONTINUOUS
 10
56.452389
 20
13.606340
  0
VERTEX
  8
1
  6
CONTINUOUS
 10
56.239041
 20
14.167127
  0
VERTEX
  8
1
  6
CONTINUOUS
 10
55.678253
 20
13.953779
  0
VERTEX
  8
1
  6
CONTINUOUS
 10
55.891601
 20
13.392992
  0
SEQEND
  8
1
  6
CONTINUOUS
  0
LINE
  8
1
  6
CONTINUOUS
 10
65.273643
 20
17.283317
 11
65.273643
 21
17.283317
  0
POLYLINE
  8
1
  6
CONTINUOUS
 66
     1
  0
VERTEX
  8
1
  6
CONTINUOUS
 10
65.099923
 20
16.896249
  0
VERTEX
  8
1
  6
CONTINUOUS
 10
65.660711
 20
17.109597
  0
VERTEX
  8
1
  6
CONTINUOUS
 10
65.447363
 20
17.670385
  0
VERTEX
  8
1
  6
CONTINUOUS
 10
64.886575
 20
17.457037
  0
VERTEX
  8
1
  6
CONTINUOUS
 10
65.099923
 20
16.896249
  0
SEQEND
  8
1
  6
CONTINUOUS
  0
LINE
  8
1
  6
CONTINUOUS
 10
52.350009
 20
51.385096
 11
52.350009
 21
51.385096
  0
POLYLINE
  8
1
  6
CONTINUOUS
 66
     1
  0
VERTEX
  8
1
  6
CONTINUOUS
 10
51.801826
 20
51.849966
  0
VERTEX
  8
1
  6
CONTINUOUS
 10
52.015174
 20
51.289179
  0
VERTEX
  8
1
  6
CONTINUOUS
 10
52.202103
 20
51.360295
  0
VERTEX
  8
1
  6
CONTINUOUS
 10
52.486567
 20
50.612578
  0
VERTEX
  8
1
  6
CONTINUOUS
 10
52.860425
 20
50.754810
  0
VERTEX
  8
1
  6
CONTINUOUS
 10
52.362613
 20
52.063314
  0
VERTEX
  8
1
  6
CONTINUOUS
 10
51.801826
 20
51.849966
  0
SEQEND
  8
1
  6
CONTINUOUS
  0
LINE
  8
1
  6
CONTINUOUS
 10
25.037296
 20
43.329169
 11
25.037296
 21
43.329169
  0
CIRCLE
  8
1
  6
CONTINUOUS
 10
25.037296
 20
43.329169
 40
0.700000
  0
LINE
  8
1
  6
CONTINUOUS
 10
25.029873
 20
18.769169
 11
25.029873
 21
18.769169
  0
CIRCLE
  8
1
  6
CONTINUOUS
 10
25.029873
 20
18.769169
 40
0.700000
  0
LINE
  8
1
  6
CONTINUOUS
 10
57.252720
 20
18.769169
 11
57.252720
 21
18.769169
  0
CIRCLE
  8
1
  6
CONTINUOUS
 10
57.252720
 20
18.769169
 40
0.700000
  0
LINE
  8
1
  6
CONTINUOUS
 10
84.667296
 20
18.779170
 11
84.667296
 21
18.779170
  0
CIRCLE
  8
1
  6
CONTINUOUS
 10
84.667296
 20
18.779170
 40
0.700000
  0
LINE
  8
1
  6
CONTINUOUS
 10
84.667296
 20
43.319170
 11
84.667296
 21
43.319170
  0
CIRCLE
  8
1
  6
CONTINUOUS
 10
84.667296
 20
43.319170
 40
0.700000
  0
LINE
  8
1
  6
CONTINUOUS
 10
57.252720
 20
43.319170
 11
57.252720
 21
43.319170
  0
CIRCLE
  8
1
  6
CONTINUOUS
 10
57.252720
 20
43.319170
 40
0.700000
  0
LINE
  8
1
  6
CONTINUOUS
 10
6.046743
 20
14.437351
 11
6.046743
 21
14.437351
  0
POLYLINE
  8
1
  6
CONTINUOUS
 66
     1
  0
VERTEX
  8
1
  6
CONTINUOUS
 10
5.837465
 20
14.143748
  0
VERTEX
  8
1
  6
CONTINUOUS
 10
6.398253
 20
14.357096
  0
VERTEX
  8
1
  6
CONTINUOUS
 10
6.256021
 20
14.730954
  0
VERTEX
  8
1
  6
CONTINUOUS
 10
5.695233
 20
14.517606
  0
VERTEX
  8
1
  6
CONTINUOUS
 10
5.837465
 20
14.143748
  0
SEQEND
  8
1
  6
CONTINUOUS
  0
LINE
  8
1
  6
CONTINUOUS
 10
22.426459
 20
4.986592
 11
22.426459
 21
4.986592
  0
POLYLINE
  8
1
  6
CONTINUOUS
 66
     1
  0
VERTEX
  8
1
  6
CONTINUOUS
 10
22.081640
 20
4.739408
  0
VERTEX
  8
1
  6
CONTINUOUS
 10
22.673643
 20
4.641774
  0
VERTEX
  8
1
  6
CONTINUOUS
 10
22.771277
 20
5.233777
  0
VERTEX
  8
1
  6
CONTINUOUS
 10
22.179274
 20
5.331411
  0
VERTEX
  8
1
  6
CONTINUOUS
 10
22.081640
 20
4.739408
  0
SEQEND
  8
1
  6
CONTINUOUS
  0
LINE
  8
1
  6
CONTINUOUS
 10
11.980800
 20
32.350217
 11
11.980800
 21
32.350217
  0
POLYLINE
  8
1
  6
CONTINUOUS
 66
     1
  0
VERTEX
  8
1
  6
CONTINUOUS
 10
12.026495
 20
31.928421
  0
VERTEX
  8
1
  6
CONTINUOUS
 10
12.402596
 20
32.395912
  0
VERTEX
  8
1
  6
CONTINUOUS
 10
11.935105
 20
32.772013
  0
VERTEX
  8
1
  6
CONTINUOUS
 10
11.559004
 20
32.304522
  0
VERTEX
  8
1
  6
CONTINUOUS
 10
12.026495
 20
31.928421
  0
SEQEND
  8
1
  6
CONTINUOUS
  0
LINE
  8
1
  6
CONTINUOUS
 10
64.558167
 20
49.845611
 11
64.558167
 21
49.845611
  0
POLYLINE
  8
1
  6
CONTINUOUS
 66
     1
  0
VERTEX
  8
1
  6
CONTINUOUS
 10
64.442358
 20
49.587564
  0
VERTEX
  8
1
  6
CONTINUOUS
 10
64.816214
 20
49.729803
  0
VERTEX
  8
1
  6
CONTINUOUS
 10
64.673975
 20
50.103658
  0
VERTEX
  8
1
  6
CONTINUOUS
 10
64.300119
 20
49.961420
  0
VERTEX
  8
1
  6
CONTINUOUS
 10
64.442358
 20
49.587564
  0
SEQEND
  8
1
  6
CONTINUOUS
  0
LINE
  8
1
  6
CONTINUOUS
 10
98.159240
 20
58.819160
 11
98.159240
 21
58.819160
  0
POLYLINE
  8
1
  6
CONTINUOUS
 66
     1
  0
VERTEX
  8
1
  6
CONTINUOUS
 10
97.959240
 20
58.419160
  0
VERTEX
  8
1
  6
CONTINUOUS
 10
98.359240
 20
58.419160
  0
VERTEX
  8
1
  6
CONTINUOUS
 10
98.359240
 20
59.219160
  0
VERTEX
  8
1
  6
CONTINUOUS
 10
97.959240
 20
59.219160
  0
VERTEX
  8
1
  6
CONTINUOUS
 10
97.959240
 20
58.419160
  0
SEQEND
  8
1
  6
CONTINUOUS
  0
LINE
  8
1
  6
CONTINUOUS
 10
98.159240
 20
69.959160
 11
98.159240
 21
69.959160
  0
POLYLINE
  8
1
  6
CONTINUOUS
 66
     1
  0
VERTEX
  8
1
  6
CONTINUOUS
 10
97.959240
 20
69.559160
  0
VERTEX
  8
1
  6
CONTINUOUS
 10
98.359240
 20
69.559160
  0
VERTEX
  8
1
  6
CONTINUOUS
 10
98.359240
 20
70.359160
  0
VERTEX
  8
1
  6
CONTINUOUS
 10
97.959240
 20
70.359160
  0
VERTEX
  8
1
  6
CONTINUOUS
 10
97.959240
 20
69.559160
  0
SEQEND
  8
1
  6
CONTINUOUS
  0
LINE
  8
1
  6
CONTINUOUS
 10
94.369236
 20
70.159165
 11
94.369236
 21
70.159165
  0
POLYLINE
  8
1
  6
CONTINUOUS
 66
     1
  0
VERTEX
  8
1
  6
CONTINUOUS
 10
93.969236
 20
69.959165
  0
VERTEX
  8
1
  6
CONTINUOUS
 10
94.769236
 20
69.959165
  0
VERTEX
  8
1
  6
CONTINUOUS
 10
94.769236
 20
70.359165
  0
VERTEX
  8
1
  6
CONTINUOUS
 10
93.969236
 20
70.359165
  0
VERTEX
  8
1
  6
CONTINUOUS
 10
93.969236
 20
69.959165
  0
SEQEND
  8
1
  6
CONTINUOUS
  0
LINE
  8
1
  6
CONTINUOUS
 10
94.369236
 20
65.959165
 11
94.369236
 21
65.959165
  0
POLYLINE
  8
1
  6
CONTINUOUS
 66
     1
  0
VERTEX
  8
1
  6
CONTINUOUS
 10
93.969236
 20
65.759165
  0
VERTEX
  8
1
  6
CONTINUOUS
 10
94.769236
 20
65.759165
  0
VERTEX
  8
1
  6
CONTINUOUS
 10
94.769236
 20
66.159165
  0
VERTEX
  8
1
  6
CONTINUOUS
 10
93.969236
 20
66.159165
  0
VERTEX
  8
1
  6
CONTINUOUS
 10
93.969236
 20
65.759165
  0
SEQEND
  8
1
  6
CONTINUOUS
  0
LINE
  8
1
  6
CONTINUOUS
 10
98.159240
 20
64.389160
 11
98.159240
 21
64.389160
  0
POLYLINE
  8
1
  6
CONTINUOUS
 66
     1
  0
VERTEX
  8
1
  6
CONTINUOUS
 10
97.959240
 20
63.989160
  0
VERTEX
  8
1
  6
CONTINUOUS
 10
98.359240
 20
63.989160
  0
VERTEX
  8
1
  6
CONTINUOUS
 10
98.359240
 20
64.789160
  0
VERTEX
  8
1
  6
CONTINUOUS
 10
97.959240
 20
64.789160
  0
VERTEX
  8
1
  6
CONTINUOUS
 10
97.959240
 20
63.989160
  0
SEQEND
  8
1
  6
CONTINUOUS
  0
LINE
  8
1
  6
CONTINUOUS
 10
90.269236
 20
68.059160
 11
90.269236
 21
68.059160
  0
POLYLINE
  8
1
  6
CONTINUOUS
 66
     1
  0
VERTEX
  8
1
  6
CONTINUOUS
 10
90.069236
 20
65.759160
  0
VERTEX
  8
1
  6
CONTINUOUS
 10
90.469236
 20
65.759160
  0
VERTEX
  8
1
  6
CONTINUOUS
 10
90.469236
 20
70.359160
  0
VERTEX
  8
1
  6
CONTINUOUS
 10
90.069236
 20
70.359160
  0
VERTEX
  8
1
  6
CONTINUOUS
 10
90.069236
 20
65.759160
  0
SEQEND
  8
1
  6
CONTINUOUS
  0
LINE
  8
1
  6
CONTINUOUS
 10
60.993530
 20
28.814902
 11
60.993530
 21
28.814902
  0
POLYLINE
  8
1
  6
CONTINUOUS
 66
     1
  0
VERTEX
  8
1
  6
CONTINUOUS
 10
60.877703
 20
28.556863
  0
VERTEX
  8
1
  6
CONTINUOUS
 10
61.251569
 20
28.699076
  0
VERTEX
  8
1
  6
CONTINUOUS
 10
61.109357
 20
29.072941
  0
VERTEX
  8
1
  6
CONTINUOUS
 10
60.735491
 20
28.930729
  0
VERTEX
  8
1
  6
CONTINUOUS
 10
60.877703
 20
28.556863
  0
SEQEND
  8
1
  6
CONTINUOUS
  0
LINE
  8
1
  6
CONTINUOUS
 10
67.286119
 20
36.988787
 11
67.286119
 21
36.988787
  0
CIRCLE
  8
1
  6
CONTINUOUS
 10
67.286119
 20
36.988787
 40
0.300000
  0
LINE
  8
1
  6
CONTINUOUS
 10
57.209227
 20
38.761598
 11
57.209227
 21
38.761598
  0
POLYLINE
  8
1
  6
CONTINUOUS
 66
     1
  0
VERTEX
  8
1
  6
CONTINUOUS
 10
57.093414
 20
38.503553
  0
VERTEX
  8
1
  6
CONTINUOUS
 10
57.467273
 20
38.645785
  0
VERTEX
  8
1
  6
CONTINUOUS
 10
57.325041
 20
39.019644
  0
VERTEX
  8
1
  6
CONTINUOUS
 10
56.951182
 20
38.877412
  0
VERTEX
  8
1
  6
CONTINUOUS
 10
57.093414
 20
38.503553
  0
SEQEND
  8
1
  6
CONTINUOUS
  0
LINE
  8
1
  6
CONTINUOUS
 10
64.259794
 20
55.412844
 11
64.259794
 21
55.412844
  0
POLYLINE
  8
1
  6
CONTINUOUS
 66
     1
  0
VERTEX
  8
1
  6
CONTINUOUS
 10
64.086075
 20
55.025776
  0
VERTEX
  8
1
  6
CONTINUOUS
 10
64.646862
 20
55.239124
  0
VERTEX
  8
1
  6
CONTINUOUS
 10
64.433514
 20
55.799912
  0
VERTEX
  8
1
  6
CONTINUOUS
 10
63.872726
 20
55.586564
  0
VERTEX
  8
1
  6
CONTINUOUS
 10
64.086075
 20
55.025776
  0
SEQEND
  8
1
  6
CONTINUOUS
  0
LINE
  8
1
  6
CONTINUOUS
 10
77.251249
 20
60.354666
 11
77.251249
 21
60.354666
  0
POLYLINE
  8
1
  6
CONTINUOUS
 66
     1
  0
VERTEX
  8
1
  6
CONTINUOUS
 10
77.077529
 20
59.967598
  0
VERTEX
  8
1
  6
CONTINUOUS
 10
77.638317
 20
60.180946
  0
VERTEX
  8
1
  6
CONTINUOUS
 10
77.424969
 20
60.741734
  0
VERTEX
  8
1
  6
CONTINUOUS
 10
76.864181
 20
60.528386
  0
VERTEX
  8
1
  6
CONTINUOUS
 10
77.077529
 20
59.967598
  0
SEQEND
  8
1
  6
CONTINUOUS
  0
LINE
  8
1
  6
CONTINUOUS
 10
7.288978
 20
23.625434
 11
7.288978
 21
23.625434
  0
POLYLINE
  8
1
  6
CONTINUOUS
 66
     1
  0
VERTEX
  8
1
  6
CONTINUOUS
 10
7.512349
 20
23.342405
  0
VERTEX
  8
1
  6
CONTINUOUS
 10
7.636148
 20
23.722765
  0
VERTEX
  8
1
  6
CONTINUOUS
 10
7.065608
 20
23.908464
  0
VERTEX
  8
1
  6
CONTINUOUS
 10
6.941809
 20
23.528104
  0
VERTEX
  8
1
  6
CONTINUOUS
 10
7.512349
 20
23.342405
  0
SEQEND
  8
1
  6
CONTINUOUS
  0
LINE
  8
1
  6
CONTINUOUS
 10
13.077918
 20
8.406648
 11
13.077918
 21
8.406648
  0
POLYLINE
  8
1
  6
CONTINUOUS
 66
     1
  0
VERTEX
  8
1
  6
CONTINUOUS
 10
12.753811
 20
8.248676
  0
VERTEX
  8
1
  6
CONTINUOUS
 10
13.099081
 20
8.046714
  0
VERTEX
  8
1
  6
CONTINUOUS
 10
13.402024
 20
8.564619
  0
VERTEX
  8
1
  6
CONTINUOUS
 10
13.056754
 20
8.766581
  0
VERTEX
  8
1
  6
CONTINUOUS
 10
12.753811
 20
8.248676
  0
SEQEND
  8
1
  6
CONTINUOUS
  0
LINE
  8
1
  6
CONTINUOUS
 10
87.541501
 20
43.338791
 11
87.541501
 21
43.338791
  0
POLYLINE
  8
1
  6
CONTINUOUS
 66
     1
  0
VERTEX
  8
1
  6
CONTINUOUS
 10
87.241501
 20
42.838791
  0
VERTEX
  8
1
  6
CONTINUOUS
 10
87.841501
 20
42.838791
  0
VERTEX
  8
1
  6
CONTINUOUS
 10
87.841501
 20
43.838791
  0
VERTEX
  8
1
  6
CONTINUOUS
 10
87.241501
 20
43.838791
  0
VERTEX
  8
1
  6
CONTINUOUS
 10
87.241501
 20
42.838791
  0
SEQEND
  8
1
  6
CONTINUOUS
  0
LINE
  8
1
  6
CONTINUOUS
 10
62.605054
 20
45.417403
 11
62.605054
 21
45.417403
  0
POLYLINE
  8
1
  6
CONTINUOUS
 66
     1
  0
VERTEX
  8
1
  6
CONTINUOUS
 10
62.489245
 20
45.159356
  0
VERTEX
  8
1
  6
CONTINUOUS
 10
62.863101
 20
45.301594
  0
VERTEX
  8
1
  6
CONTINUOUS
 10
62.720862
 20
45.675450
  0
VERTEX
  8
1
  6
CONTINUOUS
 10
62.347007
 20
45.533212
  0
VERTEX
  8
1
  6
CONTINUOUS
 10
62.489245
 20
45.159356
  0
SEQEND
  8
1
  6
CONTINUOUS
  0
LINE
  8
1
  6
CONTINUOUS
 10
51.661962
 20
32.040327
 11
51.661962
 21
32.040327
  0
LINE
  8
1
  6
CONTINUOUS
 10
50.166508
 20
34.190327
 11
50.166508
 21
34.190327
  0
POLYLINE
  8
1
  6
CONTINUOUS
 66
     1
  0
VERTEX
  8
1
  6
CONTINUOUS
 10
49.916508
 20
34.440327
  0
VERTEX
  8
1
  6
CONTINUOUS
 10
49.916508
 20
29.640327
  0
VERTEX
  8
1
  6
CONTINUOUS
 10
54.616508
 20
29.640327
  0
VERTEX
  8
1
  6
CONTINUOUS
 10
54.616508
 20
30.140327
  0
VERTEX
  8
1
  6
CONTINUOUS
 10
50.416508
 20
30.140327
  0
VERTEX
  8
1
  6
CONTINUOUS
 10
50.416508
 20
33.940327
  0
VERTEX
  8
1
  6
CONTINUOUS
 10
54.616508
 20
33.940327
  0
VERTEX
  8
1
  6
CONTINUOUS
 10
54.616508
 20
34.440327
  0
VERTEX
  8
1
  6
CONTINUOUS
 10
49.916508
 20
34.440327
  0
SEQEND
  8
1
  6
CONTINUOUS
  0
LINE
  8
1
  6
CONTINUOUS
 10
90.469236
 20
58.019160
 11
94.229236
 21
58.419160
  0
LINE
  8
1
  6
CONTINUOUS
 10
90.469236
 20
58.419160
 11
94.229236
 21
58.019160
  0
LINE
  8
1
  6
CONTINUOUS
 10
12.984057
 20
15.305365
 11
14.309415
 21
18.144089
  0
LINE
  8
1
  6
CONTINUOUS
 10
12.054648
 20
20.136567
 11
15.241706
 21
13.310353
  0
LINE
  8
1
  6
CONTINUOUS
 10
7.194363
 20
13.521298
 11
8.560292
 21
16.629626
  0
LINE
  8
1
  6
CONTINUOUS
 10
6.462891
 20
18.337496
 11
9.361017
 21
11.742483
  0
LINE
  8
1
  6
CONTINUOUS
 10
50.416508
 20
30.140327
 11
54.216508
 21
33.940327
  0
LINE
  8
1
  6
CONTINUOUS
 10
50.416508
 20
33.940327
 11
54.216508
 21
30.140327
  0
LINE
  8
1
  6
CONTINUOUS
 10
90.469236
 20
66.159160
 11
94.369629
 21
69.959165
  0
LINE
  8
1
  6
CONTINUOUS
 10
90.469241
 20
69.959160
 11
94.369624
 21
66.159165
  0
LINE
  8
1
  6
CONTINUOUS
 10
90.469236
 20
58.819160
 11
92.951514
 21
61.119160
  0
LINE
  8
1
  6
CONTINUOUS
 10
90.469236
 20
65.759160
 11
93.059439
 21
63.359160
  0
LINE
  8
1
  6
CONTINUOUS
 10
95.476962
 20
61.119160
 11
97.959240
 21
58.819160
  0
LINE
  8
4
  6
CONTINUOUS
 10
45.769618
 20
35.757234
 11
44.648075
 21
35.330453
  0
LINE
  8
4
  6
CONTINUOUS
 10
44.605397
 20
35.442607
 11
44.690753
 21
35.218298
  0
LINE
  8
4
  6
CONTINUOUS
 10
44.627828
 20
35.451143
 11
44.713184
 21
35.226834
  0
LINE
  8
4
  6
CONTINUOUS
 10
44.650259
 20
35.459678
 11
44.735615
 21
35.235370
  0
LINE
  8
4
  6
CONTINUOUS
 10
73.352319
 20
46.253289
 11
74.193476
 21
46.573375
  0
LINE
  8
4
  6
CONTINUOUS
 10
74.217483
 20
46.510288
 11
74.169470
 21
46.636462
  0
LINE
  8
4
  6
CONTINUOUS
 10
74.217483
 20
46.510288
 11
75.034633
 21
46.893461
  0
LINE
  8
4
  6
CONTINUOUS
 10
74.169470
 20
46.636462
 11
75.034633
 21
46.893461
  0
LINE
  8
4
  6
CONTINUOUS
 10
74.059237
 20
46.377849
 11
73.963211
 21
46.630196
  0
LINE
  8
4
  6
CONTINUOUS
 10
73.919045
 20
46.324502
 11
73.823019
 21
46.576849
  0
POLYLINE
  8
4
  6
CONTINUOUS
 66
     1
  0
VERTEX
  8
4
  6
CONTINUOUS
 10
45.769618
 20
35.757234
  0
VERTEX
  8
4
  6
CONTINUOUS
 10
73.352319
 20
46.253289
  0
SEQEND
  8
4
  6
CONTINUOUS
  0
LINE
  8
4
  6
CONTINUOUS
 10
46.018574
 20
35.103001
 11
44.897031
 21
34.676219
  0
LINE
  8
4
  6
CONTINUOUS
 10
44.854353
 20
34.788374
 11
44.939709
 21
34.564065
  0
LINE
  8
4
  6
CONTINUOUS
 10
44.876784
 20
34.796909
 11
44.962140
 21
34.572601
  0
LINE
  8
4
  6
CONTINUOUS
 10
44.899215
 20
34.805445
 11
44.984571
 21
34.581136
  0
LINE
  8
4
  6
CONTINUOUS
 10
73.601275
 20
45.599056
 11
74.442432
 21
45.919142
  0
LINE
  8
4
  6
CONTINUOUS
 10
74.466438
 20
45.856055
 11
74.418425
 21
45.982229
  0
LINE
  8
4
  6
CONTINUOUS
 10
74.466438
 20
45.856055
 11
75.283589
 21
46.239228
  0
LINE
  8
4
  6
CONTINUOUS
 10
74.418425
 20
45.982229
 11
75.283589
 21
46.239228
  0
LINE
  8
4
  6
CONTINUOUS
 10
74.308193
 20
45.723616
 11
74.212167
 21
45.975963
  0
LINE
  8
4
  6
CONTINUOUS
 10
74.168001
 20
45.670268
 11
74.071975
 21
45.922616
  0
POLYLINE
  8
4
  6
CONTINUOUS
 66
     1
  0
VERTEX
  8
4
  6
CONTINUOUS
 10
46.018574
 20
35.103001
  0
VERTEX
  8
4
  6
CONTINUOUS
 10
73.601275
 20
45.599056
  0
SEQEND
  8
4
  6
CONTINUOUS
  0
LINE
  8
4
  6
CONTINUOUS
 10
45.454428
 20
36.585526
 11
44.332885
 21
36.158745
  0
LINE
  8
4
  6
CONTINUOUS
 10
44.290207
 20
36.270899
 11
44.375563
 21
36.046591
  0
LINE
  8
4
  6
CONTINUOUS
 10
44.312638
 20
36.279435
 11
44.397994
 21
36.055126
  0
LINE
  8
4
  6
CONTINUOUS
 10
44.335069
 20
36.287970
 11
44.420425
 21
36.063662
  0
LINE
  8
4
  6
CONTINUOUS
 10
72.905406
 20
47.031457
 11
73.746563
 21
47.351543
  0
LINE
  8
4
  6
CONTINUOUS
 10
73.770570
 20
47.288456
 11
73.722557
 21
47.414630
  0
LINE
  8
4
  6
CONTINUOUS
 10
73.770570
 20
47.288456
 11
74.587720
 21
47.671629
  0
LINE
  8
4
  6
CONTINUOUS
 10
73.722557
 20
47.414630
 11
74.587720
 21
47.671629
  0
LINE
  8
4
  6
CONTINUOUS
 10
73.542229
 20
47.129343
 11
73.446203
 21
47.381691
  0
POLYLINE
  8
4
  6
CONTINUOUS
 66
     1
  0
VERTEX
  8
4
  6
CONTINUOUS
 10
45.454428
 20
36.585526
  0
VERTEX
  8
4
  6
CONTINUOUS
 10
72.905406
 20
47.031457
  0
SEQEND
  8
4
  6
CONTINUOUS
  0
LINE
  8
4
  6
CONTINUOUS
 10
45.575349
 20
36.267756
 11
44.453806
 21
35.840975
  0
LINE
  8
4
  6
CONTINUOUS
 10
44.411128
 20
35.953129
 11
44.496484
 21
35.728820
  0
LINE
  8
4
  6
CONTINUOUS
 10
44.433559
 20
35.961664
 11
44.518915
 21
35.737356
  0
LINE
  8
4
  6
CONTINUOUS
 10
44.455990
 20
35.970200
 11
44.541346
 21
35.745892
  0
LINE
  8
4
  6
CONTINUOUS
 10
73.026327
 20
46.713687
 11
73.867484
 21
47.033772
  0
LINE
  8
4
  6
CONTINUOUS
 10
73.891491
 20
46.970686
 11
73.843478
 21
47.096859
  0
LINE
  8
4
  6
CONTINUOUS
 10
73.891491
 20
46.970686
 11
74.708641
 21
47.353858
  0
LINE
  8
4
  6
CONTINUOUS
 10
73.843478
 20
47.096859
 11
74.708641
 21
47.353858
  0
LINE
  8
4
  6
CONTINUOUS
 10
73.663150
 20
46.811573
 11
73.567124
 21
47.063920
  0
POLYLINE
  8
4
  6
CONTINUOUS
 66
     1
  0
VERTEX
  8
4
  6
CONTINUOUS
 10
45.575349
 20
36.267756
  0
VERTEX
  8
4
  6
CONTINUOUS
 10
73.026327
 20
46.713687
  0
SEQEND
  8
4
  6
CONTINUOUS
  0
LINE
  8
4
  6
CONTINUOUS
 10
45.201610
 20
37.249909
 11
44.080067
 21
36.823128
  0
LINE
  8
4
  6
CONTINUOUS
 10
44.037389
 20
36.935283
 11
44.122745
 21
36.710974
  0
LINE
  8
4
  6
CONTINUOUS
 10
44.059820
 20
36.943818
 11
44.145176
 21
36.719510
  0
LINE
  8
4
  6
CONTINUOUS
 10
44.082251
 20
36.952354
 11
44.167607
 21
36.728045
  0
LINE
  8
4
  6
CONTINUOUS
 10
72.351207
 20
47.581156
 11
73.192364
 21
47.901241
  0
LINE
  8
4
  6
CONTINUOUS
 10
73.216370
 20
47.838155
 11
73.168357
 21
47.964328
  0
LINE
  8
4
  6
CONTINUOUS
 10
73.216370
 20
47.838155
 11
74.033521
 21
48.221327
  0
LINE
  8
4
  6
CONTINUOUS
 10
73.168357
 20
47.964328
 11
74.033521
 21
48.221327
  0
LINE
  8
4
  6
CONTINUOUS
 10
72.988030
 20
47.679042
 11
72.892004
 21
47.931389
  0
POLYLINE
  8
4
  6
CONTINUOUS
 66
     1
  0
VERTEX
  8
4
  6
CONTINUOUS
 10
45.201610
 20
37.249909
  0
VERTEX
  8
4
  6
CONTINUOUS
 10
72.351207
 20
47.581156
  0
SEQEND
  8
4
  6
CONTINUOUS
  0
LINE
  8
4
  6
CONTINUOUS
 10
45.322531
 20
36.932139
 11
44.200988
 21
36.505358
  0
LINE
  8
4
  6
CONTINUOUS
 10
44.158310
 20
36.617512
 11
44.243666
 21
36.393204
  0
LINE
  8
4
  6
CONTINUOUS
 10
44.180741
 20
36.626048
 11
44.266097
 21
36.401739
  0
LINE
  8
4
  6
CONTINUOUS
 10
44.203172
 20
36.634583
 11
44.288528
 21
36.410275
  0
LINE
  8
4
  6
CONTINUOUS
 10
72.472128
 20
47.263385
 11
73.313285
 21
47.583471
  0
LINE
  8
4
  6
CONTINUOUS
 10
73.337291
 20
47.520384
 11
73.289279
 21
47.646558
  0
LINE
  8
4
  6
CONTINUOUS
 10
73.337291
 20
47.520384
 11
74.154442
 21
47.903557
  0
LINE
  8
4
  6
CONTINUOUS
 10
73.289279
 20
47.646558
 11
74.154442
 21
47.903557
  0
LINE
  8
4
  6
CONTINUOUS
 10
73.108951
 20
47.361272
 11
73.012925
 21
47.613619
  0
POLYLINE
  8
4
  6
CONTINUOUS
 66
     1
  0
VERTEX
  8
4
  6
CONTINUOUS
 10
45.322531
 20
36.932139
  0
VERTEX
  8
4
  6
CONTINUOUS
 10
72.472128
 20
47.263385
  0
SEQEND
  8
4
  6
CONTINUOUS
  0
LINE
  8
4
  6
CONTINUOUS
 10
45.009218
 20
37.755498
 11
43.887675
 21
37.328717
  0
LINE
  8
4
  6
CONTINUOUS
 10
43.844997
 20
37.440871
 11
43.930353
 21
37.216563
  0
LINE
  8
4
  6
CONTINUOUS
 10
43.867428
 20
37.449407
 11
43.952784
 21
37.225098
  0
LINE
  8
4
  6
CONTINUOUS
 10
43.889859
 20
37.457942
 11
43.975215
 21
37.233634
  0
LINE
  8
4
  6
CONTINUOUS
 10
71.589461
 20
47.870088
 11
72.430618
 21
48.190173
  0
LINE
  8
4
  6
CONTINUOUS
 10
72.454624
 20
48.127087
 11
72.406611
 21
48.253260
  0
LINE
  8
4
  6
CONTINUOUS
 10
72.454624
 20
48.127087
 11
73.271775
 21
48.510259
  0
LINE
  8
4
  6
CONTINUOUS
 10
72.406611
 20
48.253260
 11
73.271775
 21
48.510259
  0
LINE
  8
4
  6
CONTINUOUS
 10
72.310399
 20
47.999983
 11
72.214374
 21
48.252330
  0
LINE
  8
4
  6
CONTINUOUS
 10
72.205255
 20
47.959972
 11
72.109229
 21
48.212319
  0
LINE
  8
4
  6
CONTINUOUS
 10
72.100110
 20
47.919961
 11
72.004084
 21
48.172308
  0
POLYLINE
  8
4
  6
CONTINUOUS
 66
     1
  0
VERTEX
  8
4
  6
CONTINUOUS
 10
45.009218
 20
37.755498
  0
VERTEX
  8
4
  6
CONTINUOUS
 10
71.589461
 20
47.870088
  0
SEQEND
  8
4
  6
CONTINUOUS
  0
LINE
  8
1
  6
CONTINUOUS
 10
10.672710
 20
66.564330
 11
30.096438
 21
66.564330
  0
LINE
  8
1
  6
CONTINUOUS
 10
10.672710
 20
66.564330
 11
10.672710
 21
65.564330
  0
LINE
  8
1
  6
CONTINUOUS
 10
10.672710
 20
65.564330
 11
26.961990
 21
65.564330
  0
LINE
  8
1
  6
CONTINUOUS
 10
10.672710
 20
65.564330
 11
10.672710
 21
64.564330
  0
LINE
  8
1
  6
CONTINUOUS
 10
13.161826
 20
65.564330
 11
13.161826
 21
64.564330
  0
LINE
  8
1
  6
CONTINUOUS
 10
15.299539
 20
65.564330
 11
15.299539
 21
64.564330
  0
LINE
  8
1
  6
CONTINUOUS
 10
16.674906
 20
65.564330
 11
16.674906
 21
64.564330
  0
LINE
  8
1
  6
CONTINUOUS
 10
20.839419
 20
65.064330
 11
20.839419
 21
64.564330
  0
LINE
  8
1
  6
CONTINUOUS
 10
23.827542
 20
65.564330
 11
23.827542
 21
64.564330
  0
LINE
  8
1
  6
CONTINUOUS
 10
24.872357
 20
65.064330
 11
24.872358
 21
64.564330
  0
LINE
  8
1
  6
CONTINUOUS
 10
25.917174
 20
65.064330
 11
25.917174
 21
64.564330
  0
LINE
  8
1
  6
CONTINUOUS
 10
26.961990
 20
65.564330
 11
26.961990
 21
64.564330
  0
LINE
  8
1
  6
CONTINUOUS
 10
10.672710
 20
64.564330
 11
30.096438
 21
64.564330
  0
LINE
  8
1
  6
CONTINUOUS
 10
16.674906
 20
65.064330
 11
20.839419
 21
65.064330
  0
LINE
  8
1
  6
CONTINUOUS
 10
20.839419
 20
65.064330
 11
23.827542
 21
65.064330
  0
LINE
  8
1
  6
CONTINUOUS
 10
23.827542
 20
65.064330
 11
24.872358
 21
65.064330
  0
LINE
  8
1
  6
CONTINUOUS
 10
24.872358
 20
65.064330
 11
25.917174
 21
65.064330
  0
LINE
  8
1
  6
CONTINUOUS
 10
25.917174
 20
65.064330
 11
30.096438
 21
65.064330
  0
LINE
  8
1
  6
CONTINUOUS
 10
30.096438
 20
64.564330
 11
30.096438
 21
66.564330
  0
LINE
  8
1
  6
CONTINUOUS
 10
28.529214
 20
65.064330
 11
28.529214
 21
64.564330
  0
LINE
  8
1
  6
CONTINUOUS
 10
26.961990
 20
65.564330
 11
30.096438
 21
65.564330
  0
LINE
  8
1
  6
CONTINUOUS
 10
10.672710
 20
64.564330
 11
10.672710
 21
64.064329
  0
LINE
  8
1
  6
CONTINUOUS
 10
10.672710
 20
64.064329
 11
30.096438
 21
64.064329
  0
LINE
  8
1
  6
CONTINUOUS
 10
13.161826
 20
64.564330
 11
13.161826
 21
64.064329
  0
LINE
  8
1
  6
CONTINUOUS
 10
15.299539
 20
64.564330
 11
15.299539
 21
64.064329
  0
LINE
  8
1
  6
CONTINUOUS
 10
16.674906
 20
64.564330
 11
16.674906
 21
64.064329
  0
LINE
  8
1
  6
CONTINUOUS
 10
20.839419
 20
64.564330
 11
20.839419
 21
64.064329
  0
LINE
  8
1
  6
CONTINUOUS
 10
23.827542
 20
64.564330
 11
23.827542
 21
64.064329
  0
LINE
  8
1
  6
CONTINUOUS
 10
24.872358
 20
64.564330
 11
24.872358
 21
64.064329
  0
LINE
  8
1
  6
CONTINUOUS
 10
25.917174
 20
64.564330
 11
25.917174
 21
64.064329
  0
LINE
  8
1
  6
CONTINUOUS
 10
26.961990
 20
64.564330
 11
26.961990
 21
64.064329
  0
LINE
  8
1
  6
CONTINUOUS
 10
26.961990
 20
64.064329
 11
26.961990
 21
64.564330
  0
LINE
  8
1
  6
CONTINUOUS
 10
26.961990
 20
64.564330
 11
26.961990
 21
64.064329
  0
LINE
  8
1
  6
CONTINUOUS
 10
28.529214
 20
64.564330
 11
28.529214
 21
64.064329
  0
LINE
  8
1
  6
CONTINUOUS
 10
30.096438
 20
64.564330
 11
30.096438
 21
64.064329
  0
LINE
  8
1
  6
CONTINUOUS
 10
10.672710
 20
64.064329
 11
10.672710
 21
63.564329
  0
LINE
  8
1
  6
CONTINUOUS
 10
10.672710
 20
63.564329
 11
30.096438
 21
63.564329
  0
LINE
  8
1
  6
CONTINUOUS
 10
13.161826
 20
64.064329
 11
13.161826
 21
63.564329
  0
LINE
  8
1
  6
CONTINUOUS
 10
15.299539
 20
64.064329
 11
15.299539
 21
63.564329
  0
LINE
  8
1
  6
CONTINUOUS
 10
16.674906
 20
64.064329
 11
16.674906
 21
63.564329
  0
LINE
  8
1
  6
CONTINUOUS
 10
20.839419
 20
64.064329
 11
20.839419
 21
63.564329
  0
LINE
  8
1
  6
CONTINUOUS
 10
23.827542
 20
64.064329
 11
23.827542
 21
63.564329
  0
LINE
  8
1
  6
CONTINUOUS
 10
24.872358
 20
64.064329
 11
24.872358
 21
63.564329
  0
LINE
  8
1
  6
CONTINUOUS
 10
25.917174
 20
64.064329
 11
25.917174
 21
63.564329
  0
LINE
  8
1
  6
CONTINUOUS
 10
26.961990
 20
64.064329
 11
26.961990
 21
63.564329
  0
LINE
  8
1
  6
CONTINUOUS
 10
26.961990
 20
63.564329
 11
26.961990
 21
64.064329
  0
LINE
  8
1
  6
CONTINUOUS
 10
26.961990
 20
64.064329
 11
26.961990
 21
63.564329
  0
LINE
  8
1
  6
CONTINUOUS
 10
28.529214
 20
64.064329
 11
28.529214
 21
63.564329
  0
LINE
  8
1
  6
CONTINUOUS
 10
30.096438
 20
64.064329
 11
30.096438
 21
63.564329
  0
LINE
  8
1
  6
CONTINUOUS
 10
10.672710
 20
63.564328
 11
10.672710
 21
63.064328
  0
LINE
  8
1
  6
CONTINUOUS
 10
10.672710
 20
63.064328
 11
30.096438
 21
63.064328
  0
LINE
  8
1
  6
CONTINUOUS
 10
13.161826
 20
63.564328
 11
13.161826
 21
63.064328
  0
LINE
  8
1
  6
CONTINUOUS
 10
15.299539
 20
63.564328
 11
15.299539
 21
63.064328
  0
LINE
  8
1
  6
CONTINUOUS
 10
16.674906
 20
63.564328
 11
16.674906
 21
63.064328
  0
LINE
  8
1
  6
CONTINUOUS
 10
20.839419
 20
63.564328
 11
20.839419
 21
63.064328
  0
LINE
  8
1
  6
CONTINUOUS
 10
23.827542
 20
63.564328
 11
23.827542
 21
63.064328
  0
LINE
  8
1
  6
CONTINUOUS
 10
24.872358
 20
63.564328
 11
24.872358
 21
63.064328
  0
LINE
  8
1
  6
CONTINUOUS
 10
25.917174
 20
63.564328
 11
25.917174
 21
63.064328
  0
LINE
  8
1
  6
CONTINUOUS
 10
26.961990
 20
63.564328
 11
26.961990
 21
63.064328
  0
LINE
  8
1
  6
CONTINUOUS
 10
26.961990
 20
63.064328
 11
26.961990
 21
63.564328
  0
LINE
  8
1
  6
CONTINUOUS
 10
26.961990
 20
63.564329
 11
26.961990
 21
63.064328
  0
LINE
  8
1
  6
CONTINUOUS
 10
28.529214
 20
63.564328
 11
28.529214
 21
63.064328
  0
LINE
  8
1
  6
CONTINUOUS
 10
30.096438
 20
63.564328
 11
30.096438
 21
63.064328
  0
LINE
  8
1
  6
CONTINUOUS
 10
10.672710
 20
63.064327
 11
10.672710
 21
62.564327
  0
LINE
  8
1
  6
CONTINUOUS
 10
10.672710
 20
62.564327
 11
30.096438
 21
62.564327
  0
LINE
  8
1
  6
CONTINUOUS
 10
13.161826
 20
63.064327
 11
13.161826
 21
62.564327
  0
LINE
  8
1
  6
CONTINUOUS
 10
15.299539
 20
63.064327
 11
15.299539
 21
62.564327
  0
LINE
  8
1
  6
CONTINUOUS
 10
16.674906
 20
63.064327
 11
16.674906
 21
62.564327
  0
LINE
  8
1
  6
CONTINUOUS
 10
20.839419
 20
63.064327
 11
20.839419
 21
62.564327
  0
LINE
  8
1
  6
CONTINUOUS
 10
23.827542
 20
63.064327
 11
23.827542
 21
62.564327
  0
LINE
  8
1
  6
CONTINUOUS
 10
24.872358
 20
63.064327
 11
24.872358
 21
62.564327
  0
LINE
  8
1
  6
CONTINUOUS
 10
25.917174
 20
63.064327
 11
25.917174
 21
62.564327
  0
LINE
  8
1
  6
CONTINUOUS
 10
26.961990
 20
63.064327
 11
26.961990
 21
62.564327
  0
LINE
  8
1
  6
CONTINUOUS
 10
26.961990
 20
62.564327
 11
26.961990
 21
63.064327
  0
LINE
  8
1
  6
CONTINUOUS
 10
26.961990
 20
63.064328
 11
26.961990
 21
62.564327
  0
LINE
  8
1
  6
CONTINUOUS
 10
28.529214
 20
63.064327
 11
28.529214
 21
62.564327
  0
LINE
  8
1
  6
CONTINUOUS
 10
30.096438
 20
63.064327
 11
30.096438
 21
62.564327
  0
LINE
  8
1
  6
CONTINUOUS
 10
10.672710
 20
61.926975
 11
23.955802
 21
61.926975
  0
LINE
  8
1
  6
CONTINUOUS
 10
10.672710
 20
60.564327
 11
23.955802
 21
60.564327
  0
LINE
  8
1
  6
CONTINUOUS
 10
10.672710
 20
60.064327
 11
19.594419
 21
60.064327
  0
LINE
  8
1
  6
CONTINUOUS
 10
19.594419
 20
60.064327
 11
21.782542
 21
60.064327
  0
LINE
  8
1
  6
CONTINUOUS
 10
21.162522
 20
60.064327
 11
22.207338
 21
60.064327
  0
LINE
  8
1
  6
CONTINUOUS
 10
22.207338
 20
60.064327
 11
23.872174
 21
60.064327
  0
LINE
  8
1
  6
CONTINUOUS
 10
23.872174
 20
60.064327
 11
23.955802
 21
60.064327
  0
LINE
  8
1
  6
CONTINUOUS
 10
10.672710
 20
61.926975
 11
10.672710
 21
59.064327
  0
LINE
  8
1
  6
CONTINUOUS
 10
10.672710
 20
59.064327
 11
23.955802
 21
59.064327
  0
LINE
  8
1
  6
CONTINUOUS
 10
12.810422
 20
60.064327
 11
12.810422
 21
59.064327
  0
LINE
  8
1
  6
CONTINUOUS
 10
14.998546
 20
59.064327
 11
14.998546
 21
60.064327
  0
LINE
  8
1
  6
CONTINUOUS
 10
21.866170
 20
60.064327
 11
21.866170
 21
59.064327
  0
LINE
  8
1
  6
CONTINUOUS
 10
22.910987
 20
60.064327
 11
22.910987
 21
59.064327
  0
LINE
  8
1
  6
CONTINUOUS
 10
16.701358
 20
59.064327
 11
16.701358
 21
59.564327
  0
LINE
  8
1
  6
CONTINUOUS
 10
23.955802
 20
59.064327
 11
23.955802
 21
61.926975
  0
LINE
  8
1
  6
CONTINUOUS
 10
14.998546
 20
59.564327
 11
20.821355
 21
59.564327
  0
LINE
  8
1
  6
CONTINUOUS
 10
20.821355
 20
59.064327
 11
20.821355
 21
60.564327
  0
LINE
  8
1
  6
CONTINUOUS
 10
18.761357
 20
59.064327
 11
18.761357
 21
59.564327
  0
LINE
  8
1
  6
CONTINUOUS
 10
10.672710
 20
59.064326
 11
10.672710
 21
58.564326
  0
LINE
  8
1
  6
CONTINUOUS
 10
12.810422
 20
59.064326
 11
12.810422
 21
58.564326
  0
LINE
  8
1
  6
CONTINUOUS
 10
14.998546
 20
59.064326
 11
14.998546
 21
58.564326
  0
LINE
  8
1
  6
CONTINUOUS
 10
10.672710
 20
58.564326
 11
23.955802
 21
58.564326
  0
LINE
  8
1
  6
CONTINUOUS
 10
20.821355
 20
59.064327
 11
20.821355
 21
58.564327
  0
LINE
  8
1
  6
CONTINUOUS
 10
21.866170
 20
59.064327
 11
21.866170
 21
58.564327
  0
LINE
  8
1
  6
CONTINUOUS
 10
22.910987
 20
59.064327
 11
22.910987
 21
58.564327
  0
LINE
  8
1
  6
CONTINUOUS
 10
16.701358
 20
59.064327
 11
16.701358
 21
58.564326
  0
LINE
  8
1
  6
CONTINUOUS
 10
18.761357
 20
58.564326
 11
18.761357
 21
59.064327
  0
LINE
  8
1
  6
CONTINUOUS
 10
20.821355
 20
58.564326
 11
20.821355
 21
59.064327
  0
LINE
  8
1
  6
CONTINUOUS
 10
23.955802
 20
59.064327
 11
23.955802
 21
58.564326
  0
LINE
  8
1
  6
CONTINUOUS
 10
10.672710
 20
58.564326
 11
10.672710
 21
58.064325
  0
LINE
  8
1
  6
CONTINUOUS
 10
12.810422
 20
58.564326
 11
12.810422
 21
58.064325
  0
LINE
  8
1
  6
CONTINUOUS
 10
14.998546
 20
58.564326
 11
14.998546
 21
58.064325
  0
LINE
  8
1
  6
CONTINUOUS
 10
10.672710
 20
58.064325
 11
23.955802
 21
58.064325
  0
LINE
  8
1
  6
CONTINUOUS
 10
20.821355
 20
58.564326
 11
20.821355
 21
58.064326
  0
LINE
  8
1
  6
CONTINUOUS
 10
21.866170
 20
58.564326
 11
21.866170
 21
58.064326
  0
LINE
  8
1
  6
CONTINUOUS
 10
22.910987
 20
58.564326
 11
22.910987
 21
58.064326
  0
LINE
  8
1
  6
CONTINUOUS
 10
16.701358
 20
58.564326
 11
16.701358
 21
58.064325
  0
LINE
  8
1
  6
CONTINUOUS
 10
18.761357
 20
58.064325
 11
18.761357
 21
58.564326
  0
LINE
  8
1
  6
CONTINUOUS
 10
20.821355
 20
58.064325
 11
20.821355
 21
58.564326
  0
LINE
  8
1
  6
CONTINUOUS
 10
23.955802
 20
58.564326
 11
23.955802
 21
58.064325
  0
LINE
  8
1
  6
CONTINUOUS
 10
10.672710
 20
58.064325
 11
10.672710
 21
57.564325
  0
LINE
  8
1
  6
CONTINUOUS
 10
12.810422
 20
58.064325
 11
12.810422
 21
57.564325
  0
LINE
  8
1
  6
CONTINUOUS
 10
14.998546
 20
58.064325
 11
14.998546
 21
57.564325
  0
LINE
  8
1
  6
CONTINUOUS
 10
10.672710
 20
57.564325
 11
23.955802
 21
57.564325
  0
LINE
  8
1
  6
CONTINUOUS
 10
20.821355
 20
58.064325
 11
20.821355
 21
57.564325
  0
LINE
  8
1
  6
CONTINUOUS
 10
21.866170
 20
58.064325
 11
21.866170
 21
57.564325
  0
LINE
  8
1
  6
CONTINUOUS
 10
22.910987
 20
58.064325
 11
22.910987
 21
57.564325
  0
LINE
  8
1
  6
CONTINUOUS
 10
16.701358
 20
58.064325
 11
16.701358
 21
57.564325
  0
LINE
  8
1
  6
CONTINUOUS
 10
18.761357
 20
57.564325
 11
18.761357
 21
58.064325
  0
LINE
  8
1
  6
CONTINUOUS
 10
20.821355
 20
57.564325
 11
20.821355
 21
58.064325
  0
LINE
  8
1
  6
CONTINUOUS
 10
23.955802
 20
58.064325
 11
23.955802
 21
57.564325
  0
LINE
  8
2
  6
CONTINUOUS
 10
101.700000
 20
23.900000
 11
101.700000
 21
23.900000
  0
LINE
  8
2
  6
CONTINUOUS
 10
118.000000
 20
23.900000
 11
118.000000
 21
23.900000
  0
LINE
  8
2
  6
CONTINUOUS
 10
118.000000
 20
23.900000
 11
101.700000
 21
23.900000
  0
LINE
  8
2
  6
CONTINUOUS
 10
118.000000
 20
22.200000
 11
101.700000
 21
22.200000
  0
LINE
  8
2
  6
CONTINUOUS
 10
101.700000
 20
23.900000
 11
101.700000
 21
22.200000
  0
LINE
  8
2
  6
CONTINUOUS
 10
118.000000
 20
22.200000
 11
118.000000
 21
23.900000
  0
LINE
  8
1
  6
CONTINUOUS
 10
118.000002
 20
29.700001
 11
119.000002
 21
29.700001
  0
LINE
  8
1
  6
CONTINUOUS
 10
118.000002
 20
59.400002
 11
119.000002
 21
59.400002
  0
LINE
  8
1
  6
CONTINUOUS
 10
0.000000
 20
29.700001
 11
2.500000
 21
29.700001
  0
LINE
  8
1
  6
CONTINUOUS
 10
0.000000
 20
59.400002
 11
2.500000
 21
59.400002
  0
LINE
  8
1
  6
CONTINUOUS
 10
100.500002
 20
82.999998
 11
100.500002
 21
83.999998
  0
LINE
  8
1
  6
CONTINUOUS
 10
82.000002
 20
82.999998
 11
82.000002
 21
83.999998
  0
LINE
  8
1
  6
CONTINUOUS
 10
63.500002
 20
82.999998
 11
63.500002
 21
83.999998
  0
LINE
  8
1
  6
CONTINUOUS
 10
45.000002
 20
82.999998
 11
45.000002
 21
83.999998
  0
LINE
  8
1
  6
CONTINUOUS
 10
33.050001
 20
82.999998
 11
33.050001
 21
83.999998
  0
LINE
  8
1
  6
CONTINUOUS
 10
21.100000
 20
82.999998
 11
21.100000
 21
83.999998
  0
LINE
  8
1
  6
CONTINUOUS
 10
100.500002
 20
0.000000
 11
100.500002
 21
1.000000
  0
LINE
  8
1
  6
CONTINUOUS
 10
82.000002
 20
0.000000
 11
82.000002
 21
1.000000
  0
LINE
  8
1
  6
CONTINUOUS
 10
63.500002
 20
0.000000
 11
63.500002
 21
1.000000
  0
LINE
  8
1
  6
CONTINUOUS
 10
45.000002
 20
0.000000
 11
45.000002
 21
1.000000
  0
LINE
  8
1
  6
CONTINUOUS
 10
33.050001
 20
0.000000
 11
33.050001
 21
1.000000
  0
LINE
  8
1
  6
CONTINUOUS
 10
21.100000
 20
0.000000
 11
21.100000
 21
1.000000
  0
LINE
  8
1
  6
CONTINUOUS
 10
0.000000
 20
0.000000
 11
119.000002
 21
0.000000
  0
LINE
  8
1
  6
CONTINUOUS
 10
119.000002
 20
0.000000
 11
119.000002
 21
83.999998
  0
LINE
  8
1
  6
CONTINUOUS
 10
0.000000
 20
0.000000
 11
0.000000
 21
83.999998
  0
LINE
  8
8
  6
CONTINUOUS
 10
2.500000
 20
1.000000
 11
118.000002
 21
1.000000
  0
LINE
  8
8
  6
CONTINUOUS
 10
118.000002
 20
1.000000
 11
118.000002
 21
82.999998
  0
LINE
  8
1
  6
CONTINUOUS
 10
0.000000
 20
83.999998
 11
119.000002
 21
83.999998
  0
LINE
  8
8
  6
CONTINUOUS
 10
2.500000
 20
82.999998
 11
118.000002
 21
82.999998
  0
LINE
  8
8
  6
CONTINUOUS
 10
2.500000
 20
82.999998
 11
2.500000
 21
1.000000
  0
LINE
  8
2
  6
CONTINUOUS
 10
102.650002
 20
17.625000
 11
102.650002
 21
18.125000
  0
LINE
  8
1
  6
CONTINUOUS
 10
101.700002
 20
18.200000
 11
118.000002
 21
18.200000
  0
LINE
  8
1
  6
CONTINUOUS
 10
101.700002
 20
17.700000
 11
118.000002
 21
17.700000
  0
LINE
  8
1
  6
CONTINUOUS
 10
102.200002
 20
17.700000
 11
118.000002
 21
17.700000
  0
LINE
  8
2
  6
CONTINUOUS
 10
102.650002
 20
17.125000
 11
102.650002
 21
17.625000
  0
LINE
  8
1
  6
CONTINUOUS
 10
102.200002
 20
17.700000
 11
118.000002
 21
17.700000
  0
LINE
  8
1
  6
CONTINUOUS
 10
101.700002
 20
17.200000
 11
118.000002
 21
17.200000
  0
LINE
  8
2
  6
CONTINUOUS
 10
102.650002
 20
16.700000
 11
102.650002
 21
17.200000
  0
LINE
  8
1
  6
CONTINUOUS
 10
116.008223
 20
16.000000
 11
116.008223
 21
22.200000
  0
LINE
  8
1
  6
CONTINUOUS
 10
104.850002
 20
16.000000
 11
104.850002
 21
22.200000
  0
LINE
  8
6
  6
CONTINUOUS
 10
101.700002
 20
16.000000
 11
118.000002
 21
16.000000
  0
LINE
  8
1
  6
CONTINUOUS
 10
102.650002
 20
16.000000
 11
102.650002
 21
16.700000
  0
LINE
  8
1
  6
CONTINUOUS
 10
102.200002
 20
17.200000
 11
118.000002
 21
17.200000
  0
LINE
  8
1
  6
CONTINUOUS
 10
101.700002
 20
16.700000
 11
118.000002
 21
16.700000
  0
LINE
  8
2
  6
CONTINUOUS
 10
102.650002
 20
18.625000
 11
102.650002
 21
22.200000
  0
LINE
  8
6
  6
CONTINUOUS
 10
101.700002
 20
22.200000
 11
118.000002
 21
22.200000
  0
LINE
  8
1
  6
CONTINUOUS
 10
101.700002
 20
18.700000
 11
118.000002
 21
18.700000
  0
LINE
  8
1
  6
CONTINUOUS
 10
102.200002
 20
18.700000
 11
118.000002
 21
18.700000
  0
LINE
  8
2
  6
CONTINUOUS
 10
102.650002
 20
18.125000
 11
102.650002
 21
18.625000
  0
LINE
  8
1
  6
CONTINUOUS
 10
102.200002
 20
18.700000
 11
118.000002
 21
18.700000
  0
LINE
  8
1
  6
CONTINUOUS
 10
102.200002
 20
18.200000
 11
118.000002
 21
18.200000
  0
LINE
  8
1
  6
CONTINUOUS
 10
102.200002
 20
18.200000
 11
118.000002
 21
18.200000
  0
LINE
  8
6
  6
CONTINUOUS
 10
101.700002
 20
6.600000
 11
118.000002
 21
6.600000
  0
LINE
  8
6
  6
CONTINUOUS
 10
101.700002
 20
8.500000
 11
118.000002
 21
8.500000
  0
LINE
  8
6
  6
CONTINUOUS
 10
101.700002
 20
1.000000
 11
101.700002
 21
8.500000
  0
LINE
  8
6
  6
CONTINUOUS
 10
101.700002
 20
16.000000
 11
101.700002
 21
22.200000
  0
LINE
  8
6
  6
CONTINUOUS
 10
101.700002
 20
15.900000
 11
118.000002
 21
15.900000
  0
LINE
  8
6
  6
CONTINUOUS
 10
101.700002
 20
11.400000
 11
101.700002
 21
15.900000
  0
LINE
  8
1
  6
CONTINUOUS
 10
101.700002
 20
14.400000
 11
118.000002
 21
14.400000
  0
LINE
  8
6
  6
CONTINUOUS
 10
101.700002
 20
3.000000
 11
118.000002
 21
3.000000
  0
LINE
  8
6
  6
CONTINUOUS
 10
105.024321
 20
3.000000
 11
105.024321
 21
1.000000
  0
LINE
  8
1
  6
CONTINUOUS
 10
101.700002
 20
12.900000
 11
118.000002
 21
12.900000
  0
POLYLINE
  8
1
  6
CONTINUOUS
 66
     1
  0
VERTEX
  8
1
  6
CONTINUOUS
 10
103.635546
 20
9.498246
  0
VERTEX
  8
1
  6
CONTINUOUS
 10
101.971546
 20
9.498246
  0
VERTEX
  8
1
  6
CONTINUOUS
 10
101.971546
 20
11.162246
  0
VERTEX
  8
1
  6
CONTINUOUS
 10
103.635546
 20
11.162246
  0
VERTEX
  8
1
  6
CONTINUOUS
 10
103.635546
 20
9.498246
  0
SEQEND
  8
1
  6
CONTINUOUS
  0
POLYLINE
  8
13
  6
CONTINUOUS
 66
     1
  0
VERTEX
  8
13
  6
CONTINUOUS
 10
102.095046
 20
10.244446
  0
VERTEX
  8
13
  6
CONTINUOUS
 10
102.095046
 20
9.498246
  0
VERTEX
  8
13
  6
CONTINUOUS
 10
101.971546
 20
9.498246
  0
VERTEX
  8
13
  6
CONTINUOUS
 10
101.971546
 20
11.162246
  0
VERTEX
  8
13
  6
CONTINUOUS
 10
102.095046
 20
11.162246
  0
VERTEX
  8
13
  6
CONTINUOUS
 10
102.095046
 20
10.244446
  0
SEQEND
  8
13
  6
CONTINUOUS
  0
POLYLINE
  8
13
  6
CONTINUOUS
 66
     1
  0
VERTEX
  8
13
  6
CONTINUOUS
 10
102.522746
 20
10.230979
  0
VERTEX
  8
13
  6
CONTINUOUS
 10
102.522746
 20
9.498246
  0
VERTEX
  8
13
  6
CONTINUOUS
 10
102.095046
 20
9.498246
  0
VERTEX
  8
13
  6
CONTINUOUS
 10
102.095046
 20
10.244446
  0
VERTEX
  8
13
  6
CONTINUOUS
 10
102.143544
 20
10.248642
  0
VERTEX
  8
13
  6
CONTINUOUS
 10
102.211078
 20
10.252071
  0
VERTEX
  8
13
  6
CONTINUOUS
 10
102.259959
 20
10.252484
  0
VERTEX
  8
13
  6
CONTINUOUS
 10
102.290321
 20
10.252141
  0
VERTEX
  8
13
  6
CONTINUOUS
 10
102.334203
 20
10.250668
  0
VERTEX
  8
13
  6
CONTINUOUS
 10
102.394518
 20
10.246747
  0
VERTEX
  8
13
  6
CONTINUOUS
 10
102.446340
 20
10.241621
  0
VERTEX
  8
13
  6
CONTINUOUS
 10
102.490083
 20
10.235974
  0
VERTEX
  8
13
  6
CONTINUOUS
 10
102.522746
 20
10.230979
  0
SEQEND
  8
13
  6
CONTINUOUS
  0
POLYLINE
  8
13
  6
CONTINUOUS
 66
     1
  0
VERTEX
  8
13
  6
CONTINUOUS
 10
102.594246
 20
10.217654
  0
VERTEX
  8
13
  6
CONTINUOUS
 10
102.594246
 20
9.498246
  0
VERTEX
  8
13
  6
CONTINUOUS
 10
103.021946
 20
9.498246
  0
VERTEX
  8
13
  6
CONTINUOUS
 10
103.021946
 20
10.064184
  0
VERTEX
  8
13
  6
CONTINUOUS
 10
103.003898
 20
10.073542
  0
VERTEX
  8
13
  6
CONTINUOUS
 10
102.981716
 20
10.084501
  0
VERTEX
  8
13
  6
CONTINUOUS
 10
102.953307
 20
10.098271
  0
VERTEX
  8
13
  6
CONTINUOUS
 10
102.912865
 20
10.116383
  0
VERTEX
  8
13
  6
CONTINUOUS
 10
102.885024
 20
10.128001
  0
VERTEX
  8
13
  6
CONTINUOUS
 10
102.844071
 20
10.144755
  0
VERTEX
  8
13
  6
CONTINUOUS
 10
102.813490
 20
10.155923
  0
VERTEX
  8
13
  6
CONTINUOUS
 10
102.778388
 20
10.168156
  0
VERTEX
  8
13
  6
CONTINUOUS
 10
102.744083
 20
10.178793
  0
VERTEX
  8
13
  6
CONTINUOUS
 10
102.703465
 20
10.191172
  0
VERTEX
  8
13
  6
CONTINUOUS
 10
102.665141
 20
10.201162
  0
VERTEX
  8
13
  6
CONTINUOUS
 10
102.624819
 20
10.210970
  0
VERTEX
  8
13
  6
CONTINUOUS
 10
102.594246
 20
10.217654
  0
SEQEND
  8
13
  6
CONTINUOUS
  0
POLYLINE
  8
13
  6
CONTINUOUS
 66
     1
  0
VERTEX
  8
13
  6
CONTINUOUS
 10
103.093446
 20
10.024343
  0
VERTEX
  8
13
  6
CONTINUOUS
 10
103.093446
 20
9.498246
  0
VERTEX
  8
13
  6
CONTINUOUS
 10
103.521146
 20
9.498246
  0
VERTEX
  8
13
  6
CONTINUOUS
 10
103.521146
 20
9.661030
  0
VERTEX
  8
13
  6
CONTINUOUS
 10
103.507797
 20
9.676793
  0
VERTEX
  8
13
  6
CONTINUOUS
 10
103.495964
 20
9.690528
  0
VERTEX
  8
13
  6
CONTINUOUS
 10
103.473877
 20
9.715277
  0
VERTEX
  8
13
  6
CONTINUOUS
 10
103.454164
 20
9.736530
  0
VERTEX
  8
13
  6
CONTINUOUS
 10
103.434048
 20
9.757502
  0
VERTEX
  8
13
  6
CONTINUOUS
 10
103.410015
 20
9.781535
  0
VERTEX
  8
13
  6
CONTINUOUS
 10
103.399294
 20
9.791943
  0
VERTEX
  8
13
  6
CONTINUOUS
 10
103.388429
 20
9.802406
  0
VERTEX
  8
13
  6
CONTINUOUS
 10
103.359952
 20
9.828752
  0
VERTEX
  8
13
  6
CONTINUOUS
 10
103.325139
 20
9.859181
  0
VERTEX
  8
13
  6
CONTINUOUS
 10
103.286846
 20
9.890826
  0
VERTEX
  8
13
  6
CONTINUOUS
 10
103.251036
 20
9.918745
  0
VERTEX
  8
13
  6
CONTINUOUS
 10
103.200839
 20
9.955427
  0
VERTEX
  8
13
  6
CONTINUOUS
 10
103.134352
 20
9.999676
  0
VERTEX
  8
13
  6
CONTINUOUS
 10
103.093446
 20
10.024343
  0
SEQEND
  8
13
  6
CONTINUOUS
  0
POLYLINE
  8
13
  6
CONTINUOUS
 66
     1
  0
VERTEX
  8
13
  6
CONTINUOUS
 10
102.522746
 20
10.635283
  0
VERTEX
  8
13
  6
CONTINUOUS
 10
102.522746
 20
11.162246
  0
VERTEX
  8
13
  6
CONTINUOUS
 10
102.095046
 20
11.162246
  0
VERTEX
  8
13
  6
CONTINUOUS
 10
102.095046
 20
10.995122
  0
VERTEX
  8
13
  6
CONTINUOUS
 10
102.153689
 20
10.929235
  0
VERTEX
  8
13
  6
CONTINUOUS
 10
102.237359
 20
10.846559
  0
VERTEX
  8
13
  6
CONTINUOUS
 10
102.308389
 20
10.784730
  0
VERTEX
  8
13
  6
CONTINUOUS
 10
102.366624
 20
10.739274
  0
VERTEX
  8
13
  6
CONTINUOUS
 10
102.406322
 20
10.710064
  0
VERTEX
  8
13
  6
CONTINUOUS
 10
102.455827
 20
10.676682
  0
VERTEX
  8
13
  6
CONTINUOUS
 10
102.493954
 20
10.652515
  0
VERTEX
  8
13
  6
CONTINUOUS
 10
102.522746
 20
10.635283
  0
SEQEND
  8
13
  6
CONTINUOUS
  0
POLYLINE
  8
13
  6
CONTINUOUS
 66
     1
  0
VERTEX
  8
13
  6
CONTINUOUS
 10
103.021946
 20
10.443678
  0
VERTEX
  8
13
  6
CONTINUOUS
 10
103.021946
 20
11.162246
  0
VERTEX
  8
13
  6
CONTINUOUS
 10
102.594246
 20
11.162246
  0
VERTEX
  8
13
  6
CONTINUOUS
 10
102.594246
 20
10.595859
  0
VERTEX
  8
13
  6
CONTINUOUS
 10
102.663800
 20
10.561766
  0
VERTEX
  8
13
  6
CONTINUOUS
 10
102.744359
 20
10.527375
  0
VERTEX
  8
13
  6
CONTINUOUS
 10
102.812197
 20
10.501464
  0
VERTEX
  8
13
  6
CONTINUOUS
 10
102.889458
 20
10.476967
  0
VERTEX
  8
13
  6
CONTINUOUS
 10
102.950702
 20
10.460007
  0
VERTEX
  8
13
  6
CONTINUOUS
 10
103.021946
 20
10.443678
  0
SEQEND
  8
13
  6
CONTINUOUS
  0
POLYLINE
  8
13
  6
CONTINUOUS
 66
     1
  0
VERTEX
  8
13
  6
CONTINUOUS
 10
103.093446
 20
10.430307
  0
VERTEX
  8
13
  6
CONTINUOUS
 10
103.093446
 20
11.162246
  0
VERTEX
  8
13
  6
CONTINUOUS
 10
103.521146
 20
11.162246
  0
VERTEX
  8
13
  6
CONTINUOUS
 10
103.521146
 20
10.417580
  0
VERTEX
  8
13
  6
CONTINUOUS
 10
103.476372
 20
10.413637
  0
VERTEX
  8
13
  6
CONTINUOUS
 10
103.416577
 20
10.410480
  0
VERTEX
  8
13
  6
CONTINUOUS
 10
103.366788
 20
10.409453
  0
VERTEX
  8
13
  6
CONTINUOUS
 10
103.336830
 20
10.409453
  0
VERTEX
  8
13
  6
CONTINUOUS
 10
103.286182
 20
10.410821
  0
VERTEX
  8
13
  6
CONTINUOUS
 10
103.241261
 20
10.413321
  0
VERTEX
  8
13
  6
CONTINUOUS
 10
103.205545
 20
10.416539
  0
VERTEX
  8
13
  6
CONTINUOUS
 10
103.155349
 20
10.421044
  0
VERTEX
  8
13
  6
CONTINUOUS
 10
103.093446
 20
10.430307
  0
SEQEND
  8
13
  6
CONTINUOUS
  0
POLYLINE
  8
13
  6
CONTINUOUS
 66
     1
  0
VERTEX
  8
13
  6
CONTINUOUS
 10
102.522746
 20
9.498246
  0
VERTEX
  8
13
  6
CONTINUOUS
 10
102.594246
 20
9.498246
  0
VERTEX
  8
13
  6
CONTINUOUS
 10
102.594246
 20
11.162246
  0
VERTEX
  8
13
  6
CONTINUOUS
 10
102.522746
 20
11.162246
  0
VERTEX
  8
13
  6
CONTINUOUS
 10
102.522746
 20
9.498246
  0
VERTEX
  8
13
  6
CONTINUOUS
 10
102.594246
 20
9.498246
  0
SEQEND
  8
13
  6
CONTINUOUS
  0
POLYLINE
  8
13
  6
CONTINUOUS
 66
     1
  0
VERTEX
  8
13
  6
CONTINUOUS
 10
103.021946
 20
11.162246
  0
VERTEX
  8
13
  6
CONTINUOUS
 10
103.093446
 20
11.162246
  0
VERTEX
  8
13
  6
CONTINUOUS
 10
103.093446
 20
9.498246
  0
VERTEX
  8
13
  6
CONTINUOUS
 10
103.021946
 20
9.498246
  0
VERTEX
  8
13
  6
CONTINUOUS
 10
103.021946
 20
11.162246
  0
SEQEND
  8
13
  6
CONTINUOUS
  0
POLYLINE
  8
13
  6
CONTINUOUS
 66
     1
  0
VERTEX
  8
13
  6
CONTINUOUS
 10
103.521146
 20
9.498246
  0
VERTEX
  8
13
  6
CONTINUOUS
 10
103.635546
 20
9.498246
  0
VERTEX
  8
13
  6
CONTINUOUS
 10
103.635546
 20
11.162246
  0
VERTEX
  8
13
  6
CONTINUOUS
 10
103.521146
 20
11.162246
  0
VERTEX
  8
13
  6
CONTINUOUS
 10
103.521146
 20
9.498246
  0
SEQEND
  8
13
  6
CONTINUOUS
  0
LINE
  8
6
  6
CONTINUOUS
 10
107.924321
 20
3.000000
 11
107.924321
 21
2.000000
  0
LINE
  8
6
  6
CONTINUOUS
 10
101.700002
 20
2.000000
 11
114.124321
 21
2.000000
  0
LINE
  8
6
  6
CONTINUOUS
 10
114.124321
 20
3.000000
 11
114.124321
 21
1.000000
  0
LINE
  8
6
  6
CONTINUOUS
 10
101.700002
 20
8.600000
 11
118.000002
 21
8.600000
  0
LINE
  8
6
  6
CONTINUOUS
 10
101.700002
 20
8.600000
 11
101.700002
 21
11.300000
  0
LINE
  8
6
  6
CONTINUOUS
 10
101.700002
 20
11.300000
 11
118.000002
 21
11.300000
  0
LINE
  8
6
  6
CONTINUOUS
 10
101.700002
 20
11.400000
 11
118.000002
 21
11.400000
  0
LINE
  8
1
  6
CONTINUOUS
 10
101.700002
 20
19.200000
 11
118.000002
 21
19.200000
  0
LINE
  8
1
  6
CONTINUOUS
 10
102.200002
 20
19.200000
 11
118.000002
 21
19.200000
  0
LINE
  8
1
  6
CONTINUOUS
 10
102.200002
 20
19.200000
 11
118.000002
 21
19.200000
  0
LINE
  8
1
  6
CONTINUOUS
 10
101.700002
 20
19.700000
 11
118.000002
 21
19.700000
  0
LINE
  8
1
  6
CONTINUOUS
 10
102.200002
 20
19.700000
 11
118.000002
 21
19.700000
  0
LINE
  8
1
  6
CONTINUOUS
 10
102.200002
 20
19.700000
 11
118.000002
 21
19.700000
  0
LINE
  8
1
  6
CONTINUOUS
 10
101.700002
 20
20.200000
 11
118.000002
 21
20.200000
  0
LINE
  8
1
  6
CONTINUOUS
 10
102.200002
 20
20.200000
 11
118.000002
 21
20.200000
  0
LINE
  8
1
  6
CONTINUOUS
 10
102.200002
 20
20.200000
 11
118.000002
 21
20.200000
  0
LINE
  8
1
  6
CONTINUOUS
 10
101.700002
 20
20.700000
 11
118.000002
 21
20.700000
  0
LINE
  8
1
  6
CONTINUOUS
 10
102.200002
 20
20.700000
 11
118.000002
 21
20.700000
  0
LINE
  8
1
  6
CONTINUOUS
 10
102.200002
 20
20.700000
 11
118.000002
 21
20.700000
  0
LINE
  8
1
  6
CONTINUOUS
 10
101.700002
 20
21.200000
 11
118.000002
 21
21.200000
  0
LINE
  8
1
  6
CONTINUOUS
 10
102.200002
 20
21.200000
 11
118.000002
 21
21.200000
  0
LINE
  8
1
  6
CONTINUOUS
 10
102.200002
 20
21.200000
 11
118.000002
 21
21.200000
  0
LINE
  8
1
  6
CONTINUOUS
 10
101.700002
 20
21.700000
 11
118.000002
 21
21.700000
  0
LINE
  8
6
  6
CONTINUOUS
 10
110.708935
 20
11.300000
 11
110.708935
 21
8.600000
  0
TEXT
  8
1
  6
CONTINUOUS
 10
17.982614
 20
18.108971
 40
0.300000
  1
L22
  7
TQS_CALIBRI
  0
TEXT
  8
1
  6
CONTINUOUS
 10
10.658119
 20
15.883534
 40
0.300000
  1
L23
  7
TQS_CALIBRI
  0
TEXT
  8
1
  6
CONTINUOUS
 10
24.226800
 20
20.269589
 40
0.300000
  1
L21
  7
TQS_CALIBRI
  0
TEXT
  8
1
  6
CONTINUOUS
 10
31.248809
 20
22.149327
 40
0.300000
  1
L20
  7
TQS_CALIBRI
  0
TEXT
  8
1
  6
CONTINUOUS
 10
37.967682
 20
24.763675
 40
0.300000
  1
L19
  7
TQS_CALIBRI
  0
TEXT
  8
1
  6
CONTINUOUS
 10
44.215974
 20
26.332283
 40
0.300000
  1
L17
  7
TQS_CALIBRI
  0
TEXT
  8
1
  6
CONTINUOUS
 10
47.550637
 20
44.580301
 40
0.300000
  1
L10
  7
TQS_CALIBRI
  0
TEXT
  8
1
  6
CONTINUOUS
 10
45.532745
 20
36.753018
 40
0.300000
  1
L16
  7
TQS_CALIBRI
  0
TEXT
  8
1
  6
CONTINUOUS
 10
55.186610
 20
25.102935
 40
0.300000
  1
L18
  7
TQS_CALIBRI
  0
TEXT
  8
1
  6
CONTINUOUS
 10
60.750345
 20
42.310878
 40
0.300000
  1
L12
  7
TQS_CALIBRI
  0
TEXT
  8
1
  6
CONTINUOUS
 10
80.813635
 20
39.404010
 40
0.300000
  1
L14
  7
TQS_CALIBRI
  0
TEXT
  8
1
  6
CONTINUOUS
 10
57.494365
 20
46.698469
 40
0.300000
  1
L8
  7
TQS_CALIBRI
  0
TEXT
  8
1
  6
CONTINUOUS
 10
63.576442
 20
38.443888
 40
0.300000
  1
L15
  7
TQS_CALIBRI
  0
TEXT
  8
1
  6
CONTINUOUS
 10
67.872927
 20
44.623059
 40
0.300000
  1
L11
  7
TQS_CALIBRI
  0
TEXT
  8
1
  6
CONTINUOUS
 10
95.726569
 20
67.725263
 40
0.300000
  1
L3
  7
TQS_CALIBRI
  0
TEXT
  8
1
  6
CONTINUOUS
 10
95.935955
 20
63.780963
 40
0.300000
  1
L4
  7
TQS_CALIBRI
  0
TEXT
  8
1
  6
CONTINUOUS
 10
52.685407
 20
39.198095
 40
0.300000
  1
L13
  7
TQS_CALIBRI
  0
TEXT
  8
1
  6
CONTINUOUS
 10
90.619236
 20
58.044165
 40
0.300000
  1
P187
  7
TQS_CALIBRI
  0
TEXT
  8
1
  6
CONTINUOUS
 10
44.317263
 20
47.719060
 40
0.300000
  1
P193
  7
TQS_CALIBRI
  0
TEXT
  8
1
  6
CONTINUOUS
 10
33.101513
 20
43.452099
 40
0.300000
  1
P197
  7
TQS_CALIBRI
  0
TEXT
  8
1
  6
CONTINUOUS
 10
23.133863
 20
39.657552
 40
0.300000
  1
P205
  7
TQS_CALIBRI
  0
TEXT
  8
1
  6
CONTINUOUS
 10
36.521831
 20
5.378450
 40
0.300000
  1
P165
  7
TQS_CALIBRI
  0
TEXT
  8
1
  6
CONTINUOUS
 10
45.386675
 20
8.750938
 40
0.300000
  1
P157
  7
TQS_CALIBRI
  0
TEXT
  8
1
  6
CONTINUOUS
 10
56.602389
 20
13.017992
 40
0.300000
  1
P153
  7
TQS_CALIBRI
  0
TEXT
  8
1
  6
CONTINUOUS
 10
65.810711
 20
16.521249
 40
0.300000
  1
P156
  7
TQS_CALIBRI
  0
TEXT
  8
1
  6
CONTINUOUS
 10
51.785705
 20
52.314467
 40
0.300000
 50
360.000000
  1
P190
  7
TQS_CALIBRI
  0
TEXT
  8
1
  6
CONTINUOUS
 10
25.887296
 20
42.254169
 40
0.300000
  1
PD1
  7
TQS_CALIBRI
  0
TEXT
  8
1
  6
CONTINUOUS
 10
25.879873
 20
17.694169
 40
0.300000
  1
PD4
  7
TQS_CALIBRI
  0
TEXT
  8
1
  6
CONTINUOUS
 10
58.102720
 20
17.694169
 40
0.300000
  1
PD5
  7
TQS_CALIBRI
  0
TEXT
  8
1
  6
CONTINUOUS
 10
85.517296
 20
17.704170
 40
0.300000
  1
PD6
  7
TQS_CALIBRI
  0
TEXT
  8
1
  6
CONTINUOUS
 10
85.517296
 20
42.244170
 40
0.300000
  1
PD3
  7
TQS_CALIBRI
  0
TEXT
  8
1
  6
CONTINUOUS
 10
58.102720
 20
42.244170
 40
0.300000
  1
PD2
  7
TQS_CALIBRI
  0
TEXT
  8
1
  6
CONTINUOUS
 10
6.548253
 20
13.768748
 40
0.300000
  1
P147
  7
TQS_CALIBRI
  0
TEXT
  8
1
  6
CONTINUOUS
 10
22.921277
 20
4.266774
 40
0.300000
  1
P169
  7
TQS_CALIBRI
  0
TEXT
  8
1
  6
CONTINUOUS
 10
12.552596
 20
31.553421
 40
0.300000
  1
P216
  7
TQS_CALIBRI
  0
TEXT
  8
1
  6
CONTINUOUS
 10
64.966214
 20
49.212564
 40
0.300000
  1
P192
  7
TQS_CALIBRI
  0
TEXT
  8
1
  6
CONTINUOUS
 10
98.509240
 20
58.044160
 40
0.300000
  1
P188
  7
TQS_CALIBRI
  0
TEXT
  8
1
  6
CONTINUOUS
 10
98.509240
 20
69.184160
 40
0.300000
  1
P183
  7
TQS_CALIBRI
  0
TEXT
  8
1
  6
CONTINUOUS
 10
94.919236
 20
69.584165
 40
0.300000
  1
PC8
  7
TQS_CALIBRI
  0
TEXT
  8
1
  6
CONTINUOUS
 10
94.919236
 20
65.384165
 40
0.300000
  1
PC9
  7
TQS_CALIBRI
  0
TEXT
  8
1
  6
CONTINUOUS
 10
98.509240
 20
63.614160
 40
0.300000
  1
P185
  7
TQS_CALIBRI
  0
TEXT
  8
1
  6
CONTINUOUS
 10
90.619236
 20
65.384160
 40
0.300000
  1
PC7
  7
TQS_CALIBRI
  0
TEXT
  8
1
  6
CONTINUOUS
 10
61.401569
 20
28.181863
 40
0.300000
  1
P222
  7
TQS_CALIBRI
  0
TEXT
  8
1
  6
CONTINUOUS
 10
67.736119
 20
36.313787
 40
0.300000
  1
P210
  7
TQS_CALIBRI
  0
TEXT
  8
1
  6
CONTINUOUS
 10
57.617273
 20
38.128553
 40
0.300000
  1
P208
  7
TQS_CALIBRI
  0
TEXT
  8
1
  6
CONTINUOUS
 10
64.796862
 20
54.650776
 40
0.300000
  1
P189
  7
TQS_CALIBRI
  0
TEXT
  8
1
  6
CONTINUOUS
 10
77.788317
 20
59.592598
 40
0.300000
  1
P186
  7
TQS_CALIBRI
  0
TEXT
  8
1
  6
CONTINUOUS
 10
7.786148
 20
22.967405
 40
0.300000
  1
P151
  7
TQS_CALIBRI
  0
TEXT
  8
1
  6
CONTINUOUS
 10
13.552024
 20
7.671714
 40
0.300000
  1
P163
  7
TQS_CALIBRI
  0
TEXT
  8
1
  6
CONTINUOUS
 10
87.991501
 20
42.463791
 40
0.300000
  1
P199
  7
TQS_CALIBRI
  0
TEXT
  8
1
  6
CONTINUOUS
 10
63.013101
 20
44.784356
 40
0.300000
  1
P196
  7
TQS_CALIBRI
  0
TEXT
  8
1
  6
CONTINUOUS
 10
54.766508
 20
29.265327
 40
0.300000
  1
PC10
  7
TQS_CALIBRI
  0
TEXT
  8
4
  6
CONTINUOUS
 10
58.926793
 20
40.844185
 40
0.300000
 50
20.833340
  1
C68
  7
TQS_CALIBRI
  0
TEXT
  8
4
  6
CONTINUOUS
 10
59.175748
 20
40.189952
 40
0.300000
 50
20.833340
  1
C69
  7
TQS_CALIBRI
  0
TEXT
  8
4
  6
CONTINUOUS
 10
58.545741
 20
41.647415
 40
0.300000
 50
20.833340
  1
C66
  7
TQS_CALIBRI
  0
TEXT
  8
4
  6
CONTINUOUS
 10
58.666662
 20
41.329644
 40
0.300000
 50
20.833340
  1
C67
  7
TQS_CALIBRI
  0
TEXT
  8
4
  6
CONTINUOUS
 10
58.142232
 20
42.254456
 40
0.300000
 50
20.833340
  1
C64
  7
TQS_CALIBRI
  0
TEXT
  8
4
  6
CONTINUOUS
 10
58.263153
 20
41.936685
 40
0.300000
 50
20.833340
  1
C65
  7
TQS_CALIBRI
  0
TEXT
  8
4
  6
CONTINUOUS
 10
57.665163
 20
42.651716
 40
0.300000
 50
20.833340
  1
C63
  7
TQS_CALIBRI
  0
TEXT
  8
1
  6
CONTINUOUS
 10
11.401612
 20
64.914330
 40
0.220000
  1
CABO
  7
TQS_CALIBRI
  0
TEXT
  8
1
  6
CONTINUOUS
 10
18.466093
 20
65.204330
 40
0.220000
  1
COMPRIMENTO
  7
TQS_CALIBRI
  0
TEXT
  8
1
  6
CONTINUOUS
 10
21.460399
 20
64.704330
 40
0.220000
  1
TOTAL
  7
TQS_CALIBRI
  0
TEXT
  8
1
  6
CONTINUOUS
 10
24.290753
 20
64.704330
 40
0.220000
  1
A
  7
TQS_CALIBRI
  0
TEXT
  8
1
  6
CONTINUOUS
 10
25.335569
 20
64.704330
 40
0.220000
  1
P
  7
TQS_CALIBRI
  0
TEXT
  8
1
  6
CONTINUOUS
 10
26.380385
 20
64.704330
 40
0.220000
  1
I
  7
TQS_CALIBRI
  0
TEXT
  8
1
  6
CONTINUOUS
 10
24.308066
 20
65.204330
 40
0.220000
  1
ANCORAGENS
  7
TQS_CALIBRI
  0
TEXT
  8
1
  6
CONTINUOUS
 10
15.860573
 20
64.914330
 40
0.220000
  1
Q
  7
TQS_CALIBRI
  0
TEXT
  8
1
  6
CONTINUOUS
 10
12.560234
 20
65.864330
 40
0.400000
  1
PROTENSÃO: AÇO
  7
TQS_CALIBRI
  0
TEXT
  8
1
  6
CONTINUOUS
 10
17.878963
 20
64.704330
 40
0.220000
  1
UNITÁRIO
  7
TQS_CALIBRI
  0
TEXT
  8
1
  6
CONTINUOUS
 10
27.335448
 20
64.704330
 40
0.220000
  1
INI
  7
TQS_CALIBRI
  0
TEXT
  8
1
  6
CONTINUOUS
 10
28.902672
 20
64.704330
 40
0.220000
  1
FIN
  7
TQS_CALIBRI
  0
TEXT
  8
1
  6
CONTINUOUS
 10
13.789824
 20
64.916549
 40
0.220000
  1
%%c
  7
TQS_CALIBRI
  0
TEXT
  8
1
  6
CONTINUOUS
 10
27.429214
 20
65.204330
 40
0.220000
  1
ALONG
  7
TQS_CALIBRI
  0
TEXT
  8
1
  6
CONTINUOUS
 10
18.888464
 20
65.864330
 40
0.400000
  1
CP190 RB 12.7 - 12.7
  7
TQS_CALIBRI
  0
TEXT
  8
1
  6
CONTINUOUS
 10
14.074972
 20
64.916549
 40
0.220000
  1
(mm)
  7
TQS_CALIBRI
  0
TEXT
  8
1
  6
CONTINUOUS
 10
21.126169
 20
65.204330
 40
0.220000
  1
(m)
  7
TQS_CALIBRI
  0
TEXT
  8
1
  6
CONTINUOUS
 10
28.616710
 20
65.204330
 40
0.220000
  1
(mm)
  7
TQS_CALIBRI
  0
TEXT
  8
1
  6
CONTINUOUS
 10
11.047034
 20
64.204330
 40
0.220000
  1
C63
  7
TQS_CALIBRI
  0
TEXT
  8
1
  6
CONTINUOUS
 10
13.400515
 20
64.204330
 40
0.220000
  1
3 %%c 12.7
  7
TQS_CALIBRI
  0
TEXT
  8
1
  6
CONTINUOUS
 10
15.614912
 20
64.204330
 40
0.220000
  1
1
  7
TQS_CALIBRI
  0
TEXT
  8
1
  6
CONTINUOUS
 10
17.851495
 20
64.204330
 40
0.220000
  1
15.4
  7
TQS_CALIBRI
  0
TEXT
  8
1
  6
CONTINUOUS
 10
21.128328
 20
64.204330
 40
0.220000
  1
46.3
  7
TQS_CALIBRI
  0
TEXT
  8
1
  6
CONTINUOUS
 10
24.106300
 20
64.204330
 40
0.220000
  1
3
  7
TQS_CALIBRI
  0
TEXT
  8
1
  6
CONTINUOUS
 10
25.151116
 20
64.204330
 40
0.220000
  1
3
  7
TQS_CALIBRI
  0
TEXT
  8
1
  6
CONTINUOUS
 10
27.187939
 20
64.204330
 40
0.220000
  1
0
  7
TQS_CALIBRI
  0
TEXT
  8
1
  6
CONTINUOUS
 10
28.755163
 20
64.204330
 40
0.220000
  1
103
  7
TQS_CALIBRI
  0
TEXT
  8
1
  6
CONTINUOUS
 10
11.047034
 20
63.704329
 40
0.220000
  1
C64 A C65
  7
TQS_CALIBRI
  0
TEXT
  8
1
  6
CONTINUOUS
 10
13.400515
 20
63.704329
 40
0.220000
  1
1 %%c 12.7
  7
TQS_CALIBRI
  0
TEXT
  8
1
  6
CONTINUOUS
 10
15.614912
 20
63.704329
 40
0.220000
  1
2
  7
TQS_CALIBRI
  0
TEXT
  8
1
  6
CONTINUOUS
 10
17.851495
 20
63.704329
 40
0.220000
  1
15.7
  7
TQS_CALIBRI
  0
TEXT
  8
1
  6
CONTINUOUS
 10
21.128328
 20
63.704329
 40
0.220000
  1
31.4
  7
TQS_CALIBRI
  0
TEXT
  8
1
  6
CONTINUOUS
 10
24.106300
 20
63.704329
 40
0.220000
  1
2
  7
TQS_CALIBRI
  0
TEXT
  8
1
  6
CONTINUOUS
 10
25.151116
 20
63.704329
 40
0.220000
  1
2
  7
TQS_CALIBRI
  0
TEXT
  8
1
  6
CONTINUOUS
 10
27.187939
 20
63.704329
 40
0.220000
  1
0
  7
TQS_CALIBRI
  0
TEXT
  8
1
  6
CONTINUOUS
 10
28.755163
 20
63.704329
 40
0.220000
  1
106
  7
TQS_CALIBRI
  0
TEXT
  8
1
  6
CONTINUOUS
 10
11.047034
 20
63.204328
 40
0.220000
  1
C66 A C67
  7
TQS_CALIBRI
  0
TEXT
  8
1
  6
CONTINUOUS
 10
13.400515
 20
63.204328
 40
0.220000
  1
   "
  7
TQS_CALIBRI
  0
TEXT
  8
1
  6
CONTINUOUS
 10
15.614912
 20
63.204328
 40
0.220000
  1
2
  7
TQS_CALIBRI
  0
TEXT
  8
1
  6
CONTINUOUS
 10
17.851495
 20
63.204328
 40
0.220000
  1
15.9
  7
TQS_CALIBRI
  0
TEXT
  8
1
  6
CONTINUOUS
 10
21.128328
 20
63.204328
 40
0.220000
  1
31.8
  7
TQS_CALIBRI
  0
TEXT
  8
1
  6
CONTINUOUS
 10
24.106300
 20
63.204328
 40
0.220000
  1
2
  7
TQS_CALIBRI
  0
TEXT
  8
1
  6
CONTINUOUS
 10
25.151116
 20
63.204328
 40
0.220000
  1
2
  7
TQS_CALIBRI
  0
TEXT
  8
1
  6
CONTINUOUS
 10
27.187939
 20
63.204328
 40
0.220000
  1
0
  7
TQS_CALIBRI
  0
TEXT
  8
1
  6
CONTINUOUS
 10
28.755163
 20
63.204328
 40
0.220000
  1
107
  7
TQS_CALIBRI
  0
TEXT
  8
1
  6
CONTINUOUS
 10
11.047034
 20
62.704327
 40
0.220000
  1
C68 A C69
  7
TQS_CALIBRI
  0
TEXT
  8
1
  6
CONTINUOUS
 10
13.400515
 20
62.704327
 40
0.220000
  1
2 %%c 12.7
  7
TQS_CALIBRI
  0
TEXT
  8
1
  6
CONTINUOUS
 10
15.614912
 20
62.704327
 40
0.220000
  1
2
  7
TQS_CALIBRI
  0
TEXT
  8
1
  6
CONTINUOUS
 10
17.851495
 20
62.704327
 40
0.220000
  1
16
  7
TQS_CALIBRI
  0
TEXT
  8
1
  6
CONTINUOUS
 10
21.128328
 20
62.704327
 40
0.220000
  1
63.8
  7
TQS_CALIBRI
  0
TEXT
  8
1
  6
CONTINUOUS
 10
24.106300
 20
62.704327
 40
0.220000
  1
4
  7
TQS_CALIBRI
  0
TEXT
  8
1
  6
CONTINUOUS
 10
25.151116
 20
62.704327
 40
0.220000
  1
4
  7
TQS_CALIBRI
  0
TEXT
  8
1
  6
CONTINUOUS
 10
27.187939
 20
62.704327
 40
0.220000
  1
0
  7
TQS_CALIBRI
  0
TEXT
  8
1
  6
CONTINUOUS
 10
28.755163
 20
62.704327
 40
0.220000
  1
107
  7
TQS_CALIBRI
  0
TEXT
  8
1
  6
CONTINUOUS
 10
11.533175
 20
59.704327
 40
0.220000
  1
%%c
  7
TQS_CALIBRI
  0
TEXT
  8
1
  6
CONTINUOUS
 10
15.106713
 20
60.204327
 40
0.220000
  1
CABO
  7
TQS_CALIBRI
  0
TEXT
  8
1
  6
CONTINUOUS
 10
21.291273
 20
59.454327
 40
0.220000
  1
A
  7
TQS_CALIBRI
  0
TEXT
  8
1
  6
CONTINUOUS
 10
22.336088
 20
59.454327
 40
0.220000
  1
P
  7
TQS_CALIBRI
  0
TEXT
  8
1
  6
CONTINUOUS
 10
23.380905
 20
59.454327
 40
0.220000
  1
I
  7
TQS_CALIBRI
  0
TEXT
  8
1
  6
CONTINUOUS
 10
17.602472
 20
59.704327
 40
0.220000
  1
PESO
  7
TQS_CALIBRI
  0
TEXT
  8
1
  6
CONTINUOUS
 10
21.361452
 20
60.204327
 40
0.220000
  1
ANCORAGENS
  7
TQS_CALIBRI
  0
TEXT
  8
1
  6
CONTINUOUS
 10
13.440232
 20
61.287659
 40
0.400000
  1
RESUMO DE PROTENSÃO
  7
TQS_CALIBRI
  0
TEXT
  8
1
  6
CONTINUOUS
 10
12.978369
 20
60.724960
 40
0.300000
  1
Monocordoalhas não aderentes
  7
TQS_CALIBRI
  0
TEXT
  8
1
  6
CONTINUOUS
 10
13.369470
 20
59.704327
 40
0.220000
  1
COMPR
  7
TQS_CALIBRI
  0
TEXT
  8
1
  6
CONTINUOUS
 10
15.219258
 20
59.204327
 40
0.220000
  1
kgf/m
  7
TQS_CALIBRI
  0
TEXT
  8
1
  6
CONTINUOUS
 10
17.371035
 20
59.204327
 40
0.220000
  1
kgf
  7
TQS_CALIBRI
  0
TEXT
  8
1
  6
CONTINUOUS
 10
19.185427
 20
59.204327
 40
0.220000
  1
kgf+4%
  7
TQS_CALIBRI
  0
TEXT
  8
1
  6
CONTINUOUS
 10
13.374016
 20
59.204327
 40
0.220000
  1
m
  7
TQS_CALIBRI
  0
TEXT
  8
1
  6
CONTINUOUS
 10
11.511555
 20
59.204327
 40
0.220000
  1
mm
  7
TQS_CALIBRI
  0
TEXT
  8
1
  6
CONTINUOUS
 10
13.099332
 20
58.704326
 40
0.220000
  1
46
  7
TQS_CALIBRI
  0
TEXT
  8
1
  6
CONTINUOUS
 10
22.144929
 20
58.704327
 40
0.220000
  1
3
  7
TQS_CALIBRI
  0
TEXT
  8
1
  6
CONTINUOUS
 10
21.100112
 20
58.704327
 40
0.220000
  1
3
  7
TQS_CALIBRI
  0
TEXT
  8
1
  6
CONTINUOUS
 10
15.219258
 20
58.704326
 40
0.220000
  1
0.886
  7
TQS_CALIBRI
  0
TEXT
  8
1
  6
CONTINUOUS
 10
16.808587
 20
58.704326
 40
0.220000
  1
41
  7
TQS_CALIBRI
  0
TEXT
  8
1
  6
CONTINUOUS
 10
18.868585
 20
58.704326
 40
0.220000
  1
43
  7
TQS_CALIBRI
  0
TEXT
  8
1
  6
CONTINUOUS
 10
10.911399
 20
58.704326
 40
0.220000
  1
3 %%c 12.7
  7
TQS_CALIBRI
  0
TEXT
  8
1
  6
CONTINUOUS
 10
13.099332
 20
58.204326
 40
0.220000
  1
63
  7
TQS_CALIBRI
  0
TEXT
  8
1
  6
CONTINUOUS
 10
22.144929
 20
58.204326
 40
0.220000
  1
4
  7
TQS_CALIBRI
  0
TEXT
  8
1
  6
CONTINUOUS
 10
21.100112
 20
58.204326
 40
0.220000
  1
4
  7
TQS_CALIBRI
  0
TEXT
  8
1
  6
CONTINUOUS
 10
15.219258
 20
58.204326
 40
0.220000
  1
0.886
  7
TQS_CALIBRI
  0
TEXT
  8
1
  6
CONTINUOUS
 10
16.808587
 20
58.204326
 40
0.220000
  1
56
  7
TQS_CALIBRI
  0
TEXT
  8
1
  6
CONTINUOUS
 10
18.868585
 20
58.204326
 40
0.220000
  1
58
  7
TQS_CALIBRI
  0
TEXT
  8
1
  6
CONTINUOUS
 10
10.911399
 20
58.204326
 40
0.220000
  1
1 %%c 12.7
  7
TQS_CALIBRI
  0
TEXT
  8
1
  6
CONTINUOUS
 10
13.099332
 20
57.704325
 40
0.220000
  1
64
  7
TQS_CALIBRI
  0
TEXT
  8
1
  6
CONTINUOUS
 10
22.144929
 20
57.704325
 40
0.220000
  1
4
  7
TQS_CALIBRI
  0
TEXT
  8
1
  6
CONTINUOUS
 10
21.100112
 20
57.704325
 40
0.220000
  1
4
  7
TQS_CALIBRI
  0
TEXT
  8
1
  6
CONTINUOUS
 10
15.219258
 20
57.704325
 40
0.220000
  1
0.886
  7
TQS_CALIBRI
  0
TEXT
  8
1
  6
CONTINUOUS
 10
16.808587
 20
57.704325
 40
0.220000
  1
57
  7
TQS_CALIBRI
  0
TEXT
  8
1
  6
CONTINUOUS
 10
18.868585
 20
57.704325
 40
0.220000
  1
59
  7
TQS_CALIBRI
  0
TEXT
  8
1
  6
CONTINUOUS
 10
10.911399
 20
57.704325
 40
0.220000
  1
2 %%c 12.7
  7
TQS_CALIBRI
  0
TEXT
  8
1
  6
CONTINUOUS
 10
101.932386
 20
23.396411
 40
0.350000
  1
NOTAS:
  7
TQS_CALIBRI
  0
TEXT
  8
2
  6
CONTINUOUS
 10
101.965840
 20
22.812661
 40
0.240000
  1
1) CONFERIR INFORMAÇÕES DA TABELA ACIMA (TABELA DE FERRERAGEM) NA OBRA
  7
TQS_CALIBRI
  0
TEXT
  8
2
  6
CONTINUOUS
 10
101.965840
 20
22.343353
 40
0.240000
  1
ANTES DA COMPRA DAS ARMADURAS.
  7
TQS_CALIBRI
  0
TEXT
  8
1
  6
CONTINUOUS
 10
102.073109
 20
8.835799
 40
0.455000
  1
ENGENHARIA
  7
TQS_CALIBRI
  0
TEXT
  8
1
  6
CONTINUOUS
 10
101.876737
 20
16.222571
 40
0.250000
  1
REV
  7
TQS_CALIBRI
  0
TEXT
  8
1
  6
CONTINUOUS
 10
103.356169
 20
16.222571
 40
0.250000
  1
DATA
  7
TQS_CALIBRI
  0
TEXT
  8
1
  6
CONTINUOUS
 10
105.030516
 20
16.222571
 40
0.250000
  1
ASSUNTO
  7
TQS_CALIBRI
  0
TEXT
  8
1
  6
CONTINUOUS
 10
101.832253
 20
14.047181
 40
0.250000
  1
PROPRIETÁRIO - 
  7
TQS_CALIBRI
  0
TEXT
  8
1
  6
CONTINUOUS
 10
108.042444
 20
2.579059
 40
0.250000
  1
ENGENHEIRO:
  7
TQS_CALIBRI
  0
TEXT
  8
1
  6
CONTINUOUS
 10
108.046365
 20
2.149652
 40
0.250000
  1
CREA REG.:
  7
TQS_CALIBRI
  0
TEXT
  8
1
  6
CONTINUOUS
 10
110.430567
 20
2.160333
 40
0.250000
  1
020930945-8
  7
TQS_CALIBRI
  0
TEXT
  8
1
  6
CONTINUOUS
 10
103.739739
 20
9.759850
 40
1.000000
  1
VGF
  7
TQS_CALIBRI
  0
TEXT
  8
1
  6
CONTINUOUS
 10
101.832253
 20
12.147181
 40
0.250000
  1
PROJETO              Eng. Civil - CREA:020930945-8
  7
TQS_CALIBRI
  0
TEXT
  8
1
  6
CONTINUOUS
 10
101.800510
 20
2.752624
 40
0.150000
  1
DATA:
  7
TQS_CALIBRI
  0
TEXT
  8
1
  6
CONTINUOUS
 10
101.788178
 20
1.752624
 40
0.150000
  1
FASE:
  7
TQS_CALIBRI
  0
TEXT
  8
1
  6
CONTINUOUS
 10
105.124829
 20
2.752624
 40
0.150000
  1
ESCALA:
  7
TQS_CALIBRI
  0
TEXT
  8
1
  6
CONTINUOUS
 10
105.112497
 20
1.752624
 40
0.150000
  1
PLANTA:
  7
TQS_CALIBRI
  0
TEXT
  8
1
  6
CONTINUOUS
 10
101.800510
 20
6.352624
 40
0.150000
  1
TÍTULO:
  7
TQS_CALIBRI
  0
TEXT
  8
1
  6
CONTINUOUS
 10
101.787482
 20
5.577767
 40
0.150000
  1
ELEMENTOS DA PRANCHA:
  7
TQS_CALIBRI
  0
TEXT
  8
1
  6
CONTINUOUS
 10
101.800510
 20
8.252624
 40
0.150000
  1
EMPREENDIMENTO/LOCAL:
  7
TQS_CALIBRI
  0
TEXT
  8
1
  6
CONTINUOUS
 10
106.761120
 20
11.025301
 40
0.150000
  1
CONTATOS:
  7
TQS_CALIBRI
  0
TEXT
  8
1
  6
CONTINUOUS
 10
114.224829
 20
2.752624
 40
0.150000
  1
PLANTA-REVISÃO:
  7
TQS_CALIBRI
  0
TEXT
  8
1
  6
CONTINUOUS
 10
102.041441
 20
16.843956
 40
0.200000
  1
00
  7
TQS_CALIBRI
  0
TEXT
  8
1
  6
CONTINUOUS
 10
102.041441
 20
17.343956
 40
0.200000
  1
01
  7
TQS_CALIBRI
  0
TEXT
  8
1
  6
CONTINUOUS
 10
102.041441
 20
17.843956
 40
0.200000
  1
02
  7
TQS_CALIBRI
  0
TEXT
  8
1
  6
CONTINUOUS
 10
102.041441
 20
18.343956
 40
0.200000
  1
03
  7
TQS_CALIBRI
  0
TEXT
  8
1
  6
CONTINUOUS
 10
102.041441
 20
18.843956
 40
0.200000
  1
04
  7
TQS_CALIBRI
  0
TEXT
  8
1
  6
CONTINUOUS
 10
102.041441
 20
19.343956
 40
0.200000
  1
05
  7
TQS_CALIBRI
  0
TEXT
  8
1
  6
CONTINUOUS
 10
102.041441
 20
19.843956
 40
0.200000
  1
06
  7
TQS_CALIBRI
  0
TEXT
  8
1
  6
CONTINUOUS
 10
102.041441
 20
20.343956
 40
0.200000
  1
07
  7
TQS_CALIBRI
  0
TEXT
  8
1
  6
CONTINUOUS
 10
102.041441
 20
20.843956
 40
0.200000
  1
08
  7
TQS_CALIBRI
  0
TEXT
  8
1
  6
CONTINUOUS
 10
102.041441
 20
21.343956
 40
0.200000
  1
09
  7
TQS_CALIBRI
  0
TEXT
  8
1
  6
CONTINUOUS
 10
102.041441
 20
21.843956
 40
0.200000
  1
10
  7
TQS_CALIBRI
  0
TEXT
  8
1
  6
CONTINUOUS
 10
116.437973
 20
16.222571
 40
0.250000
  1
AUTOR
  7
TQS_CALIBRI
  0
TEXT
  8
1
  6
CONTINUOUS
 10
106.749019
 20
10.335784
 40
0.195000
  1
Tel: 99928-2128
  7
TQS_CALIBRI
  0
TEXT
  8
1
  6
CONTINUOUS
 10
106.749019
 20
10.012284
 40
0.195000
  1
franciscogonca@hotmail.com 
  7
TQS_CALIBRI
  0
TEXT
  8
1
  6
CONTINUOUS
 10
106.749019
 20
9.680784
 40
0.195000
  1
Tel: 99981-6458
  7
TQS_CALIBRI
  0
TEXT
  8
1
  6
CONTINUOUS
 10
106.749019
 20
9.357284
 40
0.195000
  1
tiago@vgfengenharia.com.br 
  7
TQS_CALIBRI
  0
TEXT
  8
1
  6
CONTINUOUS
 10
106.749019
 20
9.025784
 40
0.195000
  1
Tel: 99912-8379
  7
TQS_CALIBRI
  0
TEXT
  8
1
  6
CONTINUOUS
 10
110.809443
 20
11.052624
 40
0.150000
  1
CLIENTE:
  7
TQS_CALIBRI
  0
TEXT
  8
1
  6
CONTINUOUS
 10
116.009770
 20
1.647683
 40
0.500000
  1
-R
  7
TQS_CALIBRI
  0
TEXT
  8
1
  6
CONTINUOUS
 10
101.832253
 20
12.547181
 40
0.250000
  1
RESPONSÁVEL -  Diego de Vasconcelos Gonçalves Ferreira
  7
TQS_CALIBRI
  0
TEXT
  8
1
  6
CONTINUOUS
 10
110.422141
 20
2.578345
 40
0.250000
  1
Diego Vasconcelos
  7
TQS_CALIBRI
  0
TEXT
  8
1
  6
CONTINUOUS
 10
106.749019
 20
10.667284
 40
0.195000
  1
diego@vgfengenharia.com.br 
  7
TQS_CALIBRI
  0
TEXT
  8
1
  6
CONTINUOUS
 10
104.982892
 20
16.853163
 40
0.200000
  1
Emissão inicial.
  7
TQS_CALIBRI
  0
TEXT
  8
1
  6
CONTINUOUS
 10
101.795719
 20
7.825700
 40
0.250000
  1
Assembléia Legislativa de Alagoas
  7
TQS_CALIBRI
  0
TEXT
  8
1
  6
CONTINUOUS
 10
104.517953
 20
14.045361
 40
0.250000
  1
ALA
  7
TQS_CALIBRI
  0
TEXT
  8
1
  6
CONTINUOUS
 10
101.789281
 20
2.263237
 40
0.250000
  1
26/02/2024
  7
TQS_CALIBRI
  0
TEXT
  8
1
  6
CONTINUOUS
 10
102.992347
 20
16.854551
 40
0.200000
  1
26/02/24
  7
TQS_CALIBRI
  0
TEXT
  8
1
  6
CONTINUOUS
 10
101.787954
 20
7.415393
 40
0.200000
  1
RUA SÁ E ALBUQUERQUE, NÚMERO 807, JARAGUÁ - MACEIÓ-AL
  7
TQS_CALIBRI
  0
TEXT
  8
1
  6
CONTINUOUS
 10
101.789859
 20
1.251887
 40
0.250000
  1
PE
  7
TQS_CALIBRI
  0
TEXT
  8
1
  6
CONTINUOUS
 10
105.114178
 20
1.251887
 40
0.250000
  1
CLA-EEM-EST-PE-0346-ARM-R00
  7
TQS_CALIBRI
  0
TEXT
  8
1
  6
CONTINUOUS
 10
116.547332
 20
16.842370
 40
0.200000
  1
DIEGO
  7
TQS_CALIBRI
  0
TEXT
  8
1
  6
CONTINUOUS
 10
114.396264
 20
1.644018
 40
0.500000
  1
0346
  7
TQS_CALIBRI
  0
TEXT
  8
1
  6
CONTINUOUS
 10
116.689770
 20
1.647683
 40
0.500000
  1
00
  7
TQS_CALIBRI
  0
TEXT
  8
1
  6
CONTINUOUS
 10
110.802729
 20
10.513659
 40
0.400000
  1
ALA
  7
TQS_CALIBRI
  0
TEXT
  8
1
  6
CONTINUOUS
 10
101.762319
 20
5.951739
 40
0.250000
  1
ARM. PROTENSÃO HORIZONTAL (02-1Pavto) - 01 - I
  7
TQS_CALIBRI
  0
ENDSEC
  0
EOF
