  0
SECTION
  2
HEADER
  9
$ACADVER
  1
AC1002
  9
$USERI1
 70
0
  9
$INSBASE
 10
0.000000
 20
0.000000
  9
$EXTMIN
 10
0.000000
 20
0.000000
  9
$EXTMAX
 10
7.761771
 20
4.436620
  9
$LIMMIN
 10
0.000000
 20
0.000000
  9
$LIMMAX
 10
12.000000
 20
9.000000
  9
$VIEWCTR
 10
78.887138
 20
59.361758
  9
$VIEWSIZE
 40
127.522840
  9
$TEXTSIZE
 40
0.100000
  9
$TRACEWID
 40
0.010000
  9
$LTSCALE
 40
1.000000
  0
ENDSEC
  0
SECTION
  2
TABLES
  0
TABLE
  2
LTYPE
 70
     3
  0
LTYPE
  2
CONTINUOUS
 70
    64
  3
Solid line
 72
    65
 73
     0
 40
0.000000
  0
LTYPE
  2
ESTILO_TQS_0001
 70
    64
  3
-  -  -  -  -  -
 72
    65
 73
     2
 40
1.000000
 49
0.700000
 49
-0.300000
  0
LTYPE
  2
ESTILO_TQS_0002
 70
    64
  3
. . . . . . . .
 72
    65
 73
     2
 40
0.400000
 49
0.100000
 49
-0.300000
  0
LTYPE
  2
ESTILO_TQS_0003
 70
    64
  3
- . - . - . - .
 72
    65
 73
     4
 40
0.910000
 49
0.500000
 49
-0.200000
 49
0.010000
 49
-0.200000
  0
LTYPE
  2
ESTILO_TQS_0004
 70
    64
  3
- .. - .. - ..
 72
    65
 73
     6
 40
1.120000
 49
0.500000
 49
-0.200000
 49
0.010000
 49
-0.200000
 49
0.010000
 49
-0.200000
  0
LTYPE
  2
CONTINUOUS
 70
    64
  3
- - - - - - - -
 72
    65
 73
     2
 40
0.400000
 49
0.300000
 49
-0.100000
  0
ENDTAB
  0
TABLE
  2
LAYER
 70
    89
  0
LAYER
  2
0
 70
     0
 62
     7
  6
CONTINUOUS
  0
LAYER
  2
1
 70
     0
 62
     1
  6
CONTINUOUS
  0
LAYER
  2
2
 70
     0
 62
     2
  6
CONTINUOUS
  0
LAYER
  2
3
 70
     0
 62
     3
  6
CONTINUOUS
  0
LAYER
  2
4
 70
     0
 62
     4
  6
CONTINUOUS
  0
LAYER
  2
5
 70
     0
 62
     5
  6
CONTINUOUS
  0
LAYER
  2
6
 70
     0
 62
     6
  6
CONTINUOUS
  0
LAYER
  2
7
 70
     0
 62
     7
  6
CONTINUOUS
  0
LAYER
  2
8
 70
     0
 62
     8
  6
CONTINUOUS
  0
LAYER
  2
9
 70
     0
 62
     9
  6
CONTINUOUS
  0
LAYER
  2
10
 70
     0
 62
    10
  6
CONTINUOUS
  0
LAYER
  2
11
 70
     0
 62
    11
  6
CONTINUOUS
  0
LAYER
  2
12
 70
     0
 62
    12
  6
CONTINUOUS
  0
LAYER
  2
13
 70
     0
 62
    13
  6
CONTINUOUS
  0
LAYER
  2
14
 70
     0
 62
    14
  6
CONTINUOUS
  0
LAYER
  2
15
 70
     0
 62
    15
  6
CONTINUOUS
  0
LAYER
  2
16
 70
     0
 62
     7
  6
CONTINUOUS
  0
LAYER
  2
17
 70
     0
 62
     2
  6
CONTINUOUS
  0
LAYER
  2
18
 70
     0
 62
     4
  6
CONTINUOUS
  0
LAYER
  2
19
 70
     0
 62
     5
  6
CONTINUOUS
  0
LAYER
  2
20
 70
     0
 62
     4
  6
CONTINUOUS
  0
LAYER
  2
21
 70
     0
 62
     2
  6
CONTINUOUS
  0
LAYER
  2
22
 70
     0
 62
     1
  6
CONTINUOUS
  0
LAYER
  2
23
 70
     0
 62
     7
  6
CONTINUOUS
  0
LAYER
  2
24
 70
     0
 62
     6
  6
CONTINUOUS
  0
LAYER
  2
25
 70
     0
 62
     1
  6
CONTINUOUS
  0
LAYER
  2
26
 70
     0
 62
     3
  6
CONTINUOUS
  0
LAYER
  2
27
 70
     0
 62
     4
  6
CONTINUOUS
  0
LAYER
  2
28
 70
     0
 62
     4
  6
CONTINUOUS
  0
LAYER
  2
30
 70
     0
 62
     4
  6
CONTINUOUS
  0
LAYER
  2
100
 70
     0
 62
     1
  6
CONTINUOUS
  0
LAYER
  2
101
 70
     0
 62
     9
  6
CONTINUOUS
  0
LAYER
  2
102
 70
     0
 62
     7
  6
CONTINUOUS
  0
LAYER
  2
103
 70
     0
 62
     2
  6
CONTINUOUS
  0
LAYER
  2
104
 70
     0
 62
    11
  6
CONTINUOUS
  0
LAYER
  2
105
 70
     0
 62
     3
  6
CONTINUOUS
  0
LAYER
  2
106
 70
     0
 62
     5
  6
CONTINUOUS
  0
LAYER
  2
107
 70
     0
 62
     3
  6
CONTINUOUS
  0
LAYER
  2
108
 70
     0
 62
     5
  6
CONTINUOUS
  0
LAYER
  2
109
 70
     0
 62
     3
  6
CONTINUOUS
  0
LAYER
  2
197
 70
     0
 62
     3
  6
CONTINUOUS
  0
LAYER
  2
198
 70
     0
 62
     2
  6
CONTINUOUS
  0
LAYER
  2
199
 70
     0
 62
     6
  6
CONTINUOUS
  0
LAYER
  2
200
 70
     0
 62
     7
  6
ESTILO_TQS_0002
  0
LAYER
  2
201
 70
     0
 62
     7
  6
ESTILO_TQS_0001
  0
LAYER
  2
202
 70
     0
 62
     7
  6
CONTINUOUS
  0
LAYER
  2
203
 70
     0
 62
     7
  6
ESTILO_TQS_0001
  0
LAYER
  2
204
 70
     0
 62
     7
  6
ESTILO_TQS_0003
  0
LAYER
  2
205
 70
     0
 62
     5
  6
ESTILO_TQS_0004
  0
LAYER
  2
206
 70
     0
 62
    15
  6
CONTINUOUS
  0
LAYER
  2
207
 70
     0
 62
     2
  6
CONTINUOUS
  0
LAYER
  2
208
 70
     0
 62
     5
  6
CONTINUOUS
  0
LAYER
  2
210
 70
     0
 62
    15
  6
ESTILO_TQS_0002
  0
LAYER
  2
211
 70
     0
 62
     7
  6
ESTILO_TQS_0001
  0
LAYER
  2
214
 70
     0
 62
    15
  6
CONTINUOUS
  0
LAYER
  2
215
 70
     0
 62
     2
  6
CONTINUOUS
  0
LAYER
  2
216
 70
     0
 62
     3
  6
CONTINUOUS
  0
LAYER
  2
217
 70
     0
 62
     3
  6
CONTINUOUS
  0
LAYER
  2
218
 70
     0
 62
     2
  6
CONTINUOUS
  0
LAYER
  2
219
 70
     0
 62
    15
  6
CONTINUOUS
  0
LAYER
  2
220
 70
     0
 62
    10
  6
CONTINUOUS
  0
LAYER
  2
221
 70
     0
 62
    11
  6
CONTINUOUS
  0
LAYER
  2
222
 70
     0
 62
    12
  6
CONTINUOUS
  0
LAYER
  2
223
 70
     0
 62
     6
  6
CONTINUOUS
  0
LAYER
  2
224
 70
     0
 62
     1
  6
CONTINUOUS
  0
LAYER
  2
225
 70
     0
 62
    15
  6
CONTINUOUS
  0
LAYER
  2
226
 70
     0
 62
     2
  6
CONTINUOUS
  0
LAYER
  2
227
 70
     0
 62
    10
  6
CONTINUOUS
  0
LAYER
  2
228
 70
     0
 62
    11
  6
CONTINUOUS
  0
LAYER
  2
229
 70
     0
 62
    12
  6
CONTINUOUS
  0
LAYER
  2
230
 70
     0
 62
     6
  6
CONTINUOUS
  0
LAYER
  2
231
 70
     0
 62
     3
  6
CONTINUOUS
  0
LAYER
  2
232
 70
     0
 62
    12
  6
CONTINUOUS
  0
LAYER
  2
233
 70
     0
 62
     4
  6
CONTINUOUS
  0
LAYER
  2
234
 70
     0
 62
    13
  6
CONTINUOUS
  0
LAYER
  2
235
 70
     0
 62
     5
  6
CONTINUOUS
  0
LAYER
  2
236
 70
     0
 62
     2
  6
CONTINUOUS
  0
LAYER
  2
237
 70
     0
 62
     6
  6
CONTINUOUS
  0
LAYER
  2
238
 70
     0
 62
    12
  6
CONTINUOUS
  0
LAYER
  2
239
 70
     0
 62
    11
  6
CONTINUOUS
  0
LAYER
  2
240
 70
     0
 62
    11
  6
CONTINUOUS
  0
LAYER
  2
241
 70
     0
 62
    12
  6
CONTINUOUS
  0
ENDTAB
  0
TABLE
  2
STYLE
 70
     1
  0
STYLE
  2
STANDARD
 70
    64
 40
0.000000
 41
1.000000
 50
0.000000
 71
     0
 42
0.200000
  3
ROMANS.SHX
  4

  0
STYLE
  2
TQS_CALIBRI
 70
     0
 40
0.000000
 41
1.000000
 50
0.000000
 71
     0
 42
0.200000
  3
calibri.ttf
  0
STYLE
  2
TQS_CALIBRI_U
 70
     0
 40
0.000000
 41
1.000000
 50
0.000000
 71
     0
 42
0.200000
  3
calibri.ttf
  0
STYLE
  2
TQS_CALIBRI_I
 70
     0
 40
0.000000
 41
1.000000
 50
0.000000
 71
     0
 42
0.200000
  3
calibri.ttf
  0
STYLE
  2
TQS_CALIBRI_I_U
 70
     0
 40
0.000000
 41
1.000000
 50
0.000000
 71
     0
 42
0.200000
  3
calibri.ttf
  0
STYLE
  2
TQS_CALIBRI_B
 70
     0
 40
0.000000
 41
1.000000
 50
0.000000
 71
     0
 42
0.200000
  3
calibri.ttf
  0
STYLE
  2
TQS_CALIBRI_B_U
 70
     0
 40
0.000000
 41
1.000000
 50
0.000000
 71
     0
 42
0.200000
  3
calibri.ttf
  0
STYLE
  2
TQS_CALIBRI_B_I
 70
     0
 40
0.000000
 41
1.000000
 50
0.000000
 71
     0
 42
0.200000
  3
calibri.ttf
  0
STYLE
  2
TQS_CALIBRI_B_I_U
 70
     0
 40
0.000000
 41
1.000000
 50
0.000000
 71
     0
 42
0.200000
  3
calibri.ttf
  0
ENDTAB
  0
TABLE
  2
VIEW
 70
     0
  0
ENDTAB
  0
ENDSEC
  0
SECTION
  2
BLOCKS
  0
BLOCK
  8
0
  2
_PLWTQS
 70
    64
 10
0.000000
 20
0.000000
  0
TEXT
  8
0
  6
CONTINUOUS
 10
0.000000
 20
0.000000
 40
0.200000
  1
$PLWDWGGlBMVwAAAAAAAChABAAAAMHC82deG7a4TWoBHUHqWtcFPiKQt4diP7hd04bCF6ZmY4pmV5yA1E0YhskNr3hGvJzSOVrZxrWIjLvuTcUlo55/JSpC9PZvyC1v8y0k4gqmbd4wAUc8CWhkT8a30/KXbtIzJsVuyFFAjDOuDr334qk=
  7
TQS_CALIBRI
  0
TEXT
  8
0
  6
CONTINUOUS
 10
0.000000
 20
-0.250000
 40
0.200000
  1
$PLWDWGPpnu2h5BmxrV3TiAD2gW3wjTuRpgxdXnq8jpMcAehfEYFf/T9m6KFfDDVHX1hkv7XPS3B4xuPPEBx3DmSt2YCkmsoJ2Pkwaj2C1T+pk6UU29iBbGZak78lUEWEp9AOtLak3fhMqLXo7evGDI5POliN0lyDfp6glf05OcBHRn2xE=
  7
TQS_CALIBRI
  0
TEXT
  8
0
  6
CONTINUOUS
 10
0.000000
 20
-0.500000
 40
0.200000
  1
$PLWDWGSoReJnqmGixDG5tH9pm8V1BzA20HuNavtYMvd4fOIkYyPl4PnbhsboQc4sWuSEUpbe22ykEily1U8s/inhl5Bt1VlLjDITsGbKcI2oMGTZ6H02DXl7kEyhgnDgi99hmZJayFTEHT/OdumA04zOIDKy6M/Nmbu/fm5QR5G2KFT8M=
  7
TQS_CALIBRI
  0
TEXT
  8
0
  6
CONTINUOUS
 10
0.000000
 20
-0.750000
 40
0.200000
  1
$PLWDWGvrzhCZOSmqiL/FBaVqi0QyWxOUwnookNzmbdzylpWY3yqYRTY8yaLKntypFNUqx6y9Fsv9FwA1d+7Zo3lQjf8tUGZGra7le7gBuMxg2LBLMFn3IyzHBXI/CddXed2vrNOQDVR4yDtsuKmG8It5k/oGL+YFQp946KuW5Lil627EY=
  7
TQS_CALIBRI
  0
TEXT
  8
0
  6
CONTINUOUS
 10
0.000000
 20
-1.000000
 40
0.200000
  1
$PLWDWGUnORkgaPY5lbjUiA6xWEs41v/p/VA8TeOon0IcBYLdyffwQhmmZUYcqQCbJV2gQpVrGsVUU5GoMpEshoD4YcgsPrDU6xGfyos7+JxbgNJ2Ug0TRFvyaqcQiZqhw4nUPIHKXvzvzYM2qfhwJLKsN8ZNwKcuPYxNPpposjozX1mM4=
  7
TQS_CALIBRI
  0
TEXT
  8
0
  6
CONTINUOUS
 10
0.000000
 20
-1.250000
 40
0.200000
  1
$PLWDWGcYCq4Im+ZY7GVygNKxxpeHyvG6cBqn/vxPjXiyT8TDQAC2vkUVrDQMqbEnJN554JXlLx00Pzq4WSAsp9jcdNP2nevWmi3lIpX5xkfidlTAcYPjk0BRF5qP7hsGpMTCLP0kELCLGaJgzfv+GHV+wJ3ajynBlOGlAifOn7ANMGVbI=
  7
TQS_CALIBRI
  0
TEXT
  8
0
  6
CONTINUOUS
 10
0.000000
 20
-1.500000
 40
0.200000
  1
$PLWDWGAGncdgvVzilegvxUK8Bxj2r2eRzWWGhW5MJEoL8qGuK9smS1owLELQFqbP7ALz1COPeFbjhMH8OYn5/79XMaSWyUO4lR12qG4zMEfVp07ev1/zyF7WnGncCZryHGlrXH/JbmHgwsQHZWQLiD4PtWRweMbu6xlu1A5wX+DDh/rso=
  7
TQS_CALIBRI
  0
TEXT
  8
0
  6
CONTINUOUS
 10
0.000000
 20
-1.750000
 40
0.200000
  1
$PLWDWGm5ohOnpoC4dHYlLPnDV7BdRbQqIuqSNt95IYq5+Zqaqk59WEtXxT+jmpaEayxRYFmsHNUkysCTcAAAAANTcSRKMZNv6dSVCKuDEmpZrBzVJMrAk3AAAAAA==
  7
TQS_CALIBRI
  0
ENDBLK
  8
0
  0
ENDSEC
  0
SECTION
  2
ENTITIES
  0
SOLID
  8
13
  6
CONTINUOUS
 10
102.095046
 20
10.244446
 11
102.095046
 21
9.498246
 12
101.971546
 22
9.498246
 13
101.971546
 23
9.498246
  0
SOLID
  8
13
  6
CONTINUOUS
 10
102.095046
 20
10.244446
 11
101.971546
 21
9.498246
 12
101.971546
 22
11.162246
 13
101.971546
 23
11.162246
  0
SOLID
  8
13
  6
CONTINUOUS
 10
102.095046
 20
10.244446
 11
101.971546
 21
11.162246
 12
102.095046
 22
11.162246
 13
102.095046
 23
11.162246
  0
SOLID
  8
13
  6
CONTINUOUS
 10
102.095046
 20
10.244446
 11
102.095046
 21
11.162246
 12
102.095046
 22
10.244446
 13
102.095046
 23
10.244446
  0
SOLID
  8
13
  6
CONTINUOUS
 10
102.522746
 20
10.230979
 11
102.522746
 21
9.498246
 12
102.095046
 22
9.498246
 13
102.095046
 23
9.498246
  0
SOLID
  8
13
  6
CONTINUOUS
 10
102.522746
 20
10.230979
 11
102.095046
 21
9.498246
 12
102.095046
 22
10.244446
 13
102.095046
 23
10.244446
  0
SOLID
  8
13
  6
CONTINUOUS
 10
102.522746
 20
10.230979
 11
102.095046
 21
10.244446
 12
102.143544
 22
10.248642
 13
102.143544
 23
10.248642
  0
SOLID
  8
13
  6
CONTINUOUS
 10
102.522746
 20
10.230979
 11
102.143544
 21
10.248642
 12
102.211078
 22
10.252071
 13
102.211078
 23
10.252071
  0
SOLID
  8
13
  6
CONTINUOUS
 10
102.522746
 20
10.230979
 11
102.211078
 21
10.252071
 12
102.259959
 22
10.252484
 13
102.259959
 23
10.252484
  0
SOLID
  8
13
  6
CONTINUOUS
 10
102.522746
 20
10.230979
 11
102.259959
 21
10.252484
 12
102.290321
 22
10.252141
 13
102.290321
 23
10.252141
  0
SOLID
  8
13
  6
CONTINUOUS
 10
102.522746
 20
10.230979
 11
102.290321
 21
10.252141
 12
102.334203
 22
10.250668
 13
102.334203
 23
10.250668
  0
SOLID
  8
13
  6
CONTINUOUS
 10
102.522746
 20
10.230979
 11
102.334203
 21
10.250668
 12
102.394518
 22
10.246747
 13
102.394518
 23
10.246747
  0
SOLID
  8
13
  6
CONTINUOUS
 10
102.522746
 20
10.230979
 11
102.394518
 21
10.246747
 12
102.446340
 22
10.241621
 13
102.446340
 23
10.241621
  0
SOLID
  8
13
  6
CONTINUOUS
 10
102.522746
 20
10.230979
 11
102.446340
 21
10.241621
 12
102.490083
 22
10.235974
 13
102.490083
 23
10.235974
  0
SOLID
  8
13
  6
CONTINUOUS
 10
102.522746
 20
10.230979
 11
102.490083
 21
10.235974
 12
102.522746
 22
10.230979
 13
102.522746
 23
10.230979
  0
SOLID
  8
13
  6
CONTINUOUS
 10
102.594246
 20
10.217654
 11
102.594246
 21
9.498246
 12
103.021946
 22
9.498246
 13
103.021946
 23
9.498246
  0
SOLID
  8
13
  6
CONTINUOUS
 10
102.594246
 20
10.217654
 11
103.021946
 21
9.498246
 12
103.021946
 22
10.064184
 13
103.021946
 23
10.064184
  0
SOLID
  8
13
  6
CONTINUOUS
 10
102.594246
 20
10.217654
 11
103.021946
 21
10.064184
 12
103.003898
 22
10.073542
 13
103.003898
 23
10.073542
  0
SOLID
  8
13
  6
CONTINUOUS
 10
102.594246
 20
10.217654
 11
103.003898
 21
10.073542
 12
102.981716
 22
10.084501
 13
102.981716
 23
10.084501
  0
SOLID
  8
13
  6
CONTINUOUS
 10
102.594246
 20
10.217654
 11
102.981716
 21
10.084501
 12
102.953307
 22
10.098271
 13
102.953307
 23
10.098271
  0
SOLID
  8
13
  6
CONTINUOUS
 10
102.594246
 20
10.217654
 11
102.953307
 21
10.098271
 12
102.912865
 22
10.116383
 13
102.912865
 23
10.116383
  0
SOLID
  8
13
  6
CONTINUOUS
 10
102.594246
 20
10.217654
 11
102.912865
 21
10.116383
 12
102.885024
 22
10.128001
 13
102.885024
 23
10.128001
  0
SOLID
  8
13
  6
CONTINUOUS
 10
102.594246
 20
10.217654
 11
102.885024
 21
10.128001
 12
102.844071
 22
10.144755
 13
102.844071
 23
10.144755
  0
SOLID
  8
13
  6
CONTINUOUS
 10
102.594246
 20
10.217654
 11
102.844071
 21
10.144755
 12
102.813490
 22
10.155923
 13
102.813490
 23
10.155923
  0
SOLID
  8
13
  6
CONTINUOUS
 10
102.594246
 20
10.217654
 11
102.813490
 21
10.155923
 12
102.778388
 22
10.168156
 13
102.778388
 23
10.168156
  0
SOLID
  8
13
  6
CONTINUOUS
 10
102.594246
 20
10.217654
 11
102.778388
 21
10.168156
 12
102.744083
 22
10.178793
 13
102.744083
 23
10.178793
  0
SOLID
  8
13
  6
CONTINUOUS
 10
102.594246
 20
10.217654
 11
102.744083
 21
10.178793
 12
102.703465
 22
10.191172
 13
102.703465
 23
10.191172
  0
SOLID
  8
13
  6
CONTINUOUS
 10
102.594246
 20
10.217654
 11
102.703465
 21
10.191172
 12
102.665141
 22
10.201162
 13
102.665141
 23
10.201162
  0
SOLID
  8
13
  6
CONTINUOUS
 10
102.594246
 20
10.217654
 11
102.665141
 21
10.201162
 12
102.624819
 22
10.210970
 13
102.624819
 23
10.210970
  0
SOLID
  8
13
  6
CONTINUOUS
 10
102.594246
 20
10.217654
 11
102.624819
 21
10.210970
 12
102.594246
 22
10.217654
 13
102.594246
 23
10.217654
  0
SOLID
  8
13
  6
CONTINUOUS
 10
103.093446
 20
10.024343
 11
103.093446
 21
9.498246
 12
103.521146
 22
9.498246
 13
103.521146
 23
9.498246
  0
SOLID
  8
13
  6
CONTINUOUS
 10
103.093446
 20
10.024343
 11
103.521146
 21
9.498246
 12
103.521146
 22
9.661030
 13
103.521146
 23
9.661030
  0
SOLID
  8
13
  6
CONTINUOUS
 10
103.093446
 20
10.024343
 11
103.521146
 21
9.661030
 12
103.507797
 22
9.676793
 13
103.507797
 23
9.676793
  0
SOLID
  8
13
  6
CONTINUOUS
 10
103.093446
 20
10.024343
 11
103.507797
 21
9.676793
 12
103.495964
 22
9.690528
 13
103.495964
 23
9.690528
  0
SOLID
  8
13
  6
CONTINUOUS
 10
103.093446
 20
10.024343
 11
103.495964
 21
9.690528
 12
103.473877
 22
9.715277
 13
103.473877
 23
9.715277
  0
SOLID
  8
13
  6
CONTINUOUS
 10
103.093446
 20
10.024343
 11
103.473877
 21
9.715277
 12
103.454164
 22
9.736530
 13
103.454164
 23
9.736530
  0
SOLID
  8
13
  6
CONTINUOUS
 10
103.093446
 20
10.024343
 11
103.454164
 21
9.736530
 12
103.434048
 22
9.757502
 13
103.434048
 23
9.757502
  0
SOLID
  8
13
  6
CONTINUOUS
 10
103.093446
 20
10.024343
 11
103.434048
 21
9.757502
 12
103.410015
 22
9.781535
 13
103.410015
 23
9.781535
  0
SOLID
  8
13
  6
CONTINUOUS
 10
103.093446
 20
10.024343
 11
103.410015
 21
9.781535
 12
103.399294
 22
9.791943
 13
103.399294
 23
9.791943
  0
SOLID
  8
13
  6
CONTINUOUS
 10
103.093446
 20
10.024343
 11
103.399294
 21
9.791943
 12
103.388429
 22
9.802406
 13
103.388429
 23
9.802406
  0
SOLID
  8
13
  6
CONTINUOUS
 10
103.093446
 20
10.024343
 11
103.388429
 21
9.802406
 12
103.359952
 22
9.828752
 13
103.359952
 23
9.828752
  0
SOLID
  8
13
  6
CONTINUOUS
 10
103.093446
 20
10.024343
 11
103.359952
 21
9.828752
 12
103.325139
 22
9.859181
 13
103.325139
 23
9.859181
  0
SOLID
  8
13
  6
CONTINUOUS
 10
103.093446
 20
10.024343
 11
103.325139
 21
9.859181
 12
103.286846
 22
9.890826
 13
103.286846
 23
9.890826
  0
SOLID
  8
13
  6
CONTINUOUS
 10
103.093446
 20
10.024343
 11
103.286846
 21
9.890826
 12
103.251036
 22
9.918745
 13
103.251036
 23
9.918745
  0
SOLID
  8
13
  6
CONTINUOUS
 10
103.093446
 20
10.024343
 11
103.251036
 21
9.918745
 12
103.200839
 22
9.955427
 13
103.200839
 23
9.955427
  0
SOLID
  8
13
  6
CONTINUOUS
 10
103.093446
 20
10.024343
 11
103.200839
 21
9.955427
 12
103.134352
 22
9.999676
 13
103.134352
 23
9.999676
  0
SOLID
  8
13
  6
CONTINUOUS
 10
103.093446
 20
10.024343
 11
103.134352
 21
9.999676
 12
103.093446
 22
10.024343
 13
103.093446
 23
10.024343
  0
SOLID
  8
13
  6
CONTINUOUS
 10
102.522746
 20
10.635283
 11
102.522746
 21
11.162246
 12
102.095046
 22
11.162246
 13
102.095046
 23
11.162246
  0
SOLID
  8
13
  6
CONTINUOUS
 10
102.522746
 20
10.635283
 11
102.095046
 21
11.162246
 12
102.095046
 22
10.995122
 13
102.095046
 23
10.995122
  0
SOLID
  8
13
  6
CONTINUOUS
 10
102.522746
 20
10.635283
 11
102.095046
 21
10.995122
 12
102.153689
 22
10.929235
 13
102.153689
 23
10.929235
  0
SOLID
  8
13
  6
CONTINUOUS
 10
102.522746
 20
10.635283
 11
102.153689
 21
10.929235
 12
102.237359
 22
10.846559
 13
102.237359
 23
10.846559
  0
SOLID
  8
13
  6
CONTINUOUS
 10
102.522746
 20
10.635283
 11
102.237359
 21
10.846559
 12
102.308389
 22
10.784730
 13
102.308389
 23
10.784730
  0
SOLID
  8
13
  6
CONTINUOUS
 10
102.522746
 20
10.635283
 11
102.308389
 21
10.784730
 12
102.366624
 22
10.739274
 13
102.366624
 23
10.739274
  0
SOLID
  8
13
  6
CONTINUOUS
 10
102.522746
 20
10.635283
 11
102.366624
 21
10.739274
 12
102.406322
 22
10.710064
 13
102.406322
 23
10.710064
  0
SOLID
  8
13
  6
CONTINUOUS
 10
102.522746
 20
10.635283
 11
102.406322
 21
10.710064
 12
102.455827
 22
10.676682
 13
102.455827
 23
10.676682
  0
SOLID
  8
13
  6
CONTINUOUS
 10
102.522746
 20
10.635283
 11
102.455827
 21
10.676682
 12
102.493954
 22
10.652515
 13
102.493954
 23
10.652515
  0
SOLID
  8
13
  6
CONTINUOUS
 10
102.522746
 20
10.635283
 11
102.493954
 21
10.652515
 12
102.522746
 22
10.635283
 13
102.522746
 23
10.635283
  0
SOLID
  8
13
  6
CONTINUOUS
 10
103.021946
 20
10.443678
 11
103.021946
 21
11.162246
 12
102.594246
 22
11.162246
 13
102.594246
 23
11.162246
  0
SOLID
  8
13
  6
CONTINUOUS
 10
103.021946
 20
10.443678
 11
102.594246
 21
11.162246
 12
102.594246
 22
10.595859
 13
102.594246
 23
10.595859
  0
SOLID
  8
13
  6
CONTINUOUS
 10
103.021946
 20
10.443678
 11
102.594246
 21
10.595859
 12
102.663800
 22
10.561766
 13
102.663800
 23
10.561766
  0
SOLID
  8
13
  6
CONTINUOUS
 10
103.021946
 20
10.443678
 11
102.663800
 21
10.561766
 12
102.744359
 22
10.527375
 13
102.744359
 23
10.527375
  0
SOLID
  8
13
  6
CONTINUOUS
 10
103.021946
 20
10.443678
 11
102.744359
 21
10.527375
 12
102.812197
 22
10.501464
 13
102.812197
 23
10.501464
  0
SOLID
  8
13
  6
CONTINUOUS
 10
103.021946
 20
10.443678
 11
102.812197
 21
10.501464
 12
102.889458
 22
10.476967
 13
102.889458
 23
10.476967
  0
SOLID
  8
13
  6
CONTINUOUS
 10
103.021946
 20
10.443678
 11
102.889458
 21
10.476967
 12
102.950702
 22
10.460007
 13
102.950702
 23
10.460007
  0
SOLID
  8
13
  6
CONTINUOUS
 10
103.021946
 20
10.443678
 11
102.950702
 21
10.460007
 12
103.021946
 22
10.443678
 13
103.021946
 23
10.443678
  0
SOLID
  8
13
  6
CONTINUOUS
 10
103.093446
 20
10.430307
 11
103.093446
 21
11.162246
 12
103.521146
 22
11.162246
 13
103.521146
 23
11.162246
  0
SOLID
  8
13
  6
CONTINUOUS
 10
103.093446
 20
10.430307
 11
103.521146
 21
11.162246
 12
103.521146
 22
10.417580
 13
103.521146
 23
10.417580
  0
SOLID
  8
13
  6
CONTINUOUS
 10
103.093446
 20
10.430307
 11
103.521146
 21
10.417580
 12
103.476372
 22
10.413637
 13
103.476372
 23
10.413637
  0
SOLID
  8
13
  6
CONTINUOUS
 10
103.093446
 20
10.430307
 11
103.476372
 21
10.413637
 12
103.416577
 22
10.410480
 13
103.416577
 23
10.410480
  0
SOLID
  8
13
  6
CONTINUOUS
 10
103.093446
 20
10.430307
 11
103.416577
 21
10.410480
 12
103.366788
 22
10.409453
 13
103.366788
 23
10.409453
  0
SOLID
  8
13
  6
CONTINUOUS
 10
103.093446
 20
10.430307
 11
103.366788
 21
10.409453
 12
103.336830
 22
10.409453
 13
103.336830
 23
10.409453
  0
SOLID
  8
13
  6
CONTINUOUS
 10
103.093446
 20
10.430307
 11
103.336830
 21
10.409453
 12
103.286182
 22
10.410821
 13
103.286182
 23
10.410821
  0
SOLID
  8
13
  6
CONTINUOUS
 10
103.093446
 20
10.430307
 11
103.286182
 21
10.410821
 12
103.241261
 22
10.413321
 13
103.241261
 23
10.413321
  0
SOLID
  8
13
  6
CONTINUOUS
 10
103.093446
 20
10.430307
 11
103.241261
 21
10.413321
 12
103.205545
 22
10.416539
 13
103.205545
 23
10.416539
  0
SOLID
  8
13
  6
CONTINUOUS
 10
103.093446
 20
10.430307
 11
103.205545
 21
10.416539
 12
103.155349
 22
10.421044
 13
103.155349
 23
10.421044
  0
SOLID
  8
13
  6
CONTINUOUS
 10
103.093446
 20
10.430307
 11
103.155349
 21
10.421044
 12
103.093446
 22
10.430307
 13
103.093446
 23
10.430307
  0
SOLID
  8
13
  6
CONTINUOUS
 10
102.594246
 20
9.498246
 11
102.594246
 21
11.162246
 12
102.522746
 22
11.162246
 13
102.522746
 23
11.162246
  0
SOLID
  8
13
  6
CONTINUOUS
 10
102.594246
 20
9.498246
 11
102.522746
 21
11.162246
 12
102.522746
 22
9.498246
 13
102.522746
 23
9.498246
  0
SOLID
  8
13
  6
CONTINUOUS
 10
102.594246
 20
9.498246
 11
102.522746
 21
9.498246
 12
102.522746
 22
9.498246
 13
102.522746
 23
9.498246
  0
SOLID
  8
13
  6
CONTINUOUS
 10
103.021946
 20
11.162246
 11
103.093446
 21
11.162246
 12
103.093446
 22
9.498246
 13
103.093446
 23
9.498246
  0
SOLID
  8
13
  6
CONTINUOUS
 10
103.021946
 20
11.162246
 11
103.093446
 21
9.498246
 12
103.021946
 22
9.498246
 13
103.021946
 23
9.498246
  0
SOLID
  8
13
  6
CONTINUOUS
 10
103.021946
 20
11.162246
 11
103.021946
 21
9.498246
 12
103.021946
 22
11.162246
 13
103.021946
 23
11.162246
  0
SOLID
  8
13
  6
CONTINUOUS
 10
103.521146
 20
9.498246
 11
103.635546
 21
9.498246
 12
103.635546
 22
11.162246
 13
103.635546
 23
11.162246
  0
SOLID
  8
13
  6
CONTINUOUS
 10
103.521146
 20
9.498246
 11
103.635546
 21
11.162246
 12
103.521146
 22
11.162246
 13
103.521146
 23
11.162246
  0
SOLID
  8
13
  6
CONTINUOUS
 10
103.521146
 20
9.498246
 11
103.521146
 21
11.162246
 12
103.521146
 22
9.498246
 13
103.521146
 23
9.498246
  0
POLYLINE
  8
1
  6
CONTINUOUS
 66
     1
  0
VERTEX
  8
1
  6
CONTINUOUS
 10
98.204171
 20
53.446526
  0
VERTEX
  8
1
  6
CONTINUOUS
 10
99.529437
 20
53.334363
  0
SEQEND
  8
1
  6
CONTINUOUS
  0
POLYLINE
  8
1
  6
CONTINUOUS
 66
     1
  0
VERTEX
  8
1
  6
CONTINUOUS
 10
99.571603
 20
53.832582
  0
VERTEX
  8
1
  6
CONTINUOUS
 10
98.246253
 20
53.944752
  0
SEQEND
  8
1
  6
CONTINUOUS
  0
POLYLINE
  8
1
  6
CONTINUOUS
 66
     1
  0
VERTEX
  8
1
  6
CONTINUOUS
 10
88.372804
 20
54.278597
  0
VERTEX
  8
1
  6
CONTINUOUS
 10
97.041660
 20
53.544914
  0
SEQEND
  8
1
  6
CONTINUOUS
  0
POLYLINE
  8
1
  6
CONTINUOUS
 66
     1
  0
VERTEX
  8
1
  6
CONTINUOUS
 10
97.083742
 20
54.043140
  0
VERTEX
  8
1
  6
CONTINUOUS
 10
88.414886
 20
54.776822
  0
SEQEND
  8
1
  6
CONTINUOUS
  0
POLYLINE
  8
1
  6
CONTINUOUS
 66
     1
  0
VERTEX
  8
1
  6
CONTINUOUS
 10
77.578063
 20
55.192202
  0
VERTEX
  8
1
  6
CONTINUOUS
 10
87.874585
 20
54.320763
  0
SEQEND
  8
1
  6
CONTINUOUS
  0
POLYLINE
  8
1
  6
CONTINUOUS
 66
     1
  0
VERTEX
  8
1
  6
CONTINUOUS
 10
87.916668
 20
54.818989
  0
VERTEX
  8
1
  6
CONTINUOUS
 10
77.620145
 20
55.690428
  0
SEQEND
  8
1
  6
CONTINUOUS
  0
POLYLINE
  8
1
  6
CONTINUOUS
 66
     1
  0
VERTEX
  8
1
  6
CONTINUOUS
 10
68.444051
 20
55.965252
  0
VERTEX
  8
1
  6
CONTINUOUS
 10
77.079844
 20
55.234368
  0
SEQEND
  8
1
  6
CONTINUOUS
  0
POLYLINE
  8
1
  6
CONTINUOUS
 66
     1
  0
VERTEX
  8
1
  6
CONTINUOUS
 10
77.121927
 20
55.732594
  0
VERTEX
  8
1
  6
CONTINUOUS
 10
68.486134
 20
56.463478
  0
SEQEND
  8
1
  6
CONTINUOUS
  0
POLYLINE
  8
1
  6
CONTINUOUS
 66
     1
  0
VERTEX
  8
1
  6
CONTINUOUS
 10
60.515297
 20
56.636297
  0
VERTEX
  8
1
  6
CONTINUOUS
 10
67.945833
 20
56.007419
  0
SEQEND
  8
1
  6
CONTINUOUS
  0
POLYLINE
  8
1
  6
CONTINUOUS
 66
     1
  0
VERTEX
  8
1
  6
CONTINUOUS
 10
67.987915
 20
56.505644
  0
VERTEX
  8
1
  6
CONTINUOUS
 10
60.557379
 20
57.134522
  0
SEQEND
  8
1
  6
CONTINUOUS
  0
POLYLINE
  8
1
  6
CONTINUOUS
 66
     1
  0
VERTEX
  8
1
  6
CONTINUOUS
 10
51.836758
 20
57.370798
  0
VERTEX
  8
1
  6
CONTINUOUS
 10
59.352786
 20
56.734685
  0
SEQEND
  8
1
  6
CONTINUOUS
  0
POLYLINE
  8
1
  6
CONTINUOUS
 66
     1
  0
VERTEX
  8
1
  6
CONTINUOUS
 10
59.394869
 20
57.232911
  0
VERTEX
  8
1
  6
CONTINUOUS
 10
51.878840
 20
57.869024
  0
SEQEND
  8
1
  6
CONTINUOUS
  0
POLYLINE
  8
1
  6
CONTINUOUS
 66
     1
  0
VERTEX
  8
1
  6
CONTINUOUS
 10
45.193840
 20
57.933017
  0
VERTEX
  8
1
  6
CONTINUOUS
 10
51.338539
 20
57.412965
  0
SEQEND
  8
1
  6
CONTINUOUS
  0
POLYLINE
  8
1
  6
CONTINUOUS
 66
     1
  0
VERTEX
  8
1
  6
CONTINUOUS
 10
51.380621
 20
57.911191
  0
VERTEX
  8
1
  6
CONTINUOUS
 10
45.235922
 20
58.431243
  0
SEQEND
  8
1
  6
CONTINUOUS
  0
POLYLINE
  8
1
  6
CONTINUOUS
 66
     1
  0
VERTEX
  8
1
  6
CONTINUOUS
 10
36.992744
 20
58.627111
  0
VERTEX
  8
1
  6
CONTINUOUS
 10
44.695621
 20
57.975183
  0
SEQEND
  8
1
  6
CONTINUOUS
  0
POLYLINE
  8
1
  6
CONTINUOUS
 66
     1
  0
VERTEX
  8
1
  6
CONTINUOUS
 10
44.737704
 20
58.473409
  0
VERTEX
  8
1
  6
CONTINUOUS
 10
37.034826
 20
59.125337
  0
SEQEND
  8
1
  6
CONTINUOUS
  0
POLYLINE
  8
1
  6
CONTINUOUS
 66
     1
  0
VERTEX
  8
1
  6
CONTINUOUS
 10
27.526586
 20
59.428272
  0
VERTEX
  8
1
  6
CONTINUOUS
 10
35.830233
 20
58.725499
  0
SEQEND
  8
1
  6
CONTINUOUS
  0
POLYLINE
  8
1
  6
CONTINUOUS
 66
     1
  0
VERTEX
  8
1
  6
CONTINUOUS
 10
35.872316
 20
59.223725
  0
VERTEX
  8
1
  6
CONTINUOUS
 10
27.568669
 20
59.926498
  0
SEQEND
  8
1
  6
CONTINUOUS
  0
POLYLINE
  8
1
  6
CONTINUOUS
 66
     1
  0
VERTEX
  8
1
  6
CONTINUOUS
 10
17.941891
 20
60.239466
  0
VERTEX
  8
1
  6
CONTINUOUS
 10
27.028367
 20
59.470439
  0
SEQEND
  8
1
  6
CONTINUOUS
  0
POLYLINE
  8
1
  6
CONTINUOUS
 66
     1
  0
VERTEX
  8
1
  6
CONTINUOUS
 10
27.070450
 20
59.968665
  0
VERTEX
  8
1
  6
CONTINUOUS
 10
17.983973
 20
60.737692
  0
SEQEND
  8
1
  6
CONTINUOUS
  0
POLYLINE
  8
1
  6
CONTINUOUS
 66
     1
  0
VERTEX
  8
1
  6
CONTINUOUS
 10
9.140025
 20
60.984406
  0
VERTEX
  8
1
  6
CONTINUOUS
 10
17.443672
 20
60.281632
  0
SEQEND
  8
1
  6
CONTINUOUS
  0
POLYLINE
  8
1
  6
CONTINUOUS
 66
     1
  0
VERTEX
  8
1
  6
CONTINUOUS
 10
17.485755
 20
60.779858
  0
VERTEX
  8
1
  6
CONTINUOUS
 10
9.182107
 20
61.482632
  0
SEQEND
  8
1
  6
CONTINUOUS
  0
POLYLINE
  8
1
  6
CONTINUOUS
 66
     1
  0
VERTEX
  8
1
  6
CONTINUOUS
 10
6.897329
 20
61.174215
  0
VERTEX
  8
1
  6
CONTINUOUS
 10
7.977514
 20
61.082794
  0
SEQEND
  8
1
  6
CONTINUOUS
  0
POLYLINE
  8
1
  6
CONTINUOUS
 66
     1
  0
VERTEX
  8
1
  6
CONTINUOUS
 10
8.019597
 20
61.581020
  0
VERTEX
  8
1
  6
CONTINUOUS
 10
6.398391
 20
61.718229
  0
SEQEND
  8
1
  6
CONTINUOUS
  0
POLYLINE
  8
1
  6
CONTINUOUS
 66
     1
  0
VERTEX
  8
1
  6
CONTINUOUS
 10
99.529437
 20
53.334363
  0
VERTEX
  8
1
  6
CONTINUOUS
 10
99.571603
 20
53.832582
  0
SEQEND
  8
1
  6
CONTINUOUS
  0
POLYLINE
  8
1
  6
CONTINUOUS
 66
     1
  0
VERTEX
  8
1
  6
CONTINUOUS
 10
6.849670
 20
19.740588
  0
VERTEX
  8
1
  6
CONTINUOUS
 10
6.848182
 20
18.979288
  0
SEQEND
  8
1
  6
CONTINUOUS
  0
POLYLINE
  8
1
  6
CONTINUOUS
 66
     1
  0
VERTEX
  8
1
  6
CONTINUOUS
 10
7.315688
 20
19.408051
  0
VERTEX
  8
1
  6
CONTINUOUS
 10
7.316336
 20
19.739676
  0
SEQEND
  8
1
  6
CONTINUOUS
  0
POLYLINE
  8
1
  6
CONTINUOUS
 66
     1
  0
VERTEX
  8
1
  6
CONTINUOUS
 10
6.867616
 20
28.921042
  0
VERTEX
  8
1
  6
CONTINUOUS
 10
6.850648
 20
20.240587
  0
SEQEND
  8
1
  6
CONTINUOUS
  0
POLYLINE
  8
1
  6
CONTINUOUS
 66
     1
  0
VERTEX
  8
1
  6
CONTINUOUS
 10
7.317313
 20
20.239675
  0
VERTEX
  8
1
  6
CONTINUOUS
 10
7.334282
 20
28.920129
  0
SEQEND
  8
1
  6
CONTINUOUS
  0
POLYLINE
  8
1
  6
CONTINUOUS
 66
     1
  0
VERTEX
  8
1
  6
CONTINUOUS
 10
6.886903
 20
38.787689
  0
VERTEX
  8
1
  6
CONTINUOUS
 10
6.868593
 20
29.421041
  0
SEQEND
  8
1
  6
CONTINUOUS
  0
POLYLINE
  8
1
  6
CONTINUOUS
 66
     1
  0
VERTEX
  8
1
  6
CONTINUOUS
 10
7.335259
 20
29.420128
  0
VERTEX
  8
1
  6
CONTINUOUS
 10
7.353569
 20
38.786777
  0
SEQEND
  8
1
  6
CONTINUOUS
  0
POLYLINE
  8
1
  6
CONTINUOUS
 66
     1
  0
VERTEX
  8
1
  6
CONTINUOUS
 10
31.336767
 20
16.906392
  0
VERTEX
  8
1
  6
CONTINUOUS
 10
40.273421
 20
16.149928
  0
SEQEND
  8
1
  6
CONTINUOUS
  0
POLYLINE
  8
1
  6
CONTINUOUS
 66
     1
  0
VERTEX
  8
1
  6
CONTINUOUS
 10
40.312779
 20
16.614932
  0
VERTEX
  8
1
  6
CONTINUOUS
 10
31.376125
 20
17.371396
  0
SEQEND
  8
1
  6
CONTINUOUS
  0
POLYLINE
  8
1
  6
CONTINUOUS
 66
     1
  0
VERTEX
  8
1
  6
CONTINUOUS
 10
22.005417
 20
17.696267
  0
VERTEX
  8
1
  6
CONTINUOUS
 10
30.838549
 20
16.948565
  0
SEQEND
  8
1
  6
CONTINUOUS
  0
POLYLINE
  8
1
  6
CONTINUOUS
 66
     1
  0
VERTEX
  8
1
  6
CONTINUOUS
 10
30.877907
 20
17.413569
  0
VERTEX
  8
1
  6
CONTINUOUS
 10
22.044775
 20
18.161271
  0
SEQEND
  8
1
  6
CONTINUOUS
  0
POLYLINE
  8
1
  6
CONTINUOUS
 66
     1
  0
VERTEX
  8
1
  6
CONTINUOUS
 10
14.490624
 20
18.332375
  0
VERTEX
  8
1
  6
CONTINUOUS
 10
21.507199
 20
17.738440
  0
SEQEND
  8
1
  6
CONTINUOUS
  0
POLYLINE
  8
1
  6
CONTINUOUS
 66
     1
  0
VERTEX
  8
1
  6
CONTINUOUS
 10
21.546557
 20
18.203444
  0
VERTEX
  8
1
  6
CONTINUOUS
 10
14.529982
 20
18.797379
  0
SEQEND
  8
1
  6
CONTINUOUS
  0
POLYLINE
  8
1
  6
CONTINUOUS
 66
     1
  0
VERTEX
  8
1
  6
CONTINUOUS
 10
6.848182
 20
18.979288
  0
VERTEX
  8
1
  6
CONTINUOUS
 10
13.992406
 20
18.374548
  0
SEQEND
  8
1
  6
CONTINUOUS
  0
POLYLINE
  8
1
  6
CONTINUOUS
 66
     1
  0
VERTEX
  8
1
  6
CONTINUOUS
 10
14.031764
 20
18.839552
  0
VERTEX
  8
1
  6
CONTINUOUS
 10
7.315688
 20
19.408051
  0
SEQEND
  8
1
  6
CONTINUOUS
  0
POLYLINE
  8
1
  6
CONTINUOUS
 66
     1
  0
VERTEX
  8
1
  6
CONTINUOUS
 10
94.612304
 20
11.014658
  0
VERTEX
  8
1
  6
CONTINUOUS
 10
95.937520
 20
10.902476
  0
SEQEND
  8
1
  6
CONTINUOUS
  0
POLYLINE
  8
1
  6
CONTINUOUS
 66
     1
  0
VERTEX
  8
1
  6
CONTINUOUS
 10
95.979695
 20
11.400694
  0
VERTEX
  8
1
  6
CONTINUOUS
 10
94.654482
 20
11.512876
  0
SEQEND
  8
1
  6
CONTINUOUS
  0
POLYLINE
  8
1
  6
CONTINUOUS
 66
     1
  0
VERTEX
  8
1
  6
CONTINUOUS
 10
81.716130
 20
12.106341
  0
VERTEX
  8
1
  6
CONTINUOUS
 10
94.114086
 20
11.056833
  0
SEQEND
  8
1
  6
CONTINUOUS
  0
POLYLINE
  8
1
  6
CONTINUOUS
 66
     1
  0
VERTEX
  8
1
  6
CONTINUOUS
 10
94.156264
 20
11.555051
  0
VERTEX
  8
1
  6
CONTINUOUS
 10
81.758308
 20
12.604559
  0
SEQEND
  8
1
  6
CONTINUOUS
  0
POLYLINE
  8
1
  6
CONTINUOUS
 66
     1
  0
VERTEX
  8
1
  6
CONTINUOUS
 10
71.751768
 20
12.949841
  0
VERTEX
  8
1
  6
CONTINUOUS
 10
81.217911
 20
12.148516
  0
SEQEND
  8
1
  6
CONTINUOUS
  0
POLYLINE
  8
1
  6
CONTINUOUS
 66
     1
  0
VERTEX
  8
1
  6
CONTINUOUS
 10
81.260090
 20
12.646734
  0
VERTEX
  8
1
  6
CONTINUOUS
 10
71.793946
 20
13.448058
  0
SEQEND
  8
1
  6
CONTINUOUS
  0
POLYLINE
  8
1
  6
CONTINUOUS
 66
     1
  0
VERTEX
  8
1
  6
CONTINUOUS
 10
61.161785
 20
13.846300
  0
VERTEX
  8
1
  6
CONTINUOUS
 10
71.253550
 20
12.992016
  0
SEQEND
  8
1
  6
CONTINUOUS
  0
POLYLINE
  8
1
  6
CONTINUOUS
 66
     1
  0
VERTEX
  8
1
  6
CONTINUOUS
 10
71.295728
 20
13.490233
  0
VERTEX
  8
1
  6
CONTINUOUS
 10
61.203954
 20
14.344519
  0
SEQEND
  8
1
  6
CONTINUOUS
  0
POLYLINE
  8
1
  6
CONTINUOUS
 66
     1
  0
VERTEX
  8
1
  6
CONTINUOUS
 10
51.296969
 20
14.681374
  0
VERTEX
  8
1
  6
CONTINUOUS
 10
60.663567
 20
13.888475
  0
SEQEND
  8
1
  6
CONTINUOUS
  0
POLYLINE
  8
1
  6
CONTINUOUS
 66
     1
  0
VERTEX
  8
1
  6
CONTINUOUS
 10
60.705736
 20
14.386694
  0
VERTEX
  8
1
  6
CONTINUOUS
 10
51.339139
 20
15.179592
  0
SEQEND
  8
1
  6
CONTINUOUS
  0
POLYLINE
  8
1
  6
CONTINUOUS
 66
     1
  0
VERTEX
  8
1
  6
CONTINUOUS
 10
41.590224
 20
15.503066
  0
VERTEX
  8
1
  6
CONTINUOUS
 10
50.466606
 20
14.751665
  0
SEQEND
  8
1
  6
CONTINUOUS
  0
POLYLINE
  8
1
  6
CONTINUOUS
 66
     1
  0
VERTEX
  8
1
  6
CONTINUOUS
 10
50.508775
 20
15.249884
  0
VERTEX
  8
1
  6
CONTINUOUS
 10
41.632393
 20
16.001284
  0
SEQEND
  8
1
  6
CONTINUOUS
  0
POLYLINE
  8
1
  6
CONTINUOUS
 66
     1
  0
VERTEX
  8
1
  6
CONTINUOUS
 10
95.937520
 20
10.902476
  0
VERTEX
  8
1
  6
CONTINUOUS
 10
95.979695
 20
11.400694
  0
SEQEND
  8
1
  6
CONTINUOUS
  0
POLYLINE
  8
1
  6
CONTINUOUS
 66
     1
  0
VERTEX
  8
1
  6
CONTINUOUS
 10
6.369860
 20
47.122049
  0
VERTEX
  8
1
  6
CONTINUOUS
 10
6.355590
 20
39.822063
  0
SEQEND
  8
1
  6
CONTINUOUS
  0
POLYLINE
  8
1
  6
CONTINUOUS
 66
     1
  0
VERTEX
  8
1
  6
CONTINUOUS
 10
6.855589
 20
39.821086
  0
VERTEX
  8
1
  6
CONTINUOUS
 10
6.869859
 20
47.121072
  0
SEQEND
  8
1
  6
CONTINUOUS
  0
POLYLINE
  8
1
  6
CONTINUOUS
 66
     1
  0
VERTEX
  8
1
  6
CONTINUOUS
 10
6.394131
 20
59.538692
  0
VERTEX
  8
1
  6
CONTINUOUS
 10
6.370837
 20
47.622048
  0
SEQEND
  8
1
  6
CONTINUOUS
  0
POLYLINE
  8
1
  6
CONTINUOUS
 66
     1
  0
VERTEX
  8
1
  6
CONTINUOUS
 10
6.870836
 20
47.621071
  0
VERTEX
  8
1
  6
CONTINUOUS
 10
6.894130
 20
59.537715
  0
SEQEND
  8
1
  6
CONTINUOUS
  0
POLYLINE
  8
1
  6
CONTINUOUS
 66
     1
  0
VERTEX
  8
1
  6
CONTINUOUS
 10
6.398391
 20
61.718229
  0
VERTEX
  8
1
  6
CONTINUOUS
 10
6.395108
 20
60.038691
  0
SEQEND
  8
1
  6
CONTINUOUS
  0
POLYLINE
  8
1
  6
CONTINUOUS
 66
     1
  0
VERTEX
  8
1
  6
CONTINUOUS
 10
6.895107
 20
60.037714
  0
VERTEX
  8
1
  6
CONTINUOUS
 10
6.897329
 20
61.174215
  0
SEQEND
  8
1
  6
CONTINUOUS
  0
LINE
  8
1
  6
CONTINUOUS
 10
95.979818
 20
11.401082
 11
99.529402
 21
53.334366
  0
LINE
  8
1
  6
CONTINUOUS
 10
61.203955
 20
14.344653
 11
61.206797
 21
14.377861
  0
LINE
  8
1
  6
CONTINUOUS
 10
41.134176
 20
16.043471
 11
41.100962
 21
16.046283
  0
LINE
  8
1
  6
CONTINUOUS
 10
41.100962
 20
16.046283
 11
41.103753
 21
16.079248
  0
LINE
  8
1
  6
CONTINUOUS
 10
6.887906
 20
39.287688
 11
6.854573
 21
39.287753
  0
LINE
  8
1
  6
CONTINUOUS
 10
6.854573
 20
39.287753
 11
6.854638
 21
39.321087
  0
LINE
  8
1
  6
CONTINUOUS
 10
78.261521
 20
23.354346
 11
78.261521
 21
23.354346
  0
POLYLINE
  8
1
  6
CONTINUOUS
 66
     1
  0
VERTEX
  8
1
  6
CONTINUOUS
 10
78.641562
 20
22.904023
  0
VERTEX
  8
1
  6
CONTINUOUS
 10
78.711844
 20
23.734387
  0
VERTEX
  8
1
  6
CONTINUOUS
 10
77.881480
 20
23.804669
  0
VERTEX
  8
1
  6
CONTINUOUS
 10
77.811198
 20
22.974305
  0
VERTEX
  8
1
  6
CONTINUOUS
 10
78.641562
 20
22.904023
  0
SEQEND
  8
1
  6
CONTINUOUS
  0
LINE
  8
1
  6
CONTINUOUS
 10
79.177496
 20
34.175305
 11
79.177496
 21
34.175305
  0
POLYLINE
  8
1
  6
CONTINUOUS
 66
     1
  0
VERTEX
  8
1
  6
CONTINUOUS
 10
79.557537
 20
33.724982
  0
VERTEX
  8
1
  6
CONTINUOUS
 10
79.627819
 20
34.555346
  0
VERTEX
  8
1
  6
CONTINUOUS
 10
78.797455
 20
34.625629
  0
VERTEX
  8
1
  6
CONTINUOUS
 10
78.727173
 20
33.795264
  0
VERTEX
  8
1
  6
CONTINUOUS
 10
79.557537
 20
33.724982
  0
SEQEND
  8
1
  6
CONTINUOUS
  0
LINE
  8
1
  6
CONTINUOUS
 10
80.053924
 20
44.529056
 11
80.053924
 21
44.529056
  0
POLYLINE
  8
1
  6
CONTINUOUS
 66
     1
  0
VERTEX
  8
1
  6
CONTINUOUS
 10
80.433965
 20
44.078732
  0
VERTEX
  8
1
  6
CONTINUOUS
 10
80.504247
 20
44.909097
  0
VERTEX
  8
1
  6
CONTINUOUS
 10
79.673883
 20
44.979379
  0
VERTEX
  8
1
  6
CONTINUOUS
 10
79.603601
 20
44.149015
  0
VERTEX
  8
1
  6
CONTINUOUS
 10
80.433965
 20
44.078732
  0
SEQEND
  8
1
  6
CONTINUOUS
  0
LINE
  8
1
  6
CONTINUOUS
 10
61.654246
 20
24.760119
 11
61.654246
 21
24.760119
  0
POLYLINE
  8
1
  6
CONTINUOUS
 66
     1
  0
VERTEX
  8
1
  6
CONTINUOUS
 10
62.034287
 20
24.309795
  0
VERTEX
  8
1
  6
CONTINUOUS
 10
62.104569
 20
25.140160
  0
VERTEX
  8
1
  6
CONTINUOUS
 10
61.274205
 20
25.210442
  0
VERTEX
  8
1
  6
CONTINUOUS
 10
61.203923
 20
24.380078
  0
VERTEX
  8
1
  6
CONTINUOUS
 10
62.034287
 20
24.309795
  0
SEQEND
  8
1
  6
CONTINUOUS
  0
LINE
  8
1
  6
CONTINUOUS
 10
62.743322
 20
35.650058
 11
62.743322
 21
35.650058
  0
POLYLINE
  8
1
  6
CONTINUOUS
 66
     1
  0
VERTEX
  8
1
  6
CONTINUOUS
 10
63.123363
 20
35.199735
  0
VERTEX
  8
1
  6
CONTINUOUS
 10
63.193645
 20
36.030099
  0
VERTEX
  8
1
  6
CONTINUOUS
 10
62.363281
 20
36.100381
  0
VERTEX
  8
1
  6
CONTINUOUS
 10
62.292999
 20
35.270017
  0
VERTEX
  8
1
  6
CONTINUOUS
 10
63.123363
 20
35.199735
  0
SEQEND
  8
1
  6
CONTINUOUS
  0
LINE
  8
1
  6
CONTINUOUS
 10
63.612722
 20
45.920772
 11
63.612722
 21
45.920772
  0
POLYLINE
  8
1
  6
CONTINUOUS
 66
     1
  0
VERTEX
  8
1
  6
CONTINUOUS
 10
63.992763
 20
45.470449
  0
VERTEX
  8
1
  6
CONTINUOUS
 10
64.063045
 20
46.300813
  0
VERTEX
  8
1
  6
CONTINUOUS
 10
63.232681
 20
46.371095
  0
VERTEX
  8
1
  6
CONTINUOUS
 10
63.162399
 20
45.540731
  0
VERTEX
  8
1
  6
CONTINUOUS
 10
63.992763
 20
45.470449
  0
SEQEND
  8
1
  6
CONTINUOUS
  0
LINE
  8
1
  6
CONTINUOUS
 10
45.170874
 20
25.653616
 11
45.170874
 21
25.653616
  0
POLYLINE
  8
1
  6
CONTINUOUS
 66
     1
  0
VERTEX
  8
1
  6
CONTINUOUS
 10
45.370786
 20
25.051277
  0
VERTEX
  8
1
  6
CONTINUOUS
 10
45.469181
 20
26.213787
  0
VERTEX
  8
1
  6
CONTINUOUS
 10
44.970963
 20
26.255956
  0
VERTEX
  8
1
  6
CONTINUOUS
 10
44.872568
 20
25.093446
  0
VERTEX
  8
1
  6
CONTINUOUS
 10
45.370786
 20
25.051277
  0
SEQEND
  8
1
  6
CONTINUOUS
  0
LINE
  8
1
  6
CONTINUOUS
 10
46.171188
 20
37.471013
 11
46.171188
 21
37.471013
  0
POLYLINE
  8
1
  6
CONTINUOUS
 66
     1
  0
VERTEX
  8
1
  6
CONTINUOUS
 10
46.371100
 20
36.868673
  0
VERTEX
  8
1
  6
CONTINUOUS
 10
46.469495
 20
38.031183
  0
VERTEX
  8
1
  6
CONTINUOUS
 10
45.971277
 20
38.073353
  0
VERTEX
  8
1
  6
CONTINUOUS
 10
45.872882
 20
36.910843
  0
VERTEX
  8
1
  6
CONTINUOUS
 10
46.371100
 20
36.868673
  0
SEQEND
  8
1
  6
CONTINUOUS
  0
LINE
  8
1
  6
CONTINUOUS
 10
47.047617
 20
47.824763
 11
47.047617
 21
47.824763
  0
POLYLINE
  8
1
  6
CONTINUOUS
 66
     1
  0
VERTEX
  8
1
  6
CONTINUOUS
 10
47.247528
 20
47.222423
  0
VERTEX
  8
1
  6
CONTINUOUS
 10
47.345923
 20
48.384933
  0
VERTEX
  8
1
  6
CONTINUOUS
 10
46.847705
 20
48.427103
  0
VERTEX
  8
1
  6
CONTINUOUS
 10
46.749310
 20
47.264593
  0
VERTEX
  8
1
  6
CONTINUOUS
 10
47.247528
 20
47.222423
  0
SEQEND
  8
1
  6
CONTINUOUS
  0
LINE
  8
1
  6
CONTINUOUS
 10
16.193810
 20
28.106443
 11
16.193810
 21
28.106443
  0
POLYLINE
  8
1
  6
CONTINUOUS
 66
     1
  0
VERTEX
  8
1
  6
CONTINUOUS
 10
16.393722
 20
27.504103
  0
VERTEX
  8
1
  6
CONTINUOUS
 10
16.492117
 20
28.666613
  0
VERTEX
  8
1
  6
CONTINUOUS
 10
15.993898
 20
28.708782
  0
VERTEX
  8
1
  6
CONTINUOUS
 10
15.895503
 20
27.546272
  0
VERTEX
  8
1
  6
CONTINUOUS
 10
16.393722
 20
27.504103
  0
SEQEND
  8
1
  6
CONTINUOUS
  0
LINE
  8
1
  6
CONTINUOUS
 10
17.194124
 20
39.923839
 11
17.194124
 21
39.923839
  0
POLYLINE
  8
1
  6
CONTINUOUS
 66
     1
  0
VERTEX
  8
1
  6
CONTINUOUS
 10
17.394036
 20
39.321500
  0
VERTEX
  8
1
  6
CONTINUOUS
 10
17.492431
 20
40.484010
  0
VERTEX
  8
1
  6
CONTINUOUS
 10
16.994212
 20
40.526179
  0
VERTEX
  8
1
  6
CONTINUOUS
 10
16.895817
 20
39.363669
  0
VERTEX
  8
1
  6
CONTINUOUS
 10
17.394036
 20
39.321500
  0
SEQEND
  8
1
  6
CONTINUOUS
  0
LINE
  8
1
  6
CONTINUOUS
 10
95.225606
 20
22.211867
 11
95.225606
 21
22.211867
  0
POLYLINE
  8
1
  6
CONTINUOUS
 66
     1
  0
VERTEX
  8
1
  6
CONTINUOUS
 10
95.529639
 20
21.851608
  0
VERTEX
  8
1
  6
CONTINUOUS
 10
95.585865
 20
22.515900
  0
VERTEX
  8
1
  6
CONTINUOUS
 10
94.921573
 20
22.572125
  0
VERTEX
  8
1
  6
CONTINUOUS
 10
94.865347
 20
21.907834
  0
VERTEX
  8
1
  6
CONTINUOUS
 10
95.529639
 20
21.851608
  0
SEQEND
  8
1
  6
CONTINUOUS
  0
LINE
  8
1
  6
CONTINUOUS
 10
96.097042
 20
32.507653
 11
96.097042
 21
32.507653
  0
POLYLINE
  8
1
  6
CONTINUOUS
 66
     1
  0
VERTEX
  8
1
  6
CONTINUOUS
 10
96.401075
 20
32.147395
  0
VERTEX
  8
1
  6
CONTINUOUS
 10
96.457300
 20
32.811686
  0
VERTEX
  8
1
  6
CONTINUOUS
 10
95.793009
 20
32.867912
  0
VERTEX
  8
1
  6
CONTINUOUS
 10
95.736783
 20
32.203621
  0
VERTEX
  8
1
  6
CONTINUOUS
 10
96.401075
 20
32.147395
  0
SEQEND
  8
1
  6
CONTINUOUS
  0
LINE
  8
1
  6
CONTINUOUS
 10
96.968539
 20
42.804169
 11
96.968539
 21
42.804169
  0
POLYLINE
  8
1
  6
CONTINUOUS
 66
     1
  0
VERTEX
  8
1
  6
CONTINUOUS
 10
97.272572
 20
42.443910
  0
VERTEX
  8
1
  6
CONTINUOUS
 10
97.328798
 20
43.108202
  0
VERTEX
  8
1
  6
CONTINUOUS
 10
96.664507
 20
43.164427
  0
VERTEX
  8
1
  6
CONTINUOUS
 10
96.608281
 20
42.500136
  0
VERTEX
  8
1
  6
CONTINUOUS
 10
97.272572
 20
42.443910
  0
SEQEND
  8
1
  6
CONTINUOUS
  0
LINE
  8
1
  6
CONTINUOUS
 10
14.261141
 20
18.585335
 11
14.261141
 21
18.585335
  0
POLYLINE
  8
1
  6
CONTINUOUS
 66
     1
  0
VERTEX
  8
1
  6
CONTINUOUS
 10
14.529929
 20
18.796752
  0
VERTEX
  8
1
  6
CONTINUOUS
 10
14.031711
 20
18.838922
  0
VERTEX
  8
1
  6
CONTINUOUS
 10
13.992353
 20
18.373918
  0
VERTEX
  8
1
  6
CONTINUOUS
 10
14.490571
 20
18.331748
  0
VERTEX
  8
1
  6
CONTINUOUS
 10
14.529929
 20
18.796752
  0
SEQEND
  8
1
  6
CONTINUOUS
  0
POLYLINE
  8
1
  6
CONTINUOUS
 66
     1
  0
VERTEX
  8
1
  6
CONTINUOUS
 10
13.702276
 20
16.619774
  0
VERTEX
  8
1
  6
CONTINUOUS
 10
13.702276
 20
17.494774
  0
VERTEX
  8
1
  6
CONTINUOUS
 10
13.992353
 20
18.373918
  0
VERTEX
  8
1
  6
CONTINUOUS
 10
13.961235
 20
18.210182
  0
VERTEX
  8
1
  6
CONTINUOUS
 10
13.992353
 20
18.373918
  0
VERTEX
  8
1
  6
CONTINUOUS
 10
13.919918
 20
18.223815
  0
SEQEND
  8
1
  6
CONTINUOUS
  0
LINE
  8
1
  6
CONTINUOUS
 10
97.643955
 20
53.744819
 11
97.643955
 21
53.744819
  0
POLYLINE
  8
1
  6
CONTINUOUS
 66
     1
  0
VERTEX
  8
1
  6
CONTINUOUS
 10
98.204178
 20
53.446610
  0
VERTEX
  8
1
  6
CONTINUOUS
 10
98.246260
 20
53.944836
  0
VERTEX
  8
1
  6
CONTINUOUS
 10
97.083733
 20
54.043028
  0
VERTEX
  8
1
  6
CONTINUOUS
 10
97.041651
 20
53.544802
  0
VERTEX
  8
1
  6
CONTINUOUS
 10
98.204178
 20
53.446610
  0
SEQEND
  8
1
  6
CONTINUOUS
  0
LINE
  8
1
  6
CONTINUOUS
 10
88.144743
 20
54.548879
 11
88.144743
 21
54.548879
  0
POLYLINE
  8
1
  6
CONTINUOUS
 66
     1
  0
VERTEX
  8
1
  6
CONTINUOUS
 10
88.372815
 20
54.278725
  0
VERTEX
  8
1
  6
CONTINUOUS
 10
88.414897
 20
54.776951
  0
VERTEX
  8
1
  6
CONTINUOUS
 10
87.916671
 20
54.819034
  0
VERTEX
  8
1
  6
CONTINUOUS
 10
87.874589
 20
54.320808
  0
VERTEX
  8
1
  6
CONTINUOUS
 10
88.372815
 20
54.278725
  0
SEQEND
  8
1
  6
CONTINUOUS
  0
LINE
  8
1
  6
CONTINUOUS
 10
77.350003
 20
55.462494
 11
77.350003
 21
55.462494
  0
POLYLINE
  8
1
  6
CONTINUOUS
 66
     1
  0
VERTEX
  8
1
  6
CONTINUOUS
 10
77.578075
 20
55.192340
  0
VERTEX
  8
1
  6
CONTINUOUS
 10
77.620157
 20
55.690566
  0
VERTEX
  8
1
  6
CONTINUOUS
 10
77.121931
 20
55.732649
  0
VERTEX
  8
1
  6
CONTINUOUS
 10
77.079849
 20
55.234423
  0
VERTEX
  8
1
  6
CONTINUOUS
 10
77.578075
 20
55.192340
  0
SEQEND
  8
1
  6
CONTINUOUS
  0
LINE
  8
1
  6
CONTINUOUS
 10
68.215992
 20
56.235553
 11
68.215992
 21
56.235553
  0
POLYLINE
  8
1
  6
CONTINUOUS
 66
     1
  0
VERTEX
  8
1
  6
CONTINUOUS
 10
68.444064
 20
55.965399
  0
VERTEX
  8
1
  6
CONTINUOUS
 10
68.486146
 20
56.463625
  0
VERTEX
  8
1
  6
CONTINUOUS
 10
67.987920
 20
56.505708
  0
VERTEX
  8
1
  6
CONTINUOUS
 10
67.945838
 20
56.007482
  0
VERTEX
  8
1
  6
CONTINUOUS
 10
68.444064
 20
55.965399
  0
SEQEND
  8
1
  6
CONTINUOUS
  0
LINE
  8
1
  6
CONTINUOUS
 10
51.608700
 20
57.641121
 11
51.608700
 21
57.641121
  0
POLYLINE
  8
1
  6
CONTINUOUS
 66
     1
  0
VERTEX
  8
1
  6
CONTINUOUS
 10
51.836772
 20
57.370966
  0
VERTEX
  8
1
  6
CONTINUOUS
 10
51.878854
 20
57.869192
  0
VERTEX
  8
1
  6
CONTINUOUS
 10
51.380628
 20
57.911275
  0
VERTEX
  8
1
  6
CONTINUOUS
 10
51.338546
 20
57.413049
  0
VERTEX
  8
1
  6
CONTINUOUS
 10
51.836772
 20
57.370966
  0
SEQEND
  8
1
  6
CONTINUOUS
  0
LINE
  8
1
  6
CONTINUOUS
 10
44.965782
 20
58.203340
 11
44.965782
 21
58.203340
  0
POLYLINE
  8
1
  6
CONTINUOUS
 66
     1
  0
VERTEX
  8
1
  6
CONTINUOUS
 10
45.193854
 20
57.933185
  0
VERTEX
  8
1
  6
CONTINUOUS
 10
45.235937
 20
58.431411
  0
VERTEX
  8
1
  6
CONTINUOUS
 10
44.737711
 20
58.473494
  0
VERTEX
  8
1
  6
CONTINUOUS
 10
44.695628
 20
57.975268
  0
VERTEX
  8
1
  6
CONTINUOUS
 10
45.193854
 20
57.933185
  0
SEQEND
  8
1
  6
CONTINUOUS
  0
LINE
  8
1
  6
CONTINUOUS
 10
27.298531
 20
59.698625
 11
27.298531
 21
59.698625
  0
POLYLINE
  8
1
  6
CONTINUOUS
 66
     1
  0
VERTEX
  8
1
  6
CONTINUOUS
 10
27.526603
 20
59.428471
  0
VERTEX
  8
1
  6
CONTINUOUS
 10
27.568685
 20
59.926696
  0
VERTEX
  8
1
  6
CONTINUOUS
 10
27.070460
 20
59.968779
  0
VERTEX
  8
1
  6
CONTINUOUS
 10
27.028377
 20
59.470553
  0
VERTEX
  8
1
  6
CONTINUOUS
 10
27.526603
 20
59.428471
  0
SEQEND
  8
1
  6
CONTINUOUS
  0
LINE
  8
1
  6
CONTINUOUS
 10
17.713836
 20
60.509824
 11
17.713836
 21
60.509824
  0
POLYLINE
  8
1
  6
CONTINUOUS
 66
     1
  0
VERTEX
  8
1
  6
CONTINUOUS
 10
17.941908
 20
60.239670
  0
VERTEX
  8
1
  6
CONTINUOUS
 10
17.983991
 20
60.737896
  0
VERTEX
  8
1
  6
CONTINUOUS
 10
17.485765
 20
60.779979
  0
VERTEX
  8
1
  6
CONTINUOUS
 10
17.443682
 20
60.281753
  0
VERTEX
  8
1
  6
CONTINUOUS
 10
17.941908
 20
60.239670
  0
SEQEND
  8
1
  6
CONTINUOUS
  0
LINE
  8
1
  6
CONTINUOUS
 10
8.579829
 20
61.282926
 11
8.579829
 21
61.282926
  0
POLYLINE
  8
1
  6
CONTINUOUS
 66
     1
  0
VERTEX
  8
1
  6
CONTINUOUS
 10
9.140051
 20
60.984717
  0
VERTEX
  8
1
  6
CONTINUOUS
 10
9.182134
 20
61.482943
  0
VERTEX
  8
1
  6
CONTINUOUS
 10
8.019607
 20
61.581135
  0
VERTEX
  8
1
  6
CONTINUOUS
 10
7.977524
 20
61.082910
  0
VERTEX
  8
1
  6
CONTINUOUS
 10
9.140051
 20
60.984717
  0
SEQEND
  8
1
  6
CONTINUOUS
  0
LINE
  8
1
  6
CONTINUOUS
 10
7.101450
 20
29.170585
 11
7.101450
 21
29.170585
  0
POLYLINE
  8
1
  6
CONTINUOUS
 66
     1
  0
VERTEX
  8
1
  6
CONTINUOUS
 10
7.334294
 20
28.920129
  0
VERTEX
  8
1
  6
CONTINUOUS
 10
7.335272
 20
29.420128
  0
VERTEX
  8
1
  6
CONTINUOUS
 10
6.868606
 20
29.421041
  0
VERTEX
  8
1
  6
CONTINUOUS
 10
6.867629
 20
28.921042
  0
VERTEX
  8
1
  6
CONTINUOUS
 10
7.334294
 20
28.920129
  0
SEQEND
  8
1
  6
CONTINUOUS
  0
POLYLINE
  8
1
  6
CONTINUOUS
 66
     1
  0
VERTEX
  8
1
  6
CONTINUOUS
 10
8.191759
 20
27.280395
  0
VERTEX
  8
1
  6
CONTINUOUS
 10
8.191759
 20
28.155395
  0
VERTEX
  8
1
  6
CONTINUOUS
 10
7.334294
 20
28.920129
  0
VERTEX
  8
1
  6
CONTINUOUS
 10
7.472095
 20
28.826381
  0
VERTEX
  8
1
  6
CONTINUOUS
 10
7.334294
 20
28.920129
  0
VERTEX
  8
1
  6
CONTINUOUS
 10
7.443135
 20
28.793910
  0
SEQEND
  8
1
  6
CONTINUOUS
  0
LINE
  8
1
  6
CONTINUOUS
 10
7.120750
 20
39.037233
 11
7.120750
 21
39.037233
  0
POLYLINE
  8
1
  6
CONTINUOUS
 66
     1
  0
VERTEX
  8
1
  6
CONTINUOUS
 10
7.353594
 20
38.786777
  0
VERTEX
  8
1
  6
CONTINUOUS
 10
7.354572
 20
39.286776
  0
VERTEX
  8
1
  6
CONTINUOUS
 10
6.887906
 20
39.287688
  0
VERTEX
  8
1
  6
CONTINUOUS
 10
6.886929
 20
38.787689
  0
VERTEX
  8
1
  6
CONTINUOUS
 10
7.353594
 20
38.786777
  0
SEQEND
  8
1
  6
CONTINUOUS
  0
LINE
  8
1
  6
CONTINUOUS
 10
6.620385
 20
47.371560
 11
6.620385
 21
47.371560
  0
POLYLINE
  8
1
  6
CONTINUOUS
 66
     1
  0
VERTEX
  8
1
  6
CONTINUOUS
 10
6.869896
 20
47.121072
  0
VERTEX
  8
1
  6
CONTINUOUS
 10
6.870874
 20
47.621071
  0
VERTEX
  8
1
  6
CONTINUOUS
 10
6.370875
 20
47.622048
  0
VERTEX
  8
1
  6
CONTINUOUS
 10
6.369897
 20
47.122049
  0
VERTEX
  8
1
  6
CONTINUOUS
 10
6.869896
 20
47.121072
  0
SEQEND
  8
1
  6
CONTINUOUS
  0
LINE
  8
1
  6
CONTINUOUS
 10
6.644674
 20
59.788203
 11
6.644674
 21
59.788203
  0
POLYLINE
  8
1
  6
CONTINUOUS
 66
     1
  0
VERTEX
  8
1
  6
CONTINUOUS
 10
6.894185
 20
59.537715
  0
VERTEX
  8
1
  6
CONTINUOUS
 10
6.895162
 20
60.037714
  0
VERTEX
  8
1
  6
CONTINUOUS
 10
6.395163
 20
60.038691
  0
VERTEX
  8
1
  6
CONTINUOUS
 10
6.394185
 20
59.538692
  0
VERTEX
  8
1
  6
CONTINUOUS
 10
6.894185
 20
59.537715
  0
SEQEND
  8
1
  6
CONTINUOUS
  0
LINE
  8
1
  6
CONTINUOUS
 10
59.955098
 20
56.934780
 11
59.955098
 21
56.934780
  0
POLYLINE
  8
1
  6
CONTINUOUS
 66
     1
  0
VERTEX
  8
1
  6
CONTINUOUS
 10
60.515320
 20
56.636571
  0
VERTEX
  8
1
  6
CONTINUOUS
 10
60.557403
 20
57.134797
  0
VERTEX
  8
1
  6
CONTINUOUS
 10
59.394875
 20
57.232989
  0
VERTEX
  8
1
  6
CONTINUOUS
 10
59.352793
 20
56.734763
  0
VERTEX
  8
1
  6
CONTINUOUS
 10
60.515320
 20
56.636571
  0
SEQEND
  8
1
  6
CONTINUOUS
  0
LINE
  8
1
  6
CONTINUOUS
 10
21.775940
 20
17.949302
 11
21.775940
 21
17.949302
  0
POLYLINE
  8
1
  6
CONTINUOUS
 66
     1
  0
VERTEX
  8
1
  6
CONTINUOUS
 10
22.044728
 20
18.160719
  0
VERTEX
  8
1
  6
CONTINUOUS
 10
21.546510
 20
18.202888
  0
VERTEX
  8
1
  6
CONTINUOUS
 10
21.507152
 20
17.737884
  0
VERTEX
  8
1
  6
CONTINUOUS
 10
22.005370
 20
17.695715
  0
VERTEX
  8
1
  6
CONTINUOUS
 10
22.044728
 20
18.160719
  0
SEQEND
  8
1
  6
CONTINUOUS
  0
POLYLINE
  8
1
  6
CONTINUOUS
 66
     1
  0
VERTEX
  8
1
  6
CONTINUOUS
 10
21.422101
 20
15.767598
  0
VERTEX
  8
1
  6
CONTINUOUS
 10
21.422101
 20
16.892598
  0
VERTEX
  8
1
  6
CONTINUOUS
 10
21.507152
 20
17.737884
  0
VERTEX
  8
1
  6
CONTINUOUS
 10
21.512254
 20
17.571296
  0
VERTEX
  8
1
  6
CONTINUOUS
 10
21.507152
 20
17.737884
  0
VERTEX
  8
1
  6
CONTINUOUS
 10
21.468964
 20
17.575652
  0
SEQEND
  8
1
  6
CONTINUOUS
  0
LINE
  8
1
  6
CONTINUOUS
 10
71.523734
 20
13.219870
 11
71.523734
 21
13.219870
  0
POLYLINE
  8
1
  6
CONTINUOUS
 66
     1
  0
VERTEX
  8
1
  6
CONTINUOUS
 10
71.793932
 20
13.447890
  0
VERTEX
  8
1
  6
CONTINUOUS
 10
71.295714
 20
13.490068
  0
VERTEX
  8
1
  6
CONTINUOUS
 10
71.253536
 20
12.991850
  0
VERTEX
  8
1
  6
CONTINUOUS
 10
71.751754
 20
12.949672
  0
VERTEX
  8
1
  6
CONTINUOUS
 10
71.793932
 20
13.447890
  0
SEQEND
  8
1
  6
CONTINUOUS
  0
LINE
  8
1
  6
CONTINUOUS
 10
81.488110
 20
12.376537
 11
81.488110
 21
12.376537
  0
POLYLINE
  8
1
  6
CONTINUOUS
 66
     1
  0
VERTEX
  8
1
  6
CONTINUOUS
 10
81.758308
 20
12.604557
  0
VERTEX
  8
1
  6
CONTINUOUS
 10
81.260090
 20
12.646735
  0
VERTEX
  8
1
  6
CONTINUOUS
 10
81.217912
 20
12.148517
  0
VERTEX
  8
1
  6
CONTINUOUS
 10
81.716129
 20
12.106339
  0
VERTEX
  8
1
  6
CONTINUOUS
 10
81.758308
 20
12.604557
  0
SEQEND
  8
1
  6
CONTINUOUS
  0
LINE
  8
1
  6
CONTINUOUS
 10
94.384278
 20
11.284775
 11
94.384278
 21
11.284775
  0
POLYLINE
  8
1
  6
CONTINUOUS
 66
     1
  0
VERTEX
  8
1
  6
CONTINUOUS
 10
94.654476
 20
11.512795
  0
VERTEX
  8
1
  6
CONTINUOUS
 10
94.156258
 20
11.554973
  0
VERTEX
  8
1
  6
CONTINUOUS
 10
94.114080
 20
11.056755
  0
VERTEX
  8
1
  6
CONTINUOUS
 10
94.612298
 20
11.014577
  0
VERTEX
  8
1
  6
CONTINUOUS
 10
94.654476
 20
11.512795
  0
SEQEND
  8
1
  6
CONTINUOUS
  0
LINE
  8
1
  6
CONTINUOUS
 10
36.432535
 20
58.925479
 11
36.432535
 21
58.925479
  0
POLYLINE
  8
1
  6
CONTINUOUS
 66
     1
  0
VERTEX
  8
1
  6
CONTINUOUS
 10
36.992757
 20
58.627270
  0
VERTEX
  8
1
  6
CONTINUOUS
 10
37.034840
 20
59.125496
  0
VERTEX
  8
1
  6
CONTINUOUS
 10
35.872313
 20
59.223688
  0
VERTEX
  8
1
  6
CONTINUOUS
 10
35.830230
 20
58.725462
  0
VERTEX
  8
1
  6
CONTINUOUS
 10
36.992757
 20
58.627270
  0
SEQEND
  8
1
  6
CONTINUOUS
  0
LINE
  8
1
  6
CONTINUOUS
 10
50.923951
 20
15.214671
 11
50.923951
 21
15.214671
  0
POLYLINE
  8
1
  6
CONTINUOUS
 66
     1
  0
VERTEX
  8
1
  6
CONTINUOUS
 10
51.381303
 20
15.677748
  0
VERTEX
  8
1
  6
CONTINUOUS
 10
50.550939
 20
15.748031
  0
VERTEX
  8
1
  6
CONTINUOUS
 10
50.466600
 20
14.751593
  0
VERTEX
  8
1
  6
CONTINUOUS
 10
51.296964
 20
14.681311
  0
VERTEX
  8
1
  6
CONTINUOUS
 10
51.381303
 20
15.677748
  0
SEQEND
  8
1
  6
CONTINUOUS
  0
LINE
  8
1
  6
CONTINUOUS
 10
31.787920
 20
26.675815
 11
31.787920
 21
26.675815
  0
POLYLINE
  8
1
  6
CONTINUOUS
 66
     1
  0
VERTEX
  8
1
  6
CONTINUOUS
 10
31.987831
 20
26.073475
  0
VERTEX
  8
1
  6
CONTINUOUS
 10
32.086226
 20
27.235985
  0
VERTEX
  8
1
  6
CONTINUOUS
 10
31.588008
 20
27.278155
  0
VERTEX
  8
1
  6
CONTINUOUS
 10
31.489613
 20
26.115645
  0
VERTEX
  8
1
  6
CONTINUOUS
 10
31.987831
 20
26.073475
  0
SEQEND
  8
1
  6
CONTINUOUS
  0
LINE
  8
1
  6
CONTINUOUS
 10
32.788083
 20
38.493224
 11
32.788083
 21
38.493224
  0
POLYLINE
  8
1
  6
CONTINUOUS
 66
     1
  0
VERTEX
  8
1
  6
CONTINUOUS
 10
32.987994
 20
37.890885
  0
VERTEX
  8
1
  6
CONTINUOUS
 10
33.086389
 20
39.053395
  0
VERTEX
  8
1
  6
CONTINUOUS
 10
32.588171
 20
39.095564
  0
VERTEX
  8
1
  6
CONTINUOUS
 10
32.489776
 20
37.933054
  0
VERTEX
  8
1
  6
CONTINUOUS
 10
32.987994
 20
37.890885
  0
SEQEND
  8
1
  6
CONTINUOUS
  0
LINE
  8
1
  6
CONTINUOUS
 10
33.420698
 20
45.967961
 11
33.420698
 21
45.967961
  0
POLYLINE
  8
1
  6
CONTINUOUS
 66
     1
  0
VERTEX
  8
1
  6
CONTINUOUS
 10
33.620609
 20
45.365621
  0
VERTEX
  8
1
  6
CONTINUOUS
 10
33.719005
 20
46.528131
  0
VERTEX
  8
1
  6
CONTINUOUS
 10
33.220786
 20
46.570300
  0
VERTEX
  8
1
  6
CONTINUOUS
 10
33.122391
 20
45.407790
  0
VERTEX
  8
1
  6
CONTINUOUS
 10
33.620609
 20
45.365621
  0
SEQEND
  8
1
  6
CONTINUOUS
  0
LINE
  8
1
  6
CONTINUOUS
 10
18.028385
 20
49.779394
 11
18.028385
 21
49.779394
  0
POLYLINE
  8
1
  6
CONTINUOUS
 66
     1
  0
VERTEX
  8
1
  6
CONTINUOUS
 10
18.228297
 20
49.177054
  0
VERTEX
  8
1
  6
CONTINUOUS
 10
18.326692
 20
50.339564
  0
VERTEX
  8
1
  6
CONTINUOUS
 10
17.828474
 20
50.381733
  0
VERTEX
  8
1
  6
CONTINUOUS
 10
17.730079
 20
49.219223
  0
VERTEX
  8
1
  6
CONTINUOUS
 10
18.228297
 20
49.177054
  0
SEQEND
  8
1
  6
CONTINUOUS
  0
LINE
  8
1
  6
CONTINUOUS
 10
41.362201
 20
15.773277
 11
41.362201
 21
15.773277
  0
POLYLINE
  8
1
  6
CONTINUOUS
 66
     1
  0
VERTEX
  8
1
  6
CONTINUOUS
 10
41.632395
 20
16.001302
  0
VERTEX
  8
1
  6
CONTINUOUS
 10
41.134176
 20
16.043471
  0
VERTEX
  8
1
  6
CONTINUOUS
 10
41.092007
 20
15.545252
  0
VERTEX
  8
1
  6
CONTINUOUS
 10
41.590225
 20
15.503083
  0
VERTEX
  8
1
  6
CONTINUOUS
 10
41.632395
 20
16.001302
  0
SEQEND
  8
1
  6
CONTINUOUS
  0
LINE
  8
1
  6
CONTINUOUS
 10
6.605127
 20
39.571575
 11
6.605127
 21
39.571575
  0
POLYLINE
  8
1
  6
CONTINUOUS
 66
     1
  0
VERTEX
  8
1
  6
CONTINUOUS
 10
6.854638
 20
39.321087
  0
VERTEX
  8
1
  6
CONTINUOUS
 10
6.855615
 20
39.821086
  0
VERTEX
  8
1
  6
CONTINUOUS
 10
6.355616
 20
39.822063
  0
VERTEX
  8
1
  6
CONTINUOUS
 10
6.354639
 20
39.322064
  0
VERTEX
  8
1
  6
CONTINUOUS
 10
6.854638
 20
39.321087
  0
SEQEND
  8
1
  6
CONTINUOUS
  0
LINE
  8
1
  6
CONTINUOUS
 10
60.954856
 20
14.365737
 11
60.954856
 21
14.365737
  0
POLYLINE
  8
1
  6
CONTINUOUS
 66
     1
  0
VERTEX
  8
1
  6
CONTINUOUS
 10
61.246135
 20
14.842871
  0
VERTEX
  8
1
  6
CONTINUOUS
 10
60.747916
 20
14.885041
  0
VERTEX
  8
1
  6
CONTINUOUS
 10
60.663578
 20
13.888603
  0
VERTEX
  8
1
  6
CONTINUOUS
 10
61.161796
 20
13.846434
  0
VERTEX
  8
1
  6
CONTINUOUS
 10
61.246135
 20
14.842871
  0
SEQEND
  8
1
  6
CONTINUOUS
  0
LINE
  8
1
  6
CONTINUOUS
 10
31.107328
 20
17.159880
 11
31.107328
 21
17.159880
  0
POLYLINE
  8
1
  6
CONTINUOUS
 66
     1
  0
VERTEX
  8
1
  6
CONTINUOUS
 10
31.376117
 20
17.371297
  0
VERTEX
  8
1
  6
CONTINUOUS
 10
30.877898
 20
17.413466
  0
VERTEX
  8
1
  6
CONTINUOUS
 10
30.838540
 20
16.948462
  0
VERTEX
  8
1
  6
CONTINUOUS
 10
31.336759
 20
16.906293
  0
VERTEX
  8
1
  6
CONTINUOUS
 10
31.376117
 20
17.371297
  0
SEQEND
  8
1
  6
CONTINUOUS
  0
LINE
  8
1
  6
CONTINUOUS
 10
6.585762
 20
29.704927
 11
6.585762
 21
29.704927
  0
POLYLINE
  8
1
  6
CONTINUOUS
 66
     1
  0
VERTEX
  8
1
  6
CONTINUOUS
 10
6.835273
 20
29.454439
  0
VERTEX
  8
1
  6
CONTINUOUS
 10
6.836250
 20
29.954438
  0
VERTEX
  8
1
  6
CONTINUOUS
 10
6.336251
 20
29.955415
  0
VERTEX
  8
1
  6
CONTINUOUS
 10
6.335274
 20
29.455416
  0
VERTEX
  8
1
  6
CONTINUOUS
 10
6.835273
 20
29.454439
  0
SEQEND
  8
1
  6
CONTINUOUS
  0
LINE
  8
5
  6
CONTINUOUS
 10
6.836250
 20
29.954438
 11
7.003242
 21
30.120779
  0
LINE
  8
5
  6
CONTINUOUS
 10
6.336251
 20
29.955415
 11
6.169910
 21
30.122408
  0
LINE
  8
5
  6
CONTINUOUS
 10
6.335274
 20
29.455416
 11
6.168281
 21
29.289076
  0
LINE
  8
5
  6
CONTINUOUS
 10
6.835273
 20
29.454439
 11
7.001613
 21
29.287447
  0
POLYLINE
  8
1
  6
CONTINUOUS
 66
     1
  0
VERTEX
  8
1
  6
CONTINUOUS
 10
6.204781
 20
31.868413
  0
VERTEX
  8
1
  6
CONTINUOUS
 10
6.204781
 20
30.743413
  0
VERTEX
  8
1
  6
CONTINUOUS
 10
6.336251
 20
29.955415
  0
VERTEX
  8
1
  6
CONTINUOUS
 10
6.287600
 20
30.114823
  0
VERTEX
  8
1
  6
CONTINUOUS
 10
6.336251
 20
29.955415
  0
VERTEX
  8
1
  6
CONTINUOUS
 10
6.330516
 20
30.121983
  0
SEQEND
  8
1
  6
CONTINUOUS
  0
LINE
  8
1
  6
CONTINUOUS
 10
7.083492
 20
19.990131
 11
7.083492
 21
19.990131
  0
POLYLINE
  8
1
  6
CONTINUOUS
 66
     1
  0
VERTEX
  8
1
  6
CONTINUOUS
 10
7.316336
 20
19.739676
  0
VERTEX
  8
1
  6
CONTINUOUS
 10
7.317313
 20
20.239675
  0
VERTEX
  8
1
  6
CONTINUOUS
 10
6.850648
 20
20.240587
  0
VERTEX
  8
1
  6
CONTINUOUS
 10
6.849670
 20
19.740588
  0
VERTEX
  8
1
  6
CONTINUOUS
 10
7.316336
 20
19.739676
  0
SEQEND
  8
1
  6
CONTINUOUS
  0
POLYLINE
  8
1
  6
CONTINUOUS
 66
     1
  0
VERTEX
  8
1
  6
CONTINUOUS
 10
5.627253
 20
21.141355
  0
VERTEX
  8
1
  6
CONTINUOUS
 10
5.627253
 20
20.266355
  0
VERTEX
  8
1
  6
CONTINUOUS
 10
6.850648
 20
20.240587
  0
VERTEX
  8
1
  6
CONTINUOUS
 10
6.684985
 20
20.222317
  0
VERTEX
  8
1
  6
CONTINUOUS
 10
6.850648
 20
20.240587
  0
VERTEX
  8
1
  6
CONTINUOUS
 10
6.685902
 20
20.265816
  0
SEQEND
  8
1
  6
CONTINUOUS
  0
LINE
  8
1
  6
CONTINUOUS
 10
40.708270
 20
16.347141
 11
40.708270
 21
16.347141
  0
POLYLINE
  8
1
  6
CONTINUOUS
 66
     1
  0
VERTEX
  8
1
  6
CONTINUOUS
 10
41.143131
 20
16.544502
  0
VERTEX
  8
1
  6
CONTINUOUS
 10
40.312767
 20
16.614784
  0
VERTEX
  8
1
  6
CONTINUOUS
 10
40.273409
 20
16.149780
  0
VERTEX
  8
1
  6
CONTINUOUS
 10
41.103773
 20
16.079498
  0
VERTEX
  8
1
  6
CONTINUOUS
 10
41.143131
 20
16.544502
  0
SEQEND
  8
1
  6
CONTINUOUS
  0
LINE
  8
4
  6
CONTINUOUS
 10
14.743697
 20
19.866489
 11
14.659358
 21
18.870052
  0
LINE
  8
4
  6
CONTINUOUS
 10
14.559714
 20
18.878486
 11
14.759002
 21
18.861618
  0
LINE
  8
4
  6
CONTINUOUS
 10
14.561401
 20
18.898414
 11
14.760688
 21
18.881547
  0
LINE
  8
4
  6
CONTINUOUS
 10
14.563088
 20
18.918343
 11
14.762375
 21
18.901475
  0
LINE
  8
4
  6
CONTINUOUS
 10
18.180419
 20
60.470348
 11
18.243673
 21
61.217676
  0
LINE
  8
4
  6
CONTINUOUS
 10
18.324145
 20
60.834524
 11
18.099946
 21
60.853500
  0
LINE
  8
4
  6
CONTINUOUS
 10
18.330470
 20
60.909257
 11
18.106272
 21
60.928233
  0
LINE
  8
4
  6
CONTINUOUS
 10
18.336796
 20
60.983990
 11
18.112597
 21
61.002966
  0
LINE
  8
4
  6
CONTINUOUS
 10
18.343121
 20
61.058722
 11
18.118923
 21
61.077699
  0
LINE
  8
4
  6
CONTINUOUS
 10
18.299722
 20
61.212932
 11
18.187623
 21
61.222420
  0
LINE
  8
4
  6
CONTINUOUS
 10
18.299722
 20
61.212932
 11
18.306927
 21
61.965004
  0
LINE
  8
4
  6
CONTINUOUS
 10
18.187623
 20
61.222420
 11
18.306927
 21
61.965004
  0
POLYLINE
  8
4
  6
CONTINUOUS
 66
     1
  0
VERTEX
  8
4
  6
CONTINUOUS
 10
14.743697
 20
19.866489
  0
VERTEX
  8
4
  6
CONTINUOUS
 10
18.180419
 20
60.470348
  0
SEQEND
  8
4
  6
CONTINUOUS
  0
LINE
  8
4
  6
CONTINUOUS
 10
15.241915
 20
19.824320
 11
15.157577
 21
18.827882
  0
LINE
  8
4
  6
CONTINUOUS
 10
15.057933
 20
18.836316
 11
15.257220
 21
18.819448
  0
LINE
  8
4
  6
CONTINUOUS
 10
15.059620
 20
18.856245
 11
15.258907
 21
18.839377
  0
LINE
  8
4
  6
CONTINUOUS
 10
15.061306
 20
18.876174
 11
15.260594
 21
18.859306
  0
LINE
  8
4
  6
CONTINUOUS
 10
18.678637
 20
60.428179
 11
18.741891
 21
61.175507
  0
LINE
  8
4
  6
CONTINUOUS
 10
18.822363
 20
60.792355
 11
18.598165
 21
60.811331
  0
LINE
  8
4
  6
CONTINUOUS
 10
18.828689
 20
60.867088
 11
18.604490
 21
60.886064
  0
LINE
  8
4
  6
CONTINUOUS
 10
18.835014
 20
60.941820
 11
18.610816
 21
60.960797
  0
LINE
  8
4
  6
CONTINUOUS
 10
18.841340
 20
61.016553
 11
18.617141
 21
61.035529
  0
LINE
  8
4
  6
CONTINUOUS
 10
18.797941
 20
61.170763
 11
18.685842
 21
61.180251
  0
LINE
  8
4
  6
CONTINUOUS
 10
18.797941
 20
61.170763
 11
18.805145
 21
61.922835
  0
LINE
  8
4
  6
CONTINUOUS
 10
18.685842
 20
61.180251
 11
18.805145
 21
61.922835
  0
POLYLINE
  8
4
  6
CONTINUOUS
 66
     1
  0
VERTEX
  8
4
  6
CONTINUOUS
 10
15.241915
 20
19.824320
  0
VERTEX
  8
4
  6
CONTINUOUS
 10
18.678637
 20
60.428179
  0
SEQEND
  8
4
  6
CONTINUOUS
  0
LINE
  8
4
  6
CONTINUOUS
 10
15.740134
 20
19.782150
 11
15.655795
 21
18.785713
  0
LINE
  8
4
  6
CONTINUOUS
 10
15.556151
 20
18.794147
 11
15.755439
 21
18.777279
  0
LINE
  8
4
  6
CONTINUOUS
 10
15.557838
 20
18.814076
 11
15.757126
 21
18.797208
  0
LINE
  8
4
  6
CONTINUOUS
 10
15.559525
 20
18.834004
 11
15.758812
 21
18.817137
  0
LINE
  8
4
  6
CONTINUOUS
 10
19.176856
 20
60.386010
 11
19.240110
 21
61.133337
  0
LINE
  8
4
  6
CONTINUOUS
 10
19.320582
 20
60.750185
 11
19.096384
 21
60.769162
  0
LINE
  8
4
  6
CONTINUOUS
 10
19.326907
 20
60.824918
 11
19.102709
 21
60.843894
  0
LINE
  8
4
  6
CONTINUOUS
 10
19.333233
 20
60.899651
 11
19.109034
 21
60.918627
  0
LINE
  8
4
  6
CONTINUOUS
 10
19.339558
 20
60.974384
 11
19.115360
 21
60.993360
  0
LINE
  8
4
  6
CONTINUOUS
 10
19.296159
 20
61.128593
 11
19.184060
 21
61.138081
  0
LINE
  8
4
  6
CONTINUOUS
 10
19.296159
 20
61.128593
 11
19.303364
 21
61.880665
  0
LINE
  8
4
  6
CONTINUOUS
 10
19.184060
 20
61.138081
 11
19.303364
 21
61.880665
  0
POLYLINE
  8
4
  6
CONTINUOUS
 66
     1
  0
VERTEX
  8
4
  6
CONTINUOUS
 10
15.740134
 20
19.782150
  0
VERTEX
  8
4
  6
CONTINUOUS
 10
19.176856
 20
60.386010
  0
SEQEND
  8
4
  6
CONTINUOUS
  0
LINE
  8
4
  6
CONTINUOUS
 10
16.238352
 20
19.739981
 11
16.154014
 21
18.743544
  0
LINE
  8
4
  6
CONTINUOUS
 10
16.054370
 20
18.751978
 11
16.253657
 21
18.735110
  0
LINE
  8
4
  6
CONTINUOUS
 10
16.056057
 20
18.771906
 11
16.255344
 21
18.755039
  0
LINE
  8
4
  6
CONTINUOUS
 10
16.057744
 20
18.791835
 11
16.257031
 21
18.774967
  0
LINE
  8
4
  6
CONTINUOUS
 10
19.675074
 20
60.343840
 11
19.738328
 21
61.091168
  0
LINE
  8
4
  6
CONTINUOUS
 10
19.818801
 20
60.708016
 11
19.594602
 21
60.726992
  0
LINE
  8
4
  6
CONTINUOUS
 10
19.825126
 20
60.782749
 11
19.600928
 21
60.801725
  0
LINE
  8
4
  6
CONTINUOUS
 10
19.831451
 20
60.857482
 11
19.607253
 21
60.876458
  0
LINE
  8
4
  6
CONTINUOUS
 10
19.837777
 20
60.932214
 11
19.613578
 21
60.951191
  0
LINE
  8
4
  6
CONTINUOUS
 10
19.794378
 20
61.086424
 11
19.682279
 21
61.095912
  0
LINE
  8
4
  6
CONTINUOUS
 10
19.794378
 20
61.086424
 11
19.801582
 21
61.838496
  0
LINE
  8
4
  6
CONTINUOUS
 10
19.682279
 20
61.095912
 11
19.801582
 21
61.838496
  0
POLYLINE
  8
4
  6
CONTINUOUS
 66
     1
  0
VERTEX
  8
4
  6
CONTINUOUS
 10
16.238352
 20
19.739981
  0
VERTEX
  8
4
  6
CONTINUOUS
 10
19.675074
 20
60.343840
  0
SEQEND
  8
4
  6
CONTINUOUS
  0
LINE
  8
4
  6
CONTINUOUS
 10
30.277510
 20
18.316912
 11
30.193171
 21
17.320475
  0
LINE
  8
4
  6
CONTINUOUS
 10
30.093528
 20
17.328909
 11
30.292815
 21
17.312041
  0
LINE
  8
4
  6
CONTINUOUS
 10
30.095214
 20
17.348837
 11
30.294502
 21
17.331970
  0
LINE
  8
4
  6
CONTINUOUS
 10
30.096901
 20
17.368766
 11
30.296189
 21
17.351898
  0
LINE
  8
4
  6
CONTINUOUS
 10
33.733964
 20
59.153892
 11
33.797218
 21
59.901220
  0
LINE
  8
4
  6
CONTINUOUS
 10
33.877690
 20
59.518068
 11
33.653492
 21
59.537044
  0
LINE
  8
4
  6
CONTINUOUS
 10
33.884015
 20
59.592800
 11
33.659817
 21
59.611777
  0
LINE
  8
4
  6
CONTINUOUS
 10
33.890341
 20
59.667533
 11
33.666142
 21
59.686509
  0
LINE
  8
4
  6
CONTINUOUS
 10
33.896666
 20
59.742266
 11
33.672468
 21
59.761242
  0
LINE
  8
4
  6
CONTINUOUS
 10
33.853267
 20
59.896476
 11
33.741168
 21
59.905964
  0
LINE
  8
4
  6
CONTINUOUS
 10
33.853267
 20
59.896476
 11
33.860472
 21
60.648548
  0
LINE
  8
4
  6
CONTINUOUS
 10
33.741168
 20
59.905964
 11
33.860472
 21
60.648548
  0
POLYLINE
  8
4
  6
CONTINUOUS
 66
     1
  0
VERTEX
  8
4
  6
CONTINUOUS
 10
30.277510
 20
18.316912
  0
VERTEX
  8
4
  6
CONTINUOUS
 10
33.733964
 20
59.153892
  0
SEQEND
  8
4
  6
CONTINUOUS
  0
LINE
  8
4
  6
CONTINUOUS
 10
30.676085
 20
18.283176
 11
30.591746
 21
17.286739
  0
LINE
  8
4
  6
CONTINUOUS
 10
30.492103
 20
17.295173
 11
30.691390
 21
17.278305
  0
LINE
  8
4
  6
CONTINUOUS
 10
30.493789
 20
17.315102
 11
30.693077
 21
17.298234
  0
LINE
  8
4
  6
CONTINUOUS
 10
30.495476
 20
17.335031
 11
30.694764
 21
17.318163
  0
LINE
  8
4
  6
CONTINUOUS
 10
34.132539
 20
59.120156
 11
34.195793
 21
59.867484
  0
LINE
  8
4
  6
CONTINUOUS
 10
34.276265
 20
59.484332
 11
34.052066
 21
59.503308
  0
LINE
  8
4
  6
CONTINUOUS
 10
34.282590
 20
59.559065
 11
34.058392
 21
59.578041
  0
LINE
  8
4
  6
CONTINUOUS
 10
34.288916
 20
59.633798
 11
34.064717
 21
59.652774
  0
LINE
  8
4
  6
CONTINUOUS
 10
34.295241
 20
59.708530
 11
34.071043
 21
59.727507
  0
LINE
  8
4
  6
CONTINUOUS
 10
34.251842
 20
59.862740
 11
34.139743
 21
59.872228
  0
LINE
  8
4
  6
CONTINUOUS
 10
34.251842
 20
59.862740
 11
34.259047
 21
60.614812
  0
LINE
  8
4
  6
CONTINUOUS
 10
34.139743
 20
59.872228
 11
34.259047
 21
60.614812
  0
POLYLINE
  8
4
  6
CONTINUOUS
 66
     1
  0
VERTEX
  8
4
  6
CONTINUOUS
 10
30.676085
 20
18.283176
  0
VERTEX
  8
4
  6
CONTINUOUS
 10
34.132539
 20
59.120156
  0
SEQEND
  8
4
  6
CONTINUOUS
  0
LINE
  8
4
  6
CONTINUOUS
 10
31.074660
 20
18.249441
 11
30.990321
 21
17.253004
  0
LINE
  8
4
  6
CONTINUOUS
 10
30.890677
 20
17.261438
 11
31.089965
 21
17.244570
  0
LINE
  8
4
  6
CONTINUOUS
 10
30.892364
 20
17.281366
 11
31.091652
 21
17.264499
  0
LINE
  8
4
  6
CONTINUOUS
 10
30.894051
 20
17.301295
 11
31.093338
 21
17.284427
  0
LINE
  8
4
  6
CONTINUOUS
 10
34.531113
 20
59.086421
 11
34.594368
 21
59.833749
  0
LINE
  8
4
  6
CONTINUOUS
 10
34.674840
 20
59.450597
 11
34.450641
 21
59.469573
  0
LINE
  8
4
  6
CONTINUOUS
 10
34.681165
 20
59.525329
 11
34.456967
 21
59.544306
  0
LINE
  8
4
  6
CONTINUOUS
 10
34.687491
 20
59.600062
 11
34.463292
 21
59.619038
  0
LINE
  8
4
  6
CONTINUOUS
 10
34.693816
 20
59.674795
 11
34.469618
 21
59.693771
  0
LINE
  8
4
  6
CONTINUOUS
 10
34.650417
 20
59.829005
 11
34.538318
 21
59.838493
  0
LINE
  8
4
  6
CONTINUOUS
 10
34.650417
 20
59.829005
 11
34.657622
 21
60.581077
  0
LINE
  8
4
  6
CONTINUOUS
 10
34.538318
 20
59.838493
 11
34.657622
 21
60.581077
  0
POLYLINE
  8
4
  6
CONTINUOUS
 66
     1
  0
VERTEX
  8
4
  6
CONTINUOUS
 10
31.074660
 20
18.249441
  0
VERTEX
  8
4
  6
CONTINUOUS
 10
34.531113
 20
59.086421
  0
SEQEND
  8
4
  6
CONTINUOUS
  0
LINE
  8
4
  6
CONTINUOUS
 10
31.473235
 20
18.215705
 11
31.388896
 21
17.219268
  0
LINE
  8
4
  6
CONTINUOUS
 10
31.289252
 20
17.227702
 11
31.488540
 21
17.210834
  0
LINE
  8
4
  6
CONTINUOUS
 10
31.290939
 20
17.247631
 11
31.490226
 21
17.230763
  0
LINE
  8
4
  6
CONTINUOUS
 10
31.292626
 20
17.267560
 11
31.491913
 21
17.250692
  0
LINE
  8
4
  6
CONTINUOUS
 10
34.929688
 20
59.052685
 11
34.992942
 21
59.800013
  0
LINE
  8
4
  6
CONTINUOUS
 10
35.073415
 20
59.416861
 11
34.849216
 21
59.435837
  0
LINE
  8
4
  6
CONTINUOUS
 10
35.079740
 20
59.491594
 11
34.855542
 21
59.510570
  0
LINE
  8
4
  6
CONTINUOUS
 10
35.086065
 20
59.566327
 11
34.861867
 21
59.585303
  0
LINE
  8
4
  6
CONTINUOUS
 10
35.092391
 20
59.641060
 11
34.868192
 21
59.660036
  0
LINE
  8
4
  6
CONTINUOUS
 10
35.048992
 20
59.795269
 11
34.936893
 21
59.804757
  0
LINE
  8
4
  6
CONTINUOUS
 10
35.048992
 20
59.795269
 11
35.056196
 21
60.547341
  0
LINE
  8
4
  6
CONTINUOUS
 10
34.936893
 20
59.804757
 11
35.056196
 21
60.547341
  0
POLYLINE
  8
4
  6
CONTINUOUS
 66
     1
  0
VERTEX
  8
4
  6
CONTINUOUS
 10
31.473235
 20
18.215705
  0
VERTEX
  8
4
  6
CONTINUOUS
 10
34.929688
 20
59.052685
  0
SEQEND
  8
4
  6
CONTINUOUS
  0
LINE
  8
4
  6
CONTINUOUS
 10
31.871810
 20
18.181970
 11
31.787471
 21
17.185533
  0
LINE
  8
4
  6
CONTINUOUS
 10
31.687827
 20
17.193967
 11
31.887115
 21
17.177099
  0
LINE
  8
4
  6
CONTINUOUS
 10
31.689514
 20
17.213895
 11
31.888801
 21
17.197028
  0
LINE
  8
4
  6
CONTINUOUS
 10
31.691201
 20
17.233824
 11
31.890488
 21
17.216956
  0
LINE
  8
4
  6
CONTINUOUS
 10
35.328263
 20
59.018950
 11
35.391517
 21
59.766278
  0
LINE
  8
4
  6
CONTINUOUS
 10
35.471989
 20
59.383126
 11
35.247791
 21
59.402102
  0
LINE
  8
4
  6
CONTINUOUS
 10
35.478315
 20
59.457858
 11
35.254116
 21
59.476835
  0
LINE
  8
4
  6
CONTINUOUS
 10
35.484640
 20
59.532591
 11
35.260442
 21
59.551567
  0
LINE
  8
4
  6
CONTINUOUS
 10
35.490966
 20
59.607324
 11
35.266767
 21
59.626300
  0
LINE
  8
4
  6
CONTINUOUS
 10
35.447567
 20
59.761534
 11
35.335468
 21
59.771022
  0
LINE
  8
4
  6
CONTINUOUS
 10
35.447567
 20
59.761534
 11
35.454771
 21
60.513606
  0
LINE
  8
4
  6
CONTINUOUS
 10
35.335468
 20
59.771022
 11
35.454771
 21
60.513606
  0
POLYLINE
  8
4
  6
CONTINUOUS
 66
     1
  0
VERTEX
  8
4
  6
CONTINUOUS
 10
31.871810
 20
18.181970
  0
VERTEX
  8
4
  6
CONTINUOUS
 10
35.328263
 20
59.018950
  0
SEQEND
  8
4
  6
CONTINUOUS
  0
LINE
  8
4
  6
CONTINUOUS
 10
43.574636
 20
16.673176
 11
43.490297
 21
15.676739
  0
LINE
  8
4
  6
CONTINUOUS
 10
43.390654
 20
15.685172
 11
43.589941
 21
15.668305
  0
LINE
  8
4
  6
CONTINUOUS
 10
43.392340
 20
15.705101
 11
43.591628
 21
15.688233
  0
LINE
  8
4
  6
CONTINUOUS
 10
43.394027
 20
15.725030
 11
43.593314
 21
15.708162
  0
LINE
  8
4
  6
CONTINUOUS
 10
47.074644
 20
58.024733
 11
47.137898
 21
58.772061
  0
LINE
  8
4
  6
CONTINUOUS
 10
47.193947
 20
58.767317
 11
47.081848
 21
58.776805
  0
LINE
  8
4
  6
CONTINUOUS
 10
47.193947
 20
58.767317
 11
47.201152
 21
59.519389
  0
LINE
  8
4
  6
CONTINUOUS
 10
47.081848
 20
58.776805
 11
47.201152
 21
59.519389
  0
LINE
  8
4
  6
CONTINUOUS
 10
47.237346
 20
58.613107
 11
47.013148
 21
58.632083
  0
LINE
  8
4
  6
CONTINUOUS
 10
47.229439
 20
58.519691
 11
47.005241
 21
58.538667
  0
LINE
  8
4
  6
CONTINUOUS
 10
47.221532
 20
58.426275
 11
46.997334
 21
58.445251
  0
POLYLINE
  8
4
  6
CONTINUOUS
 66
     1
  0
VERTEX
  8
4
  6
CONTINUOUS
 10
43.574636
 20
16.673176
  0
VERTEX
  8
4
  6
CONTINUOUS
 10
47.074644
 20
58.024733
  0
SEQEND
  8
4
  6
CONTINUOUS
  0
LINE
  8
4
  6
CONTINUOUS
 10
43.906782
 20
16.645063
 11
43.822443
 21
15.648626
  0
LINE
  8
4
  6
CONTINUOUS
 10
43.722799
 20
15.657059
 11
43.922087
 21
15.640192
  0
LINE
  8
4
  6
CONTINUOUS
 10
43.724486
 20
15.676988
 11
43.923773
 21
15.660120
  0
LINE
  8
4
  6
CONTINUOUS
 10
43.726173
 20
15.696917
 11
43.925460
 21
15.680049
  0
LINE
  8
4
  6
CONTINUOUS
 10
47.406789
 20
57.996620
 11
47.470043
 21
58.743948
  0
LINE
  8
4
  6
CONTINUOUS
 10
47.526093
 20
58.739204
 11
47.413994
 21
58.748692
  0
LINE
  8
4
  6
CONTINUOUS
 10
47.526093
 20
58.739204
 11
47.533297
 21
59.491276
  0
LINE
  8
4
  6
CONTINUOUS
 10
47.413994
 20
58.748692
 11
47.533297
 21
59.491276
  0
LINE
  8
4
  6
CONTINUOUS
 10
47.569492
 20
58.584994
 11
47.345293
 21
58.603970
  0
LINE
  8
4
  6
CONTINUOUS
 10
47.561585
 20
58.491578
 11
47.337387
 21
58.510554
  0
LINE
  8
4
  6
CONTINUOUS
 10
47.553678
 20
58.398162
 11
47.329480
 21
58.417138
  0
POLYLINE
  8
4
  6
CONTINUOUS
 66
     1
  0
VERTEX
  8
4
  6
CONTINUOUS
 10
43.906782
 20
16.645063
  0
VERTEX
  8
4
  6
CONTINUOUS
 10
47.406789
 20
57.996620
  0
SEQEND
  8
4
  6
CONTINUOUS
  0
LINE
  8
4
  6
CONTINUOUS
 10
44.238927
 20
16.616950
 11
44.154589
 21
15.620513
  0
LINE
  8
4
  6
CONTINUOUS
 10
44.054945
 20
15.628947
 11
44.254232
 21
15.612079
  0
LINE
  8
4
  6
CONTINUOUS
 10
44.056632
 20
15.648875
 11
44.255919
 21
15.632008
  0
LINE
  8
4
  6
CONTINUOUS
 10
44.058318
 20
15.668804
 11
44.257606
 21
15.651936
  0
LINE
  8
4
  6
CONTINUOUS
 10
47.738935
 20
57.968507
 11
47.802189
 21
58.715835
  0
LINE
  8
4
  6
CONTINUOUS
 10
47.858239
 20
58.711091
 11
47.746139
 21
58.720579
  0
LINE
  8
4
  6
CONTINUOUS
 10
47.858239
 20
58.711091
 11
47.865443
 21
59.463163
  0
LINE
  8
4
  6
CONTINUOUS
 10
47.746139
 20
58.720579
 11
47.865443
 21
59.463163
  0
LINE
  8
4
  6
CONTINUOUS
 10
47.901637
 20
58.556881
 11
47.677439
 21
58.575857
  0
LINE
  8
4
  6
CONTINUOUS
 10
47.893731
 20
58.463465
 11
47.669532
 21
58.482441
  0
LINE
  8
4
  6
CONTINUOUS
 10
47.885824
 20
58.370049
 11
47.661626
 21
58.389025
  0
POLYLINE
  8
4
  6
CONTINUOUS
 66
     1
  0
VERTEX
  8
4
  6
CONTINUOUS
 10
44.238927
 20
16.616950
  0
VERTEX
  8
4
  6
CONTINUOUS
 10
47.738935
 20
57.968507
  0
SEQEND
  8
4
  6
CONTINUOUS
  0
LINE
  8
4
  6
CONTINUOUS
 10
44.571073
 20
16.588837
 11
44.486734
 21
15.592400
  0
LINE
  8
4
  6
CONTINUOUS
 10
44.387091
 20
15.600834
 11
44.586378
 21
15.583966
  0
LINE
  8
4
  6
CONTINUOUS
 10
44.388777
 20
15.620762
 11
44.588065
 21
15.603895
  0
LINE
  8
4
  6
CONTINUOUS
 10
44.390464
 20
15.640691
 11
44.589752
 21
15.623823
  0
LINE
  8
4
  6
CONTINUOUS
 10
48.071081
 20
57.940394
 11
48.134335
 21
58.687722
  0
LINE
  8
4
  6
CONTINUOUS
 10
48.190384
 20
58.682978
 11
48.078285
 21
58.692466
  0
LINE
  8
4
  6
CONTINUOUS
 10
48.190384
 20
58.682978
 11
48.197589
 21
59.435050
  0
LINE
  8
4
  6
CONTINUOUS
 10
48.078285
 20
58.692466
 11
48.197589
 21
59.435050
  0
LINE
  8
4
  6
CONTINUOUS
 10
48.233783
 20
58.528768
 11
48.009585
 21
58.547745
  0
LINE
  8
4
  6
CONTINUOUS
 10
48.225876
 20
58.435352
 11
48.001678
 21
58.454329
  0
LINE
  8
4
  6
CONTINUOUS
 10
48.217970
 20
58.341936
 11
47.993771
 21
58.360913
  0
POLYLINE
  8
4
  6
CONTINUOUS
 66
     1
  0
VERTEX
  8
4
  6
CONTINUOUS
 10
44.571073
 20
16.588837
  0
VERTEX
  8
4
  6
CONTINUOUS
 10
48.071081
 20
57.940394
  0
SEQEND
  8
4
  6
CONTINUOUS
  0
LINE
  8
4
  6
CONTINUOUS
 10
44.903219
 20
16.560724
 11
44.818880
 21
15.564287
  0
LINE
  8
4
  6
CONTINUOUS
 10
44.719236
 20
15.572721
 11
44.918524
 21
15.555853
  0
LINE
  8
4
  6
CONTINUOUS
 10
44.720923
 20
15.592650
 11
44.920211
 21
15.575782
  0
LINE
  8
4
  6
CONTINUOUS
 10
44.722610
 20
15.612578
 11
44.921897
 21
15.595711
  0
LINE
  8
4
  6
CONTINUOUS
 10
48.403226
 20
57.912281
 11
48.466480
 21
58.659609
  0
LINE
  8
4
  6
CONTINUOUS
 10
48.522530
 20
58.654865
 11
48.410431
 21
58.664353
  0
LINE
  8
4
  6
CONTINUOUS
 10
48.522530
 20
58.654865
 11
48.529735
 21
59.406937
  0
LINE
  8
4
  6
CONTINUOUS
 10
48.410431
 20
58.664353
 11
48.529735
 21
59.406937
  0
LINE
  8
4
  6
CONTINUOUS
 10
48.565929
 20
58.500655
 11
48.341730
 21
58.519632
  0
LINE
  8
4
  6
CONTINUOUS
 10
48.558022
 20
58.407239
 11
48.333824
 21
58.426216
  0
LINE
  8
4
  6
CONTINUOUS
 10
48.550115
 20
58.313823
 11
48.325917
 21
58.332800
  0
POLYLINE
  8
4
  6
CONTINUOUS
 66
     1
  0
VERTEX
  8
4
  6
CONTINUOUS
 10
44.903219
 20
16.560724
  0
VERTEX
  8
4
  6
CONTINUOUS
 10
48.403226
 20
57.912281
  0
SEQEND
  8
4
  6
CONTINUOUS
  0
LINE
  8
4
  6
CONTINUOUS
 10
45.235365
 20
16.532611
 11
45.151026
 21
15.536174
  0
LINE
  8
4
  6
CONTINUOUS
 10
45.051382
 20
15.544608
 11
45.250670
 21
15.527740
  0
LINE
  8
4
  6
CONTINUOUS
 10
45.053069
 20
15.564537
 11
45.252356
 21
15.547669
  0
LINE
  8
4
  6
CONTINUOUS
 10
45.054756
 20
15.584465
 11
45.254043
 21
15.567598
  0
LINE
  8
4
  6
CONTINUOUS
 10
48.735372
 20
57.884168
 11
48.798626
 21
58.631496
  0
LINE
  8
4
  6
CONTINUOUS
 10
48.854676
 20
58.626752
 11
48.742577
 21
58.636240
  0
LINE
  8
4
  6
CONTINUOUS
 10
48.854676
 20
58.626752
 11
48.861880
 21
59.378824
  0
LINE
  8
4
  6
CONTINUOUS
 10
48.742577
 20
58.636240
 11
48.861880
 21
59.378824
  0
LINE
  8
4
  6
CONTINUOUS
 10
48.898075
 20
58.472542
 11
48.673876
 21
58.491519
  0
LINE
  8
4
  6
CONTINUOUS
 10
48.890168
 20
58.379127
 11
48.665969
 21
58.398103
  0
LINE
  8
4
  6
CONTINUOUS
 10
48.882261
 20
58.285711
 11
48.658063
 21
58.304687
  0
POLYLINE
  8
4
  6
CONTINUOUS
 66
     1
  0
VERTEX
  8
4
  6
CONTINUOUS
 10
45.235365
 20
16.532611
  0
VERTEX
  8
4
  6
CONTINUOUS
 10
48.735372
 20
57.884168
  0
SEQEND
  8
4
  6
CONTINUOUS
  0
LINE
  8
4
  6
CONTINUOUS
 10
60.215036
 20
15.264669
 11
60.130697
 21
14.268232
  0
LINE
  8
4
  6
CONTINUOUS
 10
60.031053
 20
14.276666
 11
60.230341
 21
14.259798
  0
LINE
  8
4
  6
CONTINUOUS
 10
60.032740
 20
14.296594
 11
60.232027
 21
14.279727
  0
LINE
  8
4
  6
CONTINUOUS
 10
60.034427
 20
14.316523
 11
60.233714
 21
14.299655
  0
LINE
  8
4
  6
CONTINUOUS
 10
63.715048
 20
56.616284
 11
63.778302
 21
57.363612
  0
LINE
  8
4
  6
CONTINUOUS
 10
63.858774
 20
56.980460
 11
63.634576
 21
56.999436
  0
LINE
  8
4
  6
CONTINUOUS
 10
63.865100
 20
57.055193
 11
63.640901
 21
57.074169
  0
LINE
  8
4
  6
CONTINUOUS
 10
63.871425
 20
57.129926
 11
63.647227
 21
57.148902
  0
LINE
  8
4
  6
CONTINUOUS
 10
63.877750
 20
57.204658
 11
63.653552
 21
57.223635
  0
LINE
  8
4
  6
CONTINUOUS
 10
63.834352
 20
57.358868
 11
63.722253
 21
57.368356
  0
LINE
  8
4
  6
CONTINUOUS
 10
63.834352
 20
57.358868
 11
63.841556
 21
58.110940
  0
LINE
  8
4
  6
CONTINUOUS
 10
63.722253
 20
57.368356
 11
63.841556
 21
58.110940
  0
POLYLINE
  8
4
  6
CONTINUOUS
 66
     1
  0
VERTEX
  8
4
  6
CONTINUOUS
 10
60.215036
 20
15.264669
  0
VERTEX
  8
4
  6
CONTINUOUS
 10
63.715048
 20
56.616284
  0
SEQEND
  8
4
  6
CONTINUOUS
  0
LINE
  8
4
  6
CONTINUOUS
 10
60.613610
 20
15.230933
 11
60.529272
 21
14.234496
  0
LINE
  8
4
  6
CONTINUOUS
 10
60.429628
 20
14.242930
 11
60.628915
 21
14.226062
  0
LINE
  8
4
  6
CONTINUOUS
 10
60.431315
 20
14.262859
 11
60.630602
 21
14.245991
  0
LINE
  8
4
  6
CONTINUOUS
 10
60.433002
 20
14.282788
 11
60.632289
 21
14.265920
  0
LINE
  8
4
  6
CONTINUOUS
 10
64.113623
 20
56.582549
 11
64.176877
 21
57.329877
  0
LINE
  8
4
  6
CONTINUOUS
 10
64.257349
 20
56.946725
 11
64.033151
 21
56.965701
  0
LINE
  8
4
  6
CONTINUOUS
 10
64.263675
 20
57.021457
 11
64.039476
 21
57.040434
  0
LINE
  8
4
  6
CONTINUOUS
 10
64.270000
 20
57.096190
 11
64.045802
 21
57.115166
  0
LINE
  8
4
  6
CONTINUOUS
 10
64.276325
 20
57.170923
 11
64.052127
 21
57.189899
  0
LINE
  8
4
  6
CONTINUOUS
 10
64.232927
 20
57.325133
 11
64.120827
 21
57.334621
  0
LINE
  8
4
  6
CONTINUOUS
 10
64.232927
 20
57.325133
 11
64.240131
 21
58.077204
  0
LINE
  8
4
  6
CONTINUOUS
 10
64.120827
 20
57.334621
 11
64.240131
 21
58.077204
  0
POLYLINE
  8
4
  6
CONTINUOUS
 66
     1
  0
VERTEX
  8
4
  6
CONTINUOUS
 10
60.613610
 20
15.230933
  0
VERTEX
  8
4
  6
CONTINUOUS
 10
64.113623
 20
56.582549
  0
SEQEND
  8
4
  6
CONTINUOUS
  0
LINE
  8
4
  6
CONTINUOUS
 10
61.012185
 20
15.197198
 11
60.927847
 21
14.200761
  0
LINE
  8
4
  6
CONTINUOUS
 10
60.828203
 20
14.209195
 11
61.027490
 21
14.192327
  0
LINE
  8
4
  6
CONTINUOUS
 10
60.829890
 20
14.229123
 11
61.029177
 21
14.212256
  0
LINE
  8
4
  6
CONTINUOUS
 10
60.831576
 20
14.249052
 11
61.030864
 21
14.232184
  0
LINE
  8
4
  6
CONTINUOUS
 10
64.512198
 20
56.548813
 11
64.575452
 21
57.296141
  0
LINE
  8
4
  6
CONTINUOUS
 10
64.655924
 20
56.912989
 11
64.431726
 21
56.931965
  0
LINE
  8
4
  6
CONTINUOUS
 10
64.662249
 20
56.987722
 11
64.438051
 21
57.006698
  0
LINE
  8
4
  6
CONTINUOUS
 10
64.668575
 20
57.062455
 11
64.444376
 21
57.081431
  0
LINE
  8
4
  6
CONTINUOUS
 10
64.674900
 20
57.137187
 11
64.450702
 21
57.156164
  0
LINE
  8
4
  6
CONTINUOUS
 10
64.631501
 20
57.291397
 11
64.519402
 21
57.300885
  0
LINE
  8
4
  6
CONTINUOUS
 10
64.631501
 20
57.291397
 11
64.638706
 21
58.043469
  0
LINE
  8
4
  6
CONTINUOUS
 10
64.519402
 20
57.300885
 11
64.638706
 21
58.043469
  0
POLYLINE
  8
4
  6
CONTINUOUS
 66
     1
  0
VERTEX
  8
4
  6
CONTINUOUS
 10
61.012185
 20
15.197198
  0
VERTEX
  8
4
  6
CONTINUOUS
 10
64.512198
 20
56.548813
  0
SEQEND
  8
4
  6
CONTINUOUS
  0
LINE
  8
4
  6
CONTINUOUS
 10
61.410760
 20
15.163462
 11
61.326421
 21
14.167025
  0
LINE
  8
4
  6
CONTINUOUS
 10
61.226778
 20
14.175459
 11
61.426065
 21
14.158591
  0
LINE
  8
4
  6
CONTINUOUS
 10
61.228464
 20
14.195388
 11
61.427752
 21
14.178520
  0
LINE
  8
4
  6
CONTINUOUS
 10
61.230151
 20
14.215317
 11
61.429439
 21
14.198449
  0
LINE
  8
4
  6
CONTINUOUS
 10
64.910773
 20
56.515078
 11
64.974027
 21
57.262406
  0
LINE
  8
4
  6
CONTINUOUS
 10
65.054499
 20
56.879254
 11
64.830300
 21
56.898230
  0
LINE
  8
4
  6
CONTINUOUS
 10
65.060824
 20
56.953986
 11
64.836626
 21
56.972963
  0
LINE
  8
4
  6
CONTINUOUS
 10
65.067150
 20
57.028719
 11
64.842951
 21
57.047695
  0
LINE
  8
4
  6
CONTINUOUS
 10
65.073475
 20
57.103452
 11
64.849277
 21
57.122428
  0
LINE
  8
4
  6
CONTINUOUS
 10
65.030076
 20
57.257662
 11
64.917977
 21
57.267150
  0
LINE
  8
4
  6
CONTINUOUS
 10
65.030076
 20
57.257662
 11
65.037281
 21
58.009734
  0
LINE
  8
4
  6
CONTINUOUS
 10
64.917977
 20
57.267150
 11
65.037281
 21
58.009734
  0
POLYLINE
  8
4
  6
CONTINUOUS
 66
     1
  0
VERTEX
  8
4
  6
CONTINUOUS
 10
61.410760
 20
15.163462
  0
VERTEX
  8
4
  6
CONTINUOUS
 10
64.910773
 20
56.515078
  0
SEQEND
  8
4
  6
CONTINUOUS
  0
LINE
  8
4
  6
CONTINUOUS
 10
61.809335
 20
15.129727
 11
61.724996
 21
14.133290
  0
LINE
  8
4
  6
CONTINUOUS
 10
61.625353
 20
14.141724
 11
61.824640
 21
14.124856
  0
LINE
  8
4
  6
CONTINUOUS
 10
61.627039
 20
14.161652
 11
61.826327
 21
14.144785
  0
LINE
  8
4
  6
CONTINUOUS
 10
61.628726
 20
14.181581
 11
61.828014
 21
14.164713
  0
LINE
  8
4
  6
CONTINUOUS
 10
65.309347
 20
56.481342
 11
65.372602
 21
57.228670
  0
LINE
  8
4
  6
CONTINUOUS
 10
65.453074
 20
56.845518
 11
65.228875
 21
56.864494
  0
LINE
  8
4
  6
CONTINUOUS
 10
65.459399
 20
56.920251
 11
65.235201
 21
56.939227
  0
LINE
  8
4
  6
CONTINUOUS
 10
65.465725
 20
56.994984
 11
65.241526
 21
57.013960
  0
LINE
  8
4
  6
CONTINUOUS
 10
65.472050
 20
57.069716
 11
65.247852
 21
57.088693
  0
LINE
  8
4
  6
CONTINUOUS
 10
65.428651
 20
57.223926
 11
65.316552
 21
57.233414
  0
LINE
  8
4
  6
CONTINUOUS
 10
65.428651
 20
57.223926
 11
65.435856
 21
57.975998
  0
LINE
  8
4
  6
CONTINUOUS
 10
65.316552
 20
57.233414
 11
65.435856
 21
57.975998
  0
POLYLINE
  8
4
  6
CONTINUOUS
 66
     1
  0
VERTEX
  8
4
  6
CONTINUOUS
 10
61.809335
 20
15.129727
  0
VERTEX
  8
4
  6
CONTINUOUS
 10
65.309347
 20
56.481342
  0
SEQEND
  8
4
  6
CONTINUOUS
  0
LINE
  8
4
  6
CONTINUOUS
 10
76.656169
 20
13.873087
 11
76.571830
 21
12.876650
  0
LINE
  8
4
  6
CONTINUOUS
 10
76.472186
 20
12.885083
 11
76.671474
 21
12.868216
  0
LINE
  8
4
  6
CONTINUOUS
 10
76.473873
 20
12.905012
 11
76.673160
 21
12.888144
  0
LINE
  8
4
  6
CONTINUOUS
 10
76.475560
 20
12.924941
 11
76.674847
 21
12.908073
  0
LINE
  8
4
  6
CONTINUOUS
 10
80.156181
 20
55.224702
 11
80.219435
 21
55.972030
  0
LINE
  8
4
  6
CONTINUOUS
 10
80.299907
 20
55.588878
 11
80.075709
 21
55.607854
  0
LINE
  8
4
  6
CONTINUOUS
 10
80.306233
 20
55.663611
 11
80.082034
 21
55.682587
  0
LINE
  8
4
  6
CONTINUOUS
 10
80.312558
 20
55.738343
 11
80.088360
 21
55.757320
  0
LINE
  8
4
  6
CONTINUOUS
 10
80.318883
 20
55.813076
 11
80.094685
 21
55.832052
  0
LINE
  8
4
  6
CONTINUOUS
 10
80.275485
 20
55.967286
 11
80.163386
 21
55.976774
  0
LINE
  8
4
  6
CONTINUOUS
 10
80.275485
 20
55.967286
 11
80.282689
 21
56.719358
  0
LINE
  8
4
  6
CONTINUOUS
 10
80.163386
 20
55.976774
 11
80.282689
 21
56.719358
  0
POLYLINE
  8
4
  6
CONTINUOUS
 66
     1
  0
VERTEX
  8
4
  6
CONTINUOUS
 10
76.656169
 20
13.873087
  0
VERTEX
  8
4
  6
CONTINUOUS
 10
80.156181
 20
55.224702
  0
SEQEND
  8
4
  6
CONTINUOUS
  0
LINE
  8
4
  6
CONTINUOUS
 10
77.054743
 20
13.839351
 11
76.970405
 21
12.842914
  0
LINE
  8
4
  6
CONTINUOUS
 10
76.870761
 20
12.851348
 11
77.070048
 21
12.834480
  0
LINE
  8
4
  6
CONTINUOUS
 10
76.872448
 20
12.871277
 11
77.071735
 21
12.854409
  0
LINE
  8
4
  6
CONTINUOUS
 10
76.874135
 20
12.891205
 11
77.073422
 21
12.874338
  0
LINE
  8
4
  6
CONTINUOUS
 10
80.554756
 20
55.190967
 11
80.618010
 21
55.938294
  0
LINE
  8
4
  6
CONTINUOUS
 10
80.698482
 20
55.555142
 11
80.474284
 21
55.574119
  0
LINE
  8
4
  6
CONTINUOUS
 10
80.704808
 20
55.629875
 11
80.480609
 21
55.648851
  0
LINE
  8
4
  6
CONTINUOUS
 10
80.711133
 20
55.704608
 11
80.486935
 21
55.723584
  0
LINE
  8
4
  6
CONTINUOUS
 10
80.717458
 20
55.779341
 11
80.493260
 21
55.798317
  0
LINE
  8
4
  6
CONTINUOUS
 10
80.674060
 20
55.933550
 11
80.561960
 21
55.943038
  0
LINE
  8
4
  6
CONTINUOUS
 10
80.674060
 20
55.933550
 11
80.681264
 21
56.685622
  0
LINE
  8
4
  6
CONTINUOUS
 10
80.561960
 20
55.943038
 11
80.681264
 21
56.685622
  0
POLYLINE
  8
4
  6
CONTINUOUS
 66
     1
  0
VERTEX
  8
4
  6
CONTINUOUS
 10
77.054743
 20
13.839351
  0
VERTEX
  8
4
  6
CONTINUOUS
 10
80.554756
 20
55.190967
  0
SEQEND
  8
4
  6
CONTINUOUS
  0
LINE
  8
4
  6
CONTINUOUS
 10
77.453318
 20
13.805616
 11
77.368980
 21
12.809179
  0
LINE
  8
4
  6
CONTINUOUS
 10
77.269336
 20
12.817612
 11
77.468623
 21
12.800745
  0
LINE
  8
4
  6
CONTINUOUS
 10
77.271023
 20
12.837541
 11
77.470310
 21
12.820673
  0
LINE
  8
4
  6
CONTINUOUS
 10
77.272709
 20
12.857470
 11
77.471997
 21
12.840602
  0
LINE
  8
4
  6
CONTINUOUS
 10
80.953331
 20
55.157231
 11
81.016585
 21
55.904559
  0
LINE
  8
4
  6
CONTINUOUS
 10
81.097057
 20
55.521407
 11
80.872859
 21
55.540383
  0
LINE
  8
4
  6
CONTINUOUS
 10
81.103382
 20
55.596140
 11
80.879184
 21
55.615116
  0
LINE
  8
4
  6
CONTINUOUS
 10
81.109708
 20
55.670872
 11
80.885509
 21
55.689849
  0
LINE
  8
4
  6
CONTINUOUS
 10
81.116033
 20
55.745605
 11
80.891835
 21
55.764581
  0
LINE
  8
4
  6
CONTINUOUS
 10
81.072634
 20
55.899815
 11
80.960535
 21
55.909303
  0
LINE
  8
4
  6
CONTINUOUS
 10
81.072634
 20
55.899815
 11
81.079839
 21
56.651887
  0
LINE
  8
4
  6
CONTINUOUS
 10
80.960535
 20
55.909303
 11
81.079839
 21
56.651887
  0
POLYLINE
  8
4
  6
CONTINUOUS
 66
     1
  0
VERTEX
  8
4
  6
CONTINUOUS
 10
77.453318
 20
13.805616
  0
VERTEX
  8
4
  6
CONTINUOUS
 10
80.953331
 20
55.157231
  0
SEQEND
  8
4
  6
CONTINUOUS
  0
LINE
  8
4
  6
CONTINUOUS
 10
77.851893
 20
13.771880
 11
77.767554
 21
12.775443
  0
LINE
  8
4
  6
CONTINUOUS
 10
77.667911
 20
12.783877
 11
77.867198
 21
12.767009
  0
LINE
  8
4
  6
CONTINUOUS
 10
77.669597
 20
12.803806
 11
77.868885
 21
12.786938
  0
LINE
  8
4
  6
CONTINUOUS
 10
77.671284
 20
12.823734
 11
77.870572
 21
12.806867
  0
LINE
  8
4
  6
CONTINUOUS
 10
81.351906
 20
55.123496
 11
81.415160
 21
55.870823
  0
LINE
  8
4
  6
CONTINUOUS
 10
81.495632
 20
55.487671
 11
81.271434
 21
55.506648
  0
LINE
  8
4
  6
CONTINUOUS
 10
81.501957
 20
55.562404
 11
81.277759
 21
55.581380
  0
LINE
  8
4
  6
CONTINUOUS
 10
81.508283
 20
55.637137
 11
81.284084
 21
55.656113
  0
LINE
  8
4
  6
CONTINUOUS
 10
81.514608
 20
55.711870
 11
81.290410
 21
55.730846
  0
LINE
  8
4
  6
CONTINUOUS
 10
81.471209
 20
55.866079
 11
81.359110
 21
55.875568
  0
LINE
  8
4
  6
CONTINUOUS
 10
81.471209
 20
55.866079
 11
81.478414
 21
56.618151
  0
LINE
  8
4
  6
CONTINUOUS
 10
81.359110
 20
55.875568
 11
81.478414
 21
56.618151
  0
POLYLINE
  8
4
  6
CONTINUOUS
 66
     1
  0
VERTEX
  8
4
  6
CONTINUOUS
 10
77.851893
 20
13.771880
  0
VERTEX
  8
4
  6
CONTINUOUS
 10
81.351906
 20
55.123496
  0
SEQEND
  8
4
  6
CONTINUOUS
  0
LINE
  8
4
  6
CONTINUOUS
 10
78.250468
 20
13.738145
 11
78.166129
 21
12.741708
  0
LINE
  8
4
  6
CONTINUOUS
 10
78.066486
 20
12.750142
 11
78.265773
 21
12.733274
  0
LINE
  8
4
  6
CONTINUOUS
 10
78.068172
 20
12.770070
 11
78.267460
 21
12.753203
  0
LINE
  8
4
  6
CONTINUOUS
 10
78.069859
 20
12.789999
 11
78.269147
 21
12.773131
  0
LINE
  8
4
  6
CONTINUOUS
 10
81.750481
 20
55.089760
 11
81.813735
 21
55.837088
  0
LINE
  8
4
  6
CONTINUOUS
 10
81.894207
 20
55.453936
 11
81.670008
 21
55.472912
  0
LINE
  8
4
  6
CONTINUOUS
 10
81.900532
 20
55.528669
 11
81.676334
 21
55.547645
  0
LINE
  8
4
  6
CONTINUOUS
 10
81.906858
 20
55.603402
 11
81.682659
 21
55.622378
  0
LINE
  8
4
  6
CONTINUOUS
 10
81.913183
 20
55.678134
 11
81.688985
 21
55.697111
  0
LINE
  8
4
  6
CONTINUOUS
 10
81.869784
 20
55.832344
 11
81.757685
 21
55.841832
  0
LINE
  8
4
  6
CONTINUOUS
 10
81.869784
 20
55.832344
 11
81.876989
 21
56.584416
  0
LINE
  8
4
  6
CONTINUOUS
 10
81.757685
 20
55.841832
 11
81.876989
 21
56.584416
  0
POLYLINE
  8
4
  6
CONTINUOUS
 66
     1
  0
VERTEX
  8
4
  6
CONTINUOUS
 10
78.250468
 20
13.738145
  0
VERTEX
  8
4
  6
CONTINUOUS
 10
81.750481
 20
55.089760
  0
SEQEND
  8
4
  6
CONTINUOUS
  0
LINE
  8
4
  6
CONTINUOUS
 10
94.043992
 20
12.401376
 11
93.959653
 21
11.404939
  0
LINE
  8
4
  6
CONTINUOUS
 10
93.860009
 20
11.413373
 11
94.059297
 21
11.396505
  0
LINE
  8
4
  6
CONTINUOUS
 10
93.861696
 20
11.433302
 11
94.060983
 21
11.416434
  0
LINE
  8
4
  6
CONTINUOUS
 10
93.863383
 20
11.453231
 11
94.062670
 21
11.436363
  0
LINE
  8
4
  6
CONTINUOUS
 10
97.544004
 20
53.752992
 11
97.607258
 21
54.500320
  0
LINE
  8
4
  6
CONTINUOUS
 10
97.687730
 20
54.117168
 11
97.463532
 21
54.136144
  0
LINE
  8
4
  6
CONTINUOUS
 10
97.694056
 20
54.191900
 11
97.469857
 21
54.210877
  0
LINE
  8
4
  6
CONTINUOUS
 10
97.700381
 20
54.266633
 11
97.476183
 21
54.285609
  0
LINE
  8
4
  6
CONTINUOUS
 10
97.706707
 20
54.341366
 11
97.482508
 21
54.360342
  0
LINE
  8
4
  6
CONTINUOUS
 10
97.663308
 20
54.495576
 11
97.551209
 21
54.505064
  0
LINE
  8
4
  6
CONTINUOUS
 10
97.663308
 20
54.495576
 11
97.670512
 21
55.247647
  0
LINE
  8
4
  6
CONTINUOUS
 10
97.551209
 20
54.505064
 11
97.670512
 21
55.247647
  0
POLYLINE
  8
4
  6
CONTINUOUS
 66
     1
  0
VERTEX
  8
4
  6
CONTINUOUS
 10
94.043992
 20
12.401376
  0
VERTEX
  8
4
  6
CONTINUOUS
 10
97.544004
 20
53.752992
  0
SEQEND
  8
4
  6
CONTINUOUS
  0
LINE
  8
4
  6
CONTINUOUS
 10
94.475781
 20
12.364830
 11
94.391442
 21
11.368393
  0
LINE
  8
4
  6
CONTINUOUS
 10
94.291799
 20
11.376826
 11
94.491086
 21
11.359959
  0
LINE
  8
4
  6
CONTINUOUS
 10
94.293485
 20
11.396755
 11
94.492773
 21
11.379887
  0
LINE
  8
4
  6
CONTINUOUS
 10
94.295172
 20
11.416684
 11
94.494460
 21
11.399816
  0
LINE
  8
4
  6
CONTINUOUS
 10
97.975794
 20
53.716445
 11
98.039048
 21
54.463773
  0
LINE
  8
4
  6
CONTINUOUS
 10
98.119520
 20
54.080621
 11
97.895321
 21
54.099597
  0
LINE
  8
4
  6
CONTINUOUS
 10
98.125845
 20
54.155354
 11
97.901647
 21
54.174330
  0
LINE
  8
4
  6
CONTINUOUS
 10
98.132171
 20
54.230086
 11
97.907972
 21
54.249063
  0
LINE
  8
4
  6
CONTINUOUS
 10
98.138496
 20
54.304819
 11
97.914298
 21
54.323795
  0
LINE
  8
4
  6
CONTINUOUS
 10
98.095097
 20
54.459029
 11
97.982998
 21
54.468517
  0
LINE
  8
4
  6
CONTINUOUS
 10
98.095097
 20
54.459029
 11
98.102302
 21
55.211101
  0
LINE
  8
4
  6
CONTINUOUS
 10
97.982998
 20
54.468517
 11
98.102302
 21
55.211101
  0
POLYLINE
  8
4
  6
CONTINUOUS
 66
     1
  0
VERTEX
  8
4
  6
CONTINUOUS
 10
94.475781
 20
12.364830
  0
VERTEX
  8
4
  6
CONTINUOUS
 10
97.975794
 20
53.716445
  0
SEQEND
  8
4
  6
CONTINUOUS
  0
LINE
  8
4
  6
CONTINUOUS
 10
94.907570
 20
12.328283
 11
94.823232
 21
11.331846
  0
LINE
  8
4
  6
CONTINUOUS
 10
94.723588
 20
11.340280
 11
94.922875
 21
11.323412
  0
LINE
  8
4
  6
CONTINUOUS
 10
94.725275
 20
11.360208
 11
94.924562
 21
11.343341
  0
LINE
  8
4
  6
CONTINUOUS
 10
94.726962
 20
11.380137
 11
94.926249
 21
11.363269
  0
LINE
  8
4
  6
CONTINUOUS
 10
98.407583
 20
53.679898
 11
98.470837
 21
54.427226
  0
LINE
  8
4
  6
CONTINUOUS
 10
98.551309
 20
54.044074
 11
98.327111
 21
54.063050
  0
LINE
  8
4
  6
CONTINUOUS
 10
98.557635
 20
54.118807
 11
98.333436
 21
54.137783
  0
LINE
  8
4
  6
CONTINUOUS
 10
98.563960
 20
54.193540
 11
98.339762
 21
54.212516
  0
LINE
  8
4
  6
CONTINUOUS
 10
98.570285
 20
54.268272
 11
98.346087
 21
54.287249
  0
LINE
  8
4
  6
CONTINUOUS
 10
98.526887
 20
54.422482
 11
98.414787
 21
54.431970
  0
LINE
  8
4
  6
CONTINUOUS
 10
98.526887
 20
54.422482
 11
98.534091
 21
55.174554
  0
LINE
  8
4
  6
CONTINUOUS
 10
98.414787
 20
54.431970
 11
98.534091
 21
55.174554
  0
POLYLINE
  8
4
  6
CONTINUOUS
 66
     1
  0
VERTEX
  8
4
  6
CONTINUOUS
 10
94.907570
 20
12.328283
  0
VERTEX
  8
4
  6
CONTINUOUS
 10
98.407583
 20
53.679898
  0
SEQEND
  8
4
  6
CONTINUOUS
  0
LINE
  8
4
  6
CONTINUOUS
 10
7.650682
 20
20.257397
 11
7.648727
 21
19.257399
  0
LINE
  8
4
  6
CONTINUOUS
 10
7.548727
 20
19.257595
 11
7.748727
 21
19.257204
  0
LINE
  8
4
  6
CONTINUOUS
 10
7.548767
 20
19.277595
 11
7.748766
 21
19.277204
  0
LINE
  8
4
  6
CONTINUOUS
 10
7.548806
 20
19.297595
 11
7.748805
 21
19.297204
  0
LINE
  8
4
  6
CONTINUOUS
 10
7.730975
 20
61.332546
 11
7.732441
 21
62.082544
  0
LINE
  8
4
  6
CONTINUOUS
 10
7.788691
 20
62.082434
 11
7.676191
 21
62.082654
  0
LINE
  8
4
  6
CONTINUOUS
 10
7.788691
 20
62.082434
 11
7.733907
 21
62.832543
  0
LINE
  8
4
  6
CONTINUOUS
 10
7.676191
 20
62.082654
 11
7.733907
 21
62.832543
  0
LINE
  8
4
  6
CONTINUOUS
 10
7.844648
 20
61.932325
 11
7.619648
 21
61.932764
  0
LINE
  8
4
  6
CONTINUOUS
 10
7.844465
 20
61.838575
 11
7.619465
 21
61.839015
  0
LINE
  8
4
  6
CONTINUOUS
 10
7.844281
 20
61.744825
 11
7.619282
 21
61.745265
  0
POLYLINE
  8
4
  6
CONTINUOUS
 66
     1
  0
VERTEX
  8
4
  6
CONTINUOUS
 10
7.650682
 20
20.257397
  0
VERTEX
  8
4
  6
CONTINUOUS
 10
7.730975
 20
61.332546
  0
SEQEND
  8
4
  6
CONTINUOUS
  0
LINE
  8
4
  6
CONTINUOUS
 10
8.317347
 20
20.256094
 11
8.315393
 21
19.256096
  0
LINE
  8
4
  6
CONTINUOUS
 10
8.215393
 20
19.256292
 11
8.415392
 21
19.255901
  0
LINE
  8
4
  6
CONTINUOUS
 10
8.215432
 20
19.276292
 11
8.415432
 21
19.275901
  0
LINE
  8
4
  6
CONTINUOUS
 10
8.215471
 20
19.296291
 11
8.415471
 21
19.295901
  0
LINE
  8
4
  6
CONTINUOUS
 10
8.397641
 20
61.331242
 11
8.399107
 21
62.081241
  0
LINE
  8
4
  6
CONTINUOUS
 10
8.455357
 20
62.081131
 11
8.342857
 21
62.081351
  0
LINE
  8
4
  6
CONTINUOUS
 10
8.455357
 20
62.081131
 11
8.400573
 21
62.831240
  0
LINE
  8
4
  6
CONTINUOUS
 10
8.342857
 20
62.081351
 11
8.400573
 21
62.831240
  0
LINE
  8
4
  6
CONTINUOUS
 10
8.511313
 20
61.931021
 11
8.286314
 21
61.931461
  0
LINE
  8
4
  6
CONTINUOUS
 10
8.511130
 20
61.837272
 11
8.286130
 21
61.837711
  0
LINE
  8
4
  6
CONTINUOUS
 10
8.510947
 20
61.743522
 11
8.285947
 21
61.743962
  0
POLYLINE
  8
4
  6
CONTINUOUS
 66
     1
  0
VERTEX
  8
4
  6
CONTINUOUS
 10
8.317347
 20
20.256094
  0
VERTEX
  8
4
  6
CONTINUOUS
 10
8.397641
 20
61.331242
  0
SEQEND
  8
4
  6
CONTINUOUS
  0
LINE
  8
1
  6
CONTINUOUS
 10
62.070980
 20
75.002420
 11
81.494708
 21
75.002420
  0
LINE
  8
1
  6
CONTINUOUS
 10
62.070980
 20
75.002420
 11
62.070980
 21
74.002420
  0
LINE
  8
1
  6
CONTINUOUS
 10
62.070980
 20
74.002420
 11
78.360260
 21
74.002420
  0
LINE
  8
1
  6
CONTINUOUS
 10
62.070980
 20
74.002420
 11
62.070980
 21
73.002420
  0
LINE
  8
1
  6
CONTINUOUS
 10
64.560096
 20
74.002420
 11
64.560096
 21
73.002420
  0
LINE
  8
1
  6
CONTINUOUS
 10
66.697809
 20
74.002420
 11
66.697809
 21
73.002420
  0
LINE
  8
1
  6
CONTINUOUS
 10
68.073176
 20
74.002420
 11
68.073176
 21
73.002420
  0
LINE
  8
1
  6
CONTINUOUS
 10
72.237689
 20
73.502420
 11
72.237689
 21
73.002420
  0
LINE
  8
1
  6
CONTINUOUS
 10
75.225812
 20
74.002420
 11
75.225812
 21
73.002420
  0
LINE
  8
1
  6
CONTINUOUS
 10
76.270627
 20
73.502420
 11
76.270628
 21
73.002420
  0
LINE
  8
1
  6
CONTINUOUS
 10
77.315444
 20
73.502420
 11
77.315444
 21
73.002420
  0
LINE
  8
1
  6
CONTINUOUS
 10
78.360260
 20
74.002420
 11
78.360260
 21
73.002420
  0
LINE
  8
1
  6
CONTINUOUS
 10
62.070980
 20
73.002420
 11
81.494708
 21
73.002420
  0
LINE
  8
1
  6
CONTINUOUS
 10
68.073176
 20
73.502420
 11
72.237689
 21
73.502420
  0
LINE
  8
1
  6
CONTINUOUS
 10
72.237689
 20
73.502420
 11
75.225812
 21
73.502420
  0
LINE
  8
1
  6
CONTINUOUS
 10
75.225812
 20
73.502420
 11
76.270628
 21
73.502420
  0
LINE
  8
1
  6
CONTINUOUS
 10
76.270628
 20
73.502420
 11
77.315444
 21
73.502420
  0
LINE
  8
1
  6
CONTINUOUS
 10
77.315444
 20
73.502420
 11
81.494708
 21
73.502420
  0
LINE
  8
1
  6
CONTINUOUS
 10
81.494708
 20
73.002420
 11
81.494708
 21
75.002420
  0
LINE
  8
1
  6
CONTINUOUS
 10
79.927484
 20
73.502420
 11
79.927484
 21
73.002420
  0
LINE
  8
1
  6
CONTINUOUS
 10
78.360260
 20
74.002420
 11
81.494708
 21
74.002420
  0
LINE
  8
1
  6
CONTINUOUS
 10
62.070980
 20
73.002420
 11
62.070980
 21
72.502419
  0
LINE
  8
1
  6
CONTINUOUS
 10
62.070980
 20
72.502419
 11
81.494708
 21
72.502419
  0
LINE
  8
1
  6
CONTINUOUS
 10
64.560096
 20
73.002420
 11
64.560096
 21
72.502419
  0
LINE
  8
1
  6
CONTINUOUS
 10
66.697809
 20
73.002420
 11
66.697809
 21
72.502419
  0
LINE
  8
1
  6
CONTINUOUS
 10
68.073176
 20
73.002420
 11
68.073176
 21
72.502419
  0
LINE
  8
1
  6
CONTINUOUS
 10
72.237689
 20
73.002420
 11
72.237689
 21
72.502419
  0
LINE
  8
1
  6
CONTINUOUS
 10
75.225812
 20
73.002420
 11
75.225812
 21
72.502419
  0
LINE
  8
1
  6
CONTINUOUS
 10
76.270628
 20
73.002420
 11
76.270628
 21
72.502419
  0
LINE
  8
1
  6
CONTINUOUS
 10
77.315444
 20
73.002420
 11
77.315444
 21
72.502419
  0
LINE
  8
1
  6
CONTINUOUS
 10
78.360260
 20
73.002420
 11
78.360260
 21
72.502419
  0
LINE
  8
1
  6
CONTINUOUS
 10
78.360260
 20
72.502419
 11
78.360260
 21
73.002420
  0
LINE
  8
1
  6
CONTINUOUS
 10
78.360260
 20
73.002420
 11
78.360260
 21
72.502419
  0
LINE
  8
1
  6
CONTINUOUS
 10
79.927484
 20
73.002420
 11
79.927484
 21
72.502419
  0
LINE
  8
1
  6
CONTINUOUS
 10
81.494708
 20
73.002420
 11
81.494708
 21
72.502419
  0
LINE
  8
1
  6
CONTINUOUS
 10
62.070980
 20
72.502419
 11
62.070980
 21
72.002419
  0
LINE
  8
1
  6
CONTINUOUS
 10
62.070980
 20
72.002419
 11
81.494708
 21
72.002419
  0
LINE
  8
1
  6
CONTINUOUS
 10
64.560096
 20
72.502419
 11
64.560096
 21
72.002419
  0
LINE
  8
1
  6
CONTINUOUS
 10
66.697809
 20
72.502419
 11
66.697809
 21
72.002419
  0
LINE
  8
1
  6
CONTINUOUS
 10
68.073176
 20
72.502419
 11
68.073176
 21
72.002419
  0
LINE
  8
1
  6
CONTINUOUS
 10
72.237689
 20
72.502419
 11
72.237689
 21
72.002419
  0
LINE
  8
1
  6
CONTINUOUS
 10
75.225812
 20
72.502419
 11
75.225812
 21
72.002419
  0
LINE
  8
1
  6
CONTINUOUS
 10
76.270628
 20
72.502419
 11
76.270628
 21
72.002419
  0
LINE
  8
1
  6
CONTINUOUS
 10
77.315444
 20
72.502419
 11
77.315444
 21
72.002419
  0
LINE
  8
1
  6
CONTINUOUS
 10
78.360260
 20
72.502419
 11
78.360260
 21
72.002419
  0
LINE
  8
1
  6
CONTINUOUS
 10
78.360260
 20
72.002419
 11
78.360260
 21
72.502419
  0
LINE
  8
1
  6
CONTINUOUS
 10
78.360260
 20
72.502419
 11
78.360260
 21
72.002419
  0
LINE
  8
1
  6
CONTINUOUS
 10
79.927484
 20
72.502419
 11
79.927484
 21
72.002419
  0
LINE
  8
1
  6
CONTINUOUS
 10
81.494708
 20
72.502419
 11
81.494708
 21
72.002419
  0
LINE
  8
1
  6
CONTINUOUS
 10
62.070980
 20
72.002418
 11
62.070980
 21
71.502418
  0
LINE
  8
1
  6
CONTINUOUS
 10
62.070980
 20
71.502418
 11
81.494708
 21
71.502418
  0
LINE
  8
1
  6
CONTINUOUS
 10
64.560096
 20
72.002418
 11
64.560096
 21
71.502418
  0
LINE
  8
1
  6
CONTINUOUS
 10
66.697809
 20
72.002418
 11
66.697809
 21
71.502418
  0
LINE
  8
1
  6
CONTINUOUS
 10
68.073176
 20
72.002418
 11
68.073176
 21
71.502418
  0
LINE
  8
1
  6
CONTINUOUS
 10
72.237689
 20
72.002418
 11
72.237689
 21
71.502418
  0
LINE
  8
1
  6
CONTINUOUS
 10
75.225812
 20
72.002418
 11
75.225812
 21
71.502418
  0
LINE
  8
1
  6
CONTINUOUS
 10
76.270628
 20
72.002418
 11
76.270628
 21
71.502418
  0
LINE
  8
1
  6
CONTINUOUS
 10
77.315444
 20
72.002418
 11
77.315444
 21
71.502418
  0
LINE
  8
1
  6
CONTINUOUS
 10
78.360260
 20
72.002418
 11
78.360260
 21
71.502418
  0
LINE
  8
1
  6
CONTINUOUS
 10
78.360260
 20
71.502418
 11
78.360260
 21
72.002418
  0
LINE
  8
1
  6
CONTINUOUS
 10
78.360260
 20
72.002419
 11
78.360260
 21
71.502418
  0
LINE
  8
1
  6
CONTINUOUS
 10
79.927484
 20
72.002418
 11
79.927484
 21
71.502418
  0
LINE
  8
1
  6
CONTINUOUS
 10
81.494708
 20
72.002418
 11
81.494708
 21
71.502418
  0
LINE
  8
1
  6
CONTINUOUS
 10
62.070980
 20
71.502417
 11
62.070980
 21
71.002417
  0
LINE
  8
1
  6
CONTINUOUS
 10
62.070980
 20
71.002417
 11
81.494708
 21
71.002417
  0
LINE
  8
1
  6
CONTINUOUS
 10
64.560096
 20
71.502417
 11
64.560096
 21
71.002417
  0
LINE
  8
1
  6
CONTINUOUS
 10
66.697809
 20
71.502417
 11
66.697809
 21
71.002417
  0
LINE
  8
1
  6
CONTINUOUS
 10
68.073176
 20
71.502417
 11
68.073176
 21
71.002417
  0
LINE
  8
1
  6
CONTINUOUS
 10
72.237689
 20
71.502417
 11
72.237689
 21
71.002417
  0
LINE
  8
1
  6
CONTINUOUS
 10
75.225812
 20
71.502417
 11
75.225812
 21
71.002417
  0
LINE
  8
1
  6
CONTINUOUS
 10
76.270628
 20
71.502417
 11
76.270628
 21
71.002417
  0
LINE
  8
1
  6
CONTINUOUS
 10
77.315444
 20
71.502417
 11
77.315444
 21
71.002417
  0
LINE
  8
1
  6
CONTINUOUS
 10
78.360260
 20
71.502417
 11
78.360260
 21
71.002417
  0
LINE
  8
1
  6
CONTINUOUS
 10
78.360260
 20
71.002417
 11
78.360260
 21
71.502417
  0
LINE
  8
1
  6
CONTINUOUS
 10
78.360260
 20
71.502418
 11
78.360260
 21
71.002417
  0
LINE
  8
1
  6
CONTINUOUS
 10
79.927484
 20
71.502417
 11
79.927484
 21
71.002417
  0
LINE
  8
1
  6
CONTINUOUS
 10
81.494708
 20
71.502417
 11
81.494708
 21
71.002417
  0
LINE
  8
1
  6
CONTINUOUS
 10
62.070980
 20
71.002417
 11
62.070980
 21
70.502417
  0
LINE
  8
1
  6
CONTINUOUS
 10
62.070980
 20
70.502417
 11
81.494708
 21
70.502417
  0
LINE
  8
1
  6
CONTINUOUS
 10
64.560096
 20
71.002417
 11
64.560096
 21
70.502417
  0
LINE
  8
1
  6
CONTINUOUS
 10
66.697809
 20
71.002417
 11
66.697809
 21
70.502417
  0
LINE
  8
1
  6
CONTINUOUS
 10
68.073176
 20
71.002417
 11
68.073176
 21
70.502417
  0
LINE
  8
1
  6
CONTINUOUS
 10
72.237689
 20
71.002417
 11
72.237689
 21
70.502417
  0
LINE
  8
1
  6
CONTINUOUS
 10
75.225812
 20
71.002417
 11
75.225812
 21
70.502417
  0
LINE
  8
1
  6
CONTINUOUS
 10
76.270628
 20
71.002417
 11
76.270628
 21
70.502417
  0
LINE
  8
1
  6
CONTINUOUS
 10
77.315444
 20
71.002417
 11
77.315444
 21
70.502417
  0
LINE
  8
1
  6
CONTINUOUS
 10
78.360260
 20
71.002417
 11
78.360260
 21
70.502417
  0
LINE
  8
1
  6
CONTINUOUS
 10
78.360260
 20
70.502417
 11
78.360260
 21
71.002417
  0
LINE
  8
1
  6
CONTINUOUS
 10
78.360260
 20
71.002417
 11
78.360260
 21
70.502416
  0
LINE
  8
1
  6
CONTINUOUS
 10
79.927484
 20
71.002417
 11
79.927484
 21
70.502417
  0
LINE
  8
1
  6
CONTINUOUS
 10
81.494708
 20
71.002417
 11
81.494708
 21
70.502417
  0
LINE
  8
1
  6
CONTINUOUS
 10
62.070980
 20
70.502416
 11
62.070980
 21
70.002416
  0
LINE
  8
1
  6
CONTINUOUS
 10
62.070980
 20
70.002416
 11
81.494708
 21
70.002416
  0
LINE
  8
1
  6
CONTINUOUS
 10
64.560096
 20
70.502416
 11
64.560096
 21
70.002416
  0
LINE
  8
1
  6
CONTINUOUS
 10
66.697809
 20
70.502416
 11
66.697809
 21
70.002416
  0
LINE
  8
1
  6
CONTINUOUS
 10
68.073176
 20
70.502416
 11
68.073176
 21
70.002416
  0
LINE
  8
1
  6
CONTINUOUS
 10
72.237689
 20
70.502416
 11
72.237689
 21
70.002416
  0
LINE
  8
1
  6
CONTINUOUS
 10
75.225812
 20
70.502416
 11
75.225812
 21
70.002416
  0
LINE
  8
1
  6
CONTINUOUS
 10
76.270628
 20
70.502416
 11
76.270628
 21
70.002416
  0
LINE
  8
1
  6
CONTINUOUS
 10
77.315444
 20
70.502416
 11
77.315444
 21
70.002416
  0
LINE
  8
1
  6
CONTINUOUS
 10
78.360260
 20
70.502416
 11
78.360260
 21
70.002416
  0
LINE
  8
1
  6
CONTINUOUS
 10
78.360260
 20
70.002416
 11
78.360260
 21
70.502416
  0
LINE
  8
1
  6
CONTINUOUS
 10
78.360260
 20
70.502416
 11
78.360260
 21
70.002416
  0
LINE
  8
1
  6
CONTINUOUS
 10
79.927484
 20
70.502416
 11
79.927484
 21
70.002416
  0
LINE
  8
1
  6
CONTINUOUS
 10
81.494708
 20
70.502416
 11
81.494708
 21
70.002416
  0
LINE
  8
1
  6
CONTINUOUS
 10
62.070980
 20
70.002415
 11
62.070980
 21
69.502415
  0
LINE
  8
1
  6
CONTINUOUS
 10
62.070980
 20
69.502415
 11
81.494708
 21
69.502415
  0
LINE
  8
1
  6
CONTINUOUS
 10
64.560096
 20
70.002415
 11
64.560096
 21
69.502415
  0
LINE
  8
1
  6
CONTINUOUS
 10
66.697809
 20
70.002415
 11
66.697809
 21
69.502415
  0
LINE
  8
1
  6
CONTINUOUS
 10
68.073176
 20
70.002415
 11
68.073176
 21
69.502415
  0
LINE
  8
1
  6
CONTINUOUS
 10
72.237689
 20
70.002415
 11
72.237689
 21
69.502415
  0
LINE
  8
1
  6
CONTINUOUS
 10
75.225812
 20
70.002415
 11
75.225812
 21
69.502415
  0
LINE
  8
1
  6
CONTINUOUS
 10
76.270628
 20
70.002415
 11
76.270628
 21
69.502415
  0
LINE
  8
1
  6
CONTINUOUS
 10
77.315444
 20
70.002415
 11
77.315444
 21
69.502415
  0
LINE
  8
1
  6
CONTINUOUS
 10
78.360260
 20
70.002415
 11
78.360260
 21
69.502415
  0
LINE
  8
1
  6
CONTINUOUS
 10
78.360260
 20
69.502415
 11
78.360260
 21
70.002415
  0
LINE
  8
1
  6
CONTINUOUS
 10
78.360260
 20
70.002416
 11
78.360260
 21
69.502415
  0
LINE
  8
1
  6
CONTINUOUS
 10
79.927484
 20
70.002415
 11
79.927484
 21
69.502415
  0
LINE
  8
1
  6
CONTINUOUS
 10
81.494708
 20
70.002415
 11
81.494708
 21
69.502415
  0
LINE
  8
1
  6
CONTINUOUS
 10
62.070980
 20
68.865063
 11
75.354072
 21
68.865063
  0
LINE
  8
1
  6
CONTINUOUS
 10
62.070980
 20
67.502415
 11
75.354072
 21
67.502415
  0
LINE
  8
1
  6
CONTINUOUS
 10
62.070980
 20
67.002415
 11
70.992689
 21
67.002415
  0
LINE
  8
1
  6
CONTINUOUS
 10
70.992689
 20
67.002415
 11
73.180812
 21
67.002415
  0
LINE
  8
1
  6
CONTINUOUS
 10
72.560792
 20
67.002415
 11
73.605608
 21
67.002415
  0
LINE
  8
1
  6
CONTINUOUS
 10
73.605608
 20
67.002415
 11
75.270444
 21
67.002415
  0
LINE
  8
1
  6
CONTINUOUS
 10
75.270444
 20
67.002415
 11
75.354072
 21
67.002415
  0
LINE
  8
1
  6
CONTINUOUS
 10
62.070980
 20
68.865063
 11
62.070980
 21
66.002415
  0
LINE
  8
1
  6
CONTINUOUS
 10
62.070980
 20
66.002415
 11
75.354072
 21
66.002415
  0
LINE
  8
1
  6
CONTINUOUS
 10
64.208692
 20
67.002415
 11
64.208692
 21
66.002415
  0
LINE
  8
1
  6
CONTINUOUS
 10
66.396816
 20
66.002415
 11
66.396816
 21
67.002415
  0
LINE
  8
1
  6
CONTINUOUS
 10
73.264440
 20
67.002415
 11
73.264440
 21
66.002415
  0
LINE
  8
1
  6
CONTINUOUS
 10
74.309257
 20
67.002415
 11
74.309257
 21
66.002415
  0
LINE
  8
1
  6
CONTINUOUS
 10
68.099628
 20
66.002415
 11
68.099628
 21
66.502415
  0
LINE
  8
1
  6
CONTINUOUS
 10
75.354072
 20
66.002415
 11
75.354072
 21
68.865063
  0
LINE
  8
1
  6
CONTINUOUS
 10
66.396816
 20
66.502415
 11
72.219625
 21
66.502415
  0
LINE
  8
1
  6
CONTINUOUS
 10
72.219625
 20
66.002415
 11
72.219625
 21
67.502415
  0
LINE
  8
1
  6
CONTINUOUS
 10
70.159627
 20
66.002415
 11
70.159627
 21
66.502415
  0
LINE
  8
1
  6
CONTINUOUS
 10
62.070980
 20
66.002414
 11
62.070980
 21
65.502414
  0
LINE
  8
1
  6
CONTINUOUS
 10
64.208692
 20
66.002414
 11
64.208692
 21
65.502414
  0
LINE
  8
1
  6
CONTINUOUS
 10
66.396816
 20
66.002414
 11
66.396816
 21
65.502414
  0
LINE
  8
1
  6
CONTINUOUS
 10
62.070980
 20
65.502414
 11
75.354072
 21
65.502414
  0
LINE
  8
1
  6
CONTINUOUS
 10
72.219625
 20
66.002415
 11
72.219625
 21
65.502415
  0
LINE
  8
1
  6
CONTINUOUS
 10
73.264440
 20
66.002415
 11
73.264440
 21
65.502415
  0
LINE
  8
1
  6
CONTINUOUS
 10
74.309257
 20
66.002415
 11
74.309257
 21
65.502415
  0
LINE
  8
1
  6
CONTINUOUS
 10
68.099628
 20
66.002415
 11
68.099628
 21
65.502414
  0
LINE
  8
1
  6
CONTINUOUS
 10
70.159627
 20
65.502414
 11
70.159627
 21
66.002415
  0
LINE
  8
1
  6
CONTINUOUS
 10
72.219625
 20
65.502414
 11
72.219625
 21
66.002415
  0
LINE
  8
1
  6
CONTINUOUS
 10
75.354072
 20
66.002415
 11
75.354072
 21
65.502414
  0
LINE
  8
1
  6
CONTINUOUS
 10
62.070980
 20
65.502414
 11
62.070980
 21
65.002413
  0
LINE
  8
1
  6
CONTINUOUS
 10
64.208692
 20
65.502414
 11
64.208692
 21
65.002413
  0
LINE
  8
1
  6
CONTINUOUS
 10
66.396816
 20
65.502414
 11
66.396816
 21
65.002413
  0
LINE
  8
1
  6
CONTINUOUS
 10
62.070980
 20
65.002413
 11
75.354072
 21
65.002413
  0
LINE
  8
1
  6
CONTINUOUS
 10
72.219625
 20
65.502414
 11
72.219625
 21
65.002414
  0
LINE
  8
1
  6
CONTINUOUS
 10
73.264440
 20
65.502414
 11
73.264440
 21
65.002414
  0
LINE
  8
1
  6
CONTINUOUS
 10
74.309257
 20
65.502414
 11
74.309257
 21
65.002414
  0
LINE
  8
1
  6
CONTINUOUS
 10
68.099628
 20
65.502414
 11
68.099628
 21
65.002413
  0
LINE
  8
1
  6
CONTINUOUS
 10
70.159627
 20
65.002413
 11
70.159627
 21
65.502414
  0
LINE
  8
1
  6
CONTINUOUS
 10
72.219625
 20
65.002413
 11
72.219625
 21
65.502414
  0
LINE
  8
1
  6
CONTINUOUS
 10
75.354072
 20
65.502414
 11
75.354072
 21
65.002413
  0
LINE
  8
2
  6
CONTINUOUS
 10
101.700000
 20
23.900000
 11
101.700000
 21
23.900000
  0
LINE
  8
2
  6
CONTINUOUS
 10
118.000000
 20
23.900000
 11
118.000000
 21
23.900000
  0
LINE
  8
2
  6
CONTINUOUS
 10
118.000000
 20
23.900000
 11
101.700000
 21
23.900000
  0
LINE
  8
2
  6
CONTINUOUS
 10
118.000000
 20
22.200000
 11
101.700000
 21
22.200000
  0
LINE
  8
2
  6
CONTINUOUS
 10
101.700000
 20
23.900000
 11
101.700000
 21
22.200000
  0
LINE
  8
2
  6
CONTINUOUS
 10
118.000000
 20
22.200000
 11
118.000000
 21
23.900000
  0
LINE
  8
1
  6
CONTINUOUS
 10
118.000002
 20
29.700001
 11
119.000002
 21
29.700001
  0
LINE
  8
1
  6
CONTINUOUS
 10
118.000002
 20
59.400002
 11
119.000002
 21
59.400002
  0
LINE
  8
1
  6
CONTINUOUS
 10
0.000000
 20
29.700001
 11
2.500000
 21
29.700001
  0
LINE
  8
1
  6
CONTINUOUS
 10
0.000000
 20
59.400002
 11
2.500000
 21
59.400002
  0
LINE
  8
1
  6
CONTINUOUS
 10
100.500002
 20
82.999998
 11
100.500002
 21
83.999998
  0
LINE
  8
1
  6
CONTINUOUS
 10
82.000002
 20
82.999998
 11
82.000002
 21
83.999998
  0
LINE
  8
1
  6
CONTINUOUS
 10
63.500002
 20
82.999998
 11
63.500002
 21
83.999998
  0
LINE
  8
1
  6
CONTINUOUS
 10
45.000002
 20
82.999998
 11
45.000002
 21
83.999998
  0
LINE
  8
1
  6
CONTINUOUS
 10
33.050001
 20
82.999998
 11
33.050001
 21
83.999998
  0
LINE
  8
1
  6
CONTINUOUS
 10
21.100000
 20
82.999998
 11
21.100000
 21
83.999998
  0
LINE
  8
1
  6
CONTINUOUS
 10
100.500002
 20
0.000000
 11
100.500002
 21
1.000000
  0
LINE
  8
1
  6
CONTINUOUS
 10
82.000002
 20
0.000000
 11
82.000002
 21
1.000000
  0
LINE
  8
1
  6
CONTINUOUS
 10
63.500002
 20
0.000000
 11
63.500002
 21
1.000000
  0
LINE
  8
1
  6
CONTINUOUS
 10
45.000002
 20
0.000000
 11
45.000002
 21
1.000000
  0
LINE
  8
1
  6
CONTINUOUS
 10
33.050001
 20
0.000000
 11
33.050001
 21
1.000000
  0
LINE
  8
1
  6
CONTINUOUS
 10
21.100000
 20
0.000000
 11
21.100000
 21
1.000000
  0
LINE
  8
1
  6
CONTINUOUS
 10
0.000000
 20
0.000000
 11
119.000002
 21
0.000000
  0
LINE
  8
1
  6
CONTINUOUS
 10
119.000002
 20
0.000000
 11
119.000002
 21
83.999998
  0
LINE
  8
1
  6
CONTINUOUS
 10
0.000000
 20
0.000000
 11
0.000000
 21
83.999998
  0
LINE
  8
8
  6
CONTINUOUS
 10
2.500000
 20
1.000000
 11
118.000002
 21
1.000000
  0
LINE
  8
8
  6
CONTINUOUS
 10
118.000002
 20
1.000000
 11
118.000002
 21
82.999998
  0
LINE
  8
1
  6
CONTINUOUS
 10
0.000000
 20
83.999998
 11
119.000002
 21
83.999998
  0
LINE
  8
8
  6
CONTINUOUS
 10
2.500000
 20
82.999998
 11
118.000002
 21
82.999998
  0
LINE
  8
8
  6
CONTINUOUS
 10
2.500000
 20
82.999998
 11
2.500000
 21
1.000000
  0
LINE
  8
2
  6
CONTINUOUS
 10
102.650002
 20
17.625000
 11
102.650002
 21
18.125000
  0
LINE
  8
1
  6
CONTINUOUS
 10
101.700002
 20
18.200000
 11
118.000002
 21
18.200000
  0
LINE
  8
1
  6
CONTINUOUS
 10
101.700002
 20
17.700000
 11
118.000002
 21
17.700000
  0
LINE
  8
1
  6
CONTINUOUS
 10
102.200002
 20
17.700000
 11
118.000002
 21
17.700000
  0
LINE
  8
2
  6
CONTINUOUS
 10
102.650002
 20
17.125000
 11
102.650002
 21
17.625000
  0
LINE
  8
1
  6
CONTINUOUS
 10
102.200002
 20
17.700000
 11
118.000002
 21
17.700000
  0
LINE
  8
1
  6
CONTINUOUS
 10
101.700002
 20
17.200000
 11
118.000002
 21
17.200000
  0
LINE
  8
2
  6
CONTINUOUS
 10
102.650002
 20
16.700000
 11
102.650002
 21
17.200000
  0
LINE
  8
1
  6
CONTINUOUS
 10
116.008223
 20
16.000000
 11
116.008223
 21
22.200000
  0
LINE
  8
1
  6
CONTINUOUS
 10
104.850002
 20
16.000000
 11
104.850002
 21
22.200000
  0
LINE
  8
6
  6
CONTINUOUS
 10
101.700002
 20
16.000000
 11
118.000002
 21
16.000000
  0
LINE
  8
1
  6
CONTINUOUS
 10
102.650002
 20
16.000000
 11
102.650002
 21
16.700000
  0
LINE
  8
1
  6
CONTINUOUS
 10
102.200002
 20
17.200000
 11
118.000002
 21
17.200000
  0
LINE
  8
1
  6
CONTINUOUS
 10
101.700002
 20
16.700000
 11
118.000002
 21
16.700000
  0
LINE
  8
2
  6
CONTINUOUS
 10
102.650002
 20
18.625000
 11
102.650002
 21
22.200000
  0
LINE
  8
6
  6
CONTINUOUS
 10
101.700002
 20
22.200000
 11
118.000002
 21
22.200000
  0
LINE
  8
1
  6
CONTINUOUS
 10
101.700002
 20
18.700000
 11
118.000002
 21
18.700000
  0
LINE
  8
1
  6
CONTINUOUS
 10
102.200002
 20
18.700000
 11
118.000002
 21
18.700000
  0
LINE
  8
2
  6
CONTINUOUS
 10
102.650002
 20
18.125000
 11
102.650002
 21
18.625000
  0
LINE
  8
1
  6
CONTINUOUS
 10
102.200002
 20
18.700000
 11
118.000002
 21
18.700000
  0
LINE
  8
1
  6
CONTINUOUS
 10
102.200002
 20
18.200000
 11
118.000002
 21
18.200000
  0
LINE
  8
1
  6
CONTINUOUS
 10
102.200002
 20
18.200000
 11
118.000002
 21
18.200000
  0
LINE
  8
6
  6
CONTINUOUS
 10
101.700002
 20
6.600000
 11
118.000002
 21
6.600000
  0
LINE
  8
6
  6
CONTINUOUS
 10
101.700002
 20
8.500000
 11
118.000002
 21
8.500000
  0
LINE
  8
6
  6
CONTINUOUS
 10
101.700002
 20
1.000000
 11
101.700002
 21
8.500000
  0
LINE
  8
6
  6
CONTINUOUS
 10
101.700002
 20
16.000000
 11
101.700002
 21
22.200000
  0
LINE
  8
6
  6
CONTINUOUS
 10
101.700002
 20
15.900000
 11
118.000002
 21
15.900000
  0
LINE
  8
6
  6
CONTINUOUS
 10
101.700002
 20
11.400000
 11
101.700002
 21
15.900000
  0
LINE
  8
1
  6
CONTINUOUS
 10
101.700002
 20
14.400000
 11
118.000002
 21
14.400000
  0
LINE
  8
6
  6
CONTINUOUS
 10
101.700002
 20
3.000000
 11
118.000002
 21
3.000000
  0
LINE
  8
6
  6
CONTINUOUS
 10
105.024321
 20
3.000000
 11
105.024321
 21
1.000000
  0
LINE
  8
1
  6
CONTINUOUS
 10
101.700002
 20
12.900000
 11
118.000002
 21
12.900000
  0
POLYLINE
  8
1
  6
CONTINUOUS
 66
     1
  0
VERTEX
  8
1
  6
CONTINUOUS
 10
103.635546
 20
9.498246
  0
VERTEX
  8
1
  6
CONTINUOUS
 10
101.971546
 20
9.498246
  0
VERTEX
  8
1
  6
CONTINUOUS
 10
101.971546
 20
11.162246
  0
VERTEX
  8
1
  6
CONTINUOUS
 10
103.635546
 20
11.162246
  0
VERTEX
  8
1
  6
CONTINUOUS
 10
103.635546
 20
9.498246
  0
SEQEND
  8
1
  6
CONTINUOUS
  0
POLYLINE
  8
13
  6
CONTINUOUS
 66
     1
  0
VERTEX
  8
13
  6
CONTINUOUS
 10
102.095046
 20
10.244446
  0
VERTEX
  8
13
  6
CONTINUOUS
 10
102.095046
 20
9.498246
  0
VERTEX
  8
13
  6
CONTINUOUS
 10
101.971546
 20
9.498246
  0
VERTEX
  8
13
  6
CONTINUOUS
 10
101.971546
 20
11.162246
  0
VERTEX
  8
13
  6
CONTINUOUS
 10
102.095046
 20
11.162246
  0
VERTEX
  8
13
  6
CONTINUOUS
 10
102.095046
 20
10.244446
  0
SEQEND
  8
13
  6
CONTINUOUS
  0
POLYLINE
  8
13
  6
CONTINUOUS
 66
     1
  0
VERTEX
  8
13
  6
CONTINUOUS
 10
102.522746
 20
10.230979
  0
VERTEX
  8
13
  6
CONTINUOUS
 10
102.522746
 20
9.498246
  0
VERTEX
  8
13
  6
CONTINUOUS
 10
102.095046
 20
9.498246
  0
VERTEX
  8
13
  6
CONTINUOUS
 10
102.095046
 20
10.244446
  0
VERTEX
  8
13
  6
CONTINUOUS
 10
102.143544
 20
10.248642
  0
VERTEX
  8
13
  6
CONTINUOUS
 10
102.211078
 20
10.252071
  0
VERTEX
  8
13
  6
CONTINUOUS
 10
102.259959
 20
10.252484
  0
VERTEX
  8
13
  6
CONTINUOUS
 10
102.290321
 20
10.252141
  0
VERTEX
  8
13
  6
CONTINUOUS
 10
102.334203
 20
10.250668
  0
VERTEX
  8
13
  6
CONTINUOUS
 10
102.394518
 20
10.246747
  0
VERTEX
  8
13
  6
CONTINUOUS
 10
102.446340
 20
10.241621
  0
VERTEX
  8
13
  6
CONTINUOUS
 10
102.490083
 20
10.235974
  0
VERTEX
  8
13
  6
CONTINUOUS
 10
102.522746
 20
10.230979
  0
SEQEND
  8
13
  6
CONTINUOUS
  0
POLYLINE
  8
13
  6
CONTINUOUS
 66
     1
  0
VERTEX
  8
13
  6
CONTINUOUS
 10
102.594246
 20
10.217654
  0
VERTEX
  8
13
  6
CONTINUOUS
 10
102.594246
 20
9.498246
  0
VERTEX
  8
13
  6
CONTINUOUS
 10
103.021946
 20
9.498246
  0
VERTEX
  8
13
  6
CONTINUOUS
 10
103.021946
 20
10.064184
  0
VERTEX
  8
13
  6
CONTINUOUS
 10
103.003898
 20
10.073542
  0
VERTEX
  8
13
  6
CONTINUOUS
 10
102.981716
 20
10.084501
  0
VERTEX
  8
13
  6
CONTINUOUS
 10
102.953307
 20
10.098271
  0
VERTEX
  8
13
  6
CONTINUOUS
 10
102.912865
 20
10.116383
  0
VERTEX
  8
13
  6
CONTINUOUS
 10
102.885024
 20
10.128001
  0
VERTEX
  8
13
  6
CONTINUOUS
 10
102.844071
 20
10.144755
  0
VERTEX
  8
13
  6
CONTINUOUS
 10
102.813490
 20
10.155923
  0
VERTEX
  8
13
  6
CONTINUOUS
 10
102.778388
 20
10.168156
  0
VERTEX
  8
13
  6
CONTINUOUS
 10
102.744083
 20
10.178793
  0
VERTEX
  8
13
  6
CONTINUOUS
 10
102.703465
 20
10.191172
  0
VERTEX
  8
13
  6
CONTINUOUS
 10
102.665141
 20
10.201162
  0
VERTEX
  8
13
  6
CONTINUOUS
 10
102.624819
 20
10.210970
  0
VERTEX
  8
13
  6
CONTINUOUS
 10
102.594246
 20
10.217654
  0
SEQEND
  8
13
  6
CONTINUOUS
  0
POLYLINE
  8
13
  6
CONTINUOUS
 66
     1
  0
VERTEX
  8
13
  6
CONTINUOUS
 10
103.093446
 20
10.024343
  0
VERTEX
  8
13
  6
CONTINUOUS
 10
103.093446
 20
9.498246
  0
VERTEX
  8
13
  6
CONTINUOUS
 10
103.521146
 20
9.498246
  0
VERTEX
  8
13
  6
CONTINUOUS
 10
103.521146
 20
9.661030
  0
VERTEX
  8
13
  6
CONTINUOUS
 10
103.507797
 20
9.676793
  0
VERTEX
  8
13
  6
CONTINUOUS
 10
103.495964
 20
9.690528
  0
VERTEX
  8
13
  6
CONTINUOUS
 10
103.473877
 20
9.715277
  0
VERTEX
  8
13
  6
CONTINUOUS
 10
103.454164
 20
9.736530
  0
VERTEX
  8
13
  6
CONTINUOUS
 10
103.434048
 20
9.757502
  0
VERTEX
  8
13
  6
CONTINUOUS
 10
103.410015
 20
9.781535
  0
VERTEX
  8
13
  6
CONTINUOUS
 10
103.399294
 20
9.791943
  0
VERTEX
  8
13
  6
CONTINUOUS
 10
103.388429
 20
9.802406
  0
VERTEX
  8
13
  6
CONTINUOUS
 10
103.359952
 20
9.828752
  0
VERTEX
  8
13
  6
CONTINUOUS
 10
103.325139
 20
9.859181
  0
VERTEX
  8
13
  6
CONTINUOUS
 10
103.286846
 20
9.890826
  0
VERTEX
  8
13
  6
CONTINUOUS
 10
103.251036
 20
9.918745
  0
VERTEX
  8
13
  6
CONTINUOUS
 10
103.200839
 20
9.955427
  0
VERTEX
  8
13
  6
CONTINUOUS
 10
103.134352
 20
9.999676
  0
VERTEX
  8
13
  6
CONTINUOUS
 10
103.093446
 20
10.024343
  0
SEQEND
  8
13
  6
CONTINUOUS
  0
POLYLINE
  8
13
  6
CONTINUOUS
 66
     1
  0
VERTEX
  8
13
  6
CONTINUOUS
 10
102.522746
 20
10.635283
  0
VERTEX
  8
13
  6
CONTINUOUS
 10
102.522746
 20
11.162246
  0
VERTEX
  8
13
  6
CONTINUOUS
 10
102.095046
 20
11.162246
  0
VERTEX
  8
13
  6
CONTINUOUS
 10
102.095046
 20
10.995122
  0
VERTEX
  8
13
  6
CONTINUOUS
 10
102.153689
 20
10.929235
  0
VERTEX
  8
13
  6
CONTINUOUS
 10
102.237359
 20
10.846559
  0
VERTEX
  8
13
  6
CONTINUOUS
 10
102.308389
 20
10.784730
  0
VERTEX
  8
13
  6
CONTINUOUS
 10
102.366624
 20
10.739274
  0
VERTEX
  8
13
  6
CONTINUOUS
 10
102.406322
 20
10.710064
  0
VERTEX
  8
13
  6
CONTINUOUS
 10
102.455827
 20
10.676682
  0
VERTEX
  8
13
  6
CONTINUOUS
 10
102.493954
 20
10.652515
  0
VERTEX
  8
13
  6
CONTINUOUS
 10
102.522746
 20
10.635283
  0
SEQEND
  8
13
  6
CONTINUOUS
  0
POLYLINE
  8
13
  6
CONTINUOUS
 66
     1
  0
VERTEX
  8
13
  6
CONTINUOUS
 10
103.021946
 20
10.443678
  0
VERTEX
  8
13
  6
CONTINUOUS
 10
103.021946
 20
11.162246
  0
VERTEX
  8
13
  6
CONTINUOUS
 10
102.594246
 20
11.162246
  0
VERTEX
  8
13
  6
CONTINUOUS
 10
102.594246
 20
10.595859
  0
VERTEX
  8
13
  6
CONTINUOUS
 10
102.663800
 20
10.561766
  0
VERTEX
  8
13
  6
CONTINUOUS
 10
102.744359
 20
10.527375
  0
VERTEX
  8
13
  6
CONTINUOUS
 10
102.812197
 20
10.501464
  0
VERTEX
  8
13
  6
CONTINUOUS
 10
102.889458
 20
10.476967
  0
VERTEX
  8
13
  6
CONTINUOUS
 10
102.950702
 20
10.460007
  0
VERTEX
  8
13
  6
CONTINUOUS
 10
103.021946
 20
10.443678
  0
SEQEND
  8
13
  6
CONTINUOUS
  0
POLYLINE
  8
13
  6
CONTINUOUS
 66
     1
  0
VERTEX
  8
13
  6
CONTINUOUS
 10
103.093446
 20
10.430307
  0
VERTEX
  8
13
  6
CONTINUOUS
 10
103.093446
 20
11.162246
  0
VERTEX
  8
13
  6
CONTINUOUS
 10
103.521146
 20
11.162246
  0
VERTEX
  8
13
  6
CONTINUOUS
 10
103.521146
 20
10.417580
  0
VERTEX
  8
13
  6
CONTINUOUS
 10
103.476372
 20
10.413637
  0
VERTEX
  8
13
  6
CONTINUOUS
 10
103.416577
 20
10.410480
  0
VERTEX
  8
13
  6
CONTINUOUS
 10
103.366788
 20
10.409453
  0
VERTEX
  8
13
  6
CONTINUOUS
 10
103.336830
 20
10.409453
  0
VERTEX
  8
13
  6
CONTINUOUS
 10
103.286182
 20
10.410821
  0
VERTEX
  8
13
  6
CONTINUOUS
 10
103.241261
 20
10.413321
  0
VERTEX
  8
13
  6
CONTINUOUS
 10
103.205545
 20
10.416539
  0
VERTEX
  8
13
  6
CONTINUOUS
 10
103.155349
 20
10.421044
  0
VERTEX
  8
13
  6
CONTINUOUS
 10
103.093446
 20
10.430307
  0
SEQEND
  8
13
  6
CONTINUOUS
  0
POLYLINE
  8
13
  6
CONTINUOUS
 66
     1
  0
VERTEX
  8
13
  6
CONTINUOUS
 10
102.522746
 20
9.498246
  0
VERTEX
  8
13
  6
CONTINUOUS
 10
102.594246
 20
9.498246
  0
VERTEX
  8
13
  6
CONTINUOUS
 10
102.594246
 20
11.162246
  0
VERTEX
  8
13
  6
CONTINUOUS
 10
102.522746
 20
11.162246
  0
VERTEX
  8
13
  6
CONTINUOUS
 10
102.522746
 20
9.498246
  0
VERTEX
  8
13
  6
CONTINUOUS
 10
102.594246
 20
9.498246
  0
SEQEND
  8
13
  6
CONTINUOUS
  0
POLYLINE
  8
13
  6
CONTINUOUS
 66
     1
  0
VERTEX
  8
13
  6
CONTINUOUS
 10
103.021946
 20
11.162246
  0
VERTEX
  8
13
  6
CONTINUOUS
 10
103.093446
 20
11.162246
  0
VERTEX
  8
13
  6
CONTINUOUS
 10
103.093446
 20
9.498246
  0
VERTEX
  8
13
  6
CONTINUOUS
 10
103.021946
 20
9.498246
  0
VERTEX
  8
13
  6
CONTINUOUS
 10
103.021946
 20
11.162246
  0
SEQEND
  8
13
  6
CONTINUOUS
  0
POLYLINE
  8
13
  6
CONTINUOUS
 66
     1
  0
VERTEX
  8
13
  6
CONTINUOUS
 10
103.521146
 20
9.498246
  0
VERTEX
  8
13
  6
CONTINUOUS
 10
103.635546
 20
9.498246
  0
VERTEX
  8
13
  6
CONTINUOUS
 10
103.635546
 20
11.162246
  0
VERTEX
  8
13
  6
CONTINUOUS
 10
103.521146
 20
11.162246
  0
VERTEX
  8
13
  6
CONTINUOUS
 10
103.521146
 20
9.498246
  0
SEQEND
  8
13
  6
CONTINUOUS
  0
LINE
  8
6
  6
CONTINUOUS
 10
107.924321
 20
3.000000
 11
107.924321
 21
2.000000
  0
LINE
  8
6
  6
CONTINUOUS
 10
101.700002
 20
2.000000
 11
114.124321
 21
2.000000
  0
LINE
  8
6
  6
CONTINUOUS
 10
114.124321
 20
3.000000
 11
114.124321
 21
1.000000
  0
LINE
  8
6
  6
CONTINUOUS
 10
101.700002
 20
8.600000
 11
118.000002
 21
8.600000
  0
LINE
  8
6
  6
CONTINUOUS
 10
101.700002
 20
8.600000
 11
101.700002
 21
11.300000
  0
LINE
  8
6
  6
CONTINUOUS
 10
101.700002
 20
11.300000
 11
118.000002
 21
11.300000
  0
LINE
  8
6
  6
CONTINUOUS
 10
101.700002
 20
11.400000
 11
118.000002
 21
11.400000
  0
LINE
  8
1
  6
CONTINUOUS
 10
101.700002
 20
19.200000
 11
118.000002
 21
19.200000
  0
LINE
  8
1
  6
CONTINUOUS
 10
102.200002
 20
19.200000
 11
118.000002
 21
19.200000
  0
LINE
  8
1
  6
CONTINUOUS
 10
102.200002
 20
19.200000
 11
118.000002
 21
19.200000
  0
LINE
  8
1
  6
CONTINUOUS
 10
101.700002
 20
19.700000
 11
118.000002
 21
19.700000
  0
LINE
  8
1
  6
CONTINUOUS
 10
102.200002
 20
19.700000
 11
118.000002
 21
19.700000
  0
LINE
  8
1
  6
CONTINUOUS
 10
102.200002
 20
19.700000
 11
118.000002
 21
19.700000
  0
LINE
  8
1
  6
CONTINUOUS
 10
101.700002
 20
20.200000
 11
118.000002
 21
20.200000
  0
LINE
  8
1
  6
CONTINUOUS
 10
102.200002
 20
20.200000
 11
118.000002
 21
20.200000
  0
LINE
  8
1
  6
CONTINUOUS
 10
102.200002
 20
20.200000
 11
118.000002
 21
20.200000
  0
LINE
  8
1
  6
CONTINUOUS
 10
101.700002
 20
20.700000
 11
118.000002
 21
20.700000
  0
LINE
  8
1
  6
CONTINUOUS
 10
102.200002
 20
20.700000
 11
118.000002
 21
20.700000
  0
LINE
  8
1
  6
CONTINUOUS
 10
102.200002
 20
20.700000
 11
118.000002
 21
20.700000
  0
LINE
  8
1
  6
CONTINUOUS
 10
101.700002
 20
21.200000
 11
118.000002
 21
21.200000
  0
LINE
  8
1
  6
CONTINUOUS
 10
102.200002
 20
21.200000
 11
118.000002
 21
21.200000
  0
LINE
  8
1
  6
CONTINUOUS
 10
102.200002
 20
21.200000
 11
118.000002
 21
21.200000
  0
LINE
  8
1
  6
CONTINUOUS
 10
101.700002
 20
21.700000
 11
118.000002
 21
21.700000
  0
LINE
  8
6
  6
CONTINUOUS
 10
110.708935
 20
11.300000
 11
110.708935
 21
8.600000
  0
TEXT
  8
1
  6
CONTINUOUS
 10
53.433856
 20
36.582238
 40
0.250000
 50
90.000000
  1
L1
  7
TQS_CALIBRI
  0
TEXT
  8
1
  6
CONTINUOUS
 10
79.024344
 20
23.929669
 40
0.250000
 50
90.000000
  1
P125
  7
TQS_CALIBRI
  0
TEXT
  8
1
  6
CONTINUOUS
 10
79.940319
 20
34.750629
 40
0.250000
 50
90.000000
  1
P126
  7
TQS_CALIBRI
  0
TEXT
  8
1
  6
CONTINUOUS
 10
80.816747
 20
45.104379
 40
0.250000
 50
90.000000
  1
P127
  7
TQS_CALIBRI
  0
TEXT
  8
1
  6
CONTINUOUS
 10
62.417069
 20
25.335442
 40
0.250000
 50
90.000000
  1
P119
  7
TQS_CALIBRI
  0
TEXT
  8
1
  6
CONTINUOUS
 10
63.506145
 20
36.225381
 40
0.250000
 50
90.000000
  1
P120
  7
TQS_CALIBRI
  0
TEXT
  8
1
  6
CONTINUOUS
 10
64.375545
 20
46.496095
 40
0.250000
 50
90.000000
  1
P121
  7
TQS_CALIBRI
  0
TEXT
  8
1
  6
CONTINUOUS
 10
45.781681
 20
26.380956
 40
0.250000
 50
90.000000
  1
P111
  7
TQS_CALIBRI
  0
TEXT
  8
1
  6
CONTINUOUS
 10
46.781995
 20
38.198353
 40
0.250000
 50
90.000000
  1
P113
  7
TQS_CALIBRI
  0
TEXT
  8
1
  6
CONTINUOUS
 10
47.658423
 20
48.552103
 40
0.250000
 50
90.000000
  1
P114
  7
TQS_CALIBRI
  0
TEXT
  8
1
  6
CONTINUOUS
 10
16.804617
 20
28.833782
 40
0.250000
 50
90.000000
  1
P99
  7
TQS_CALIBRI
  0
TEXT
  8
1
  6
CONTINUOUS
 10
17.804931
 20
40.651179
 40
0.250000
 50
90.000000
  1
P100
  7
TQS_CALIBRI
  0
TEXT
  8
1
  6
CONTINUOUS
 10
95.898365
 20
22.697125
 40
0.250000
 50
90.000000
  1
P131
  7
TQS_CALIBRI
  0
TEXT
  8
1
  6
CONTINUOUS
 10
96.769800
 20
32.992912
 40
0.250000
 50
90.000000
  1
P132
  7
TQS_CALIBRI
  0
TEXT
  8
1
  6
CONTINUOUS
 10
97.641298
 20
43.289427
 40
0.250000
 50
90.000000
  1
P133
  7
TQS_CALIBRI
  0
TEXT
  8
1
  6
CONTINUOUS
 10
13.639776
 20
16.744774
 40
0.250000
 50
90.000000
  1
P98
  7
TQS_CALIBRI
  0
TEXT
  8
1
  6
CONTINUOUS
 10
98.558760
 20
54.168028
 40
0.250000
 50
90.000000
  1
P134
  7
TQS_CALIBRI
  0
TEXT
  8
1
  6
CONTINUOUS
 10
88.727397
 20
54.944034
 40
0.250000
 50
90.000000
  1
P129
  7
TQS_CALIBRI
  0
TEXT
  8
1
  6
CONTINUOUS
 10
77.932657
 20
55.857649
 40
0.250000
 50
90.000000
  1
P124
  7
TQS_CALIBRI
  0
TEXT
  8
1
  6
CONTINUOUS
 10
68.798646
 20
56.630708
 40
0.250000
 50
90.000000
  1
P122
  7
TQS_CALIBRI
  0
TEXT
  8
1
  6
CONTINUOUS
 10
52.191354
 20
58.036275
 40
0.250000
 50
90.000000
  1
P116
  7
TQS_CALIBRI
  0
TEXT
  8
1
  6
CONTINUOUS
 10
45.548437
 20
58.598494
 40
0.250000
 50
90.000000
  1
P112
  7
TQS_CALIBRI
  0
TEXT
  8
1
  6
CONTINUOUS
 10
27.881185
 20
60.093779
 40
0.250000
 50
90.000000
  1
P104
  7
TQS_CALIBRI
  0
TEXT
  8
1
  6
CONTINUOUS
 10
18.296491
 20
60.904979
 40
0.250000
 50
90.000000
  1
P101
  7
TQS_CALIBRI
  0
TEXT
  8
1
  6
CONTINUOUS
 10
9.494634
 20
61.706135
 40
0.250000
 50
90.000000
  1
P97
  7
TQS_CALIBRI
  0
TEXT
  8
1
  6
CONTINUOUS
 10
8.129259
 20
27.405395
 40
0.250000
 50
90.000000
  1
P93
  7
TQS_CALIBRI
  0
TEXT
  8
1
  6
CONTINUOUS
 10
7.919171
 20
39.326514
 40
0.250000
 50
90.000000
  1
P94
  7
TQS_CALIBRI
  0
TEXT
  8
1
  6
CONTINUOUS
 10
5.963098
 20
47.617134
 40
0.250000
 50
90.000000
  1
P95
  7
TQS_CALIBRI
  0
TEXT
  8
1
  6
CONTINUOUS
 10
5.791639
 20
59.928819
 40
0.250000
 50
90.000000
  1
P96
  7
TQS_CALIBRI
  0
TEXT
  8
1
  6
CONTINUOUS
 10
60.869903
 20
57.357989
 40
0.250000
 50
90.000000
  1
P117
  7
TQS_CALIBRI
  0
TEXT
  8
1
  6
CONTINUOUS
 10
21.359601
 20
15.892598
 40
0.250000
 50
90.000000
  1
P103
  7
TQS_CALIBRI
  0
TEXT
  8
1
  6
CONTINUOUS
 10
72.106432
 20
13.615068
 40
0.250000
 50
90.000000
  1
P123
  7
TQS_CALIBRI
  0
TEXT
  8
1
  6
CONTINUOUS
 10
82.070808
 20
12.771735
 40
0.250000
 50
90.000000
  1
P128
  7
TQS_CALIBRI
  0
TEXT
  8
1
  6
CONTINUOUS
 10
94.966976
 20
11.679973
 40
0.250000
 50
90.000000
  1
P130
  7
TQS_CALIBRI
  0
TEXT
  8
1
  6
CONTINUOUS
 10
37.347340
 20
59.348688
 40
0.250000
 50
90.000000
  1
P109
  7
TQS_CALIBRI
  0
TEXT
  8
1
  6
CONTINUOUS
 10
51.693803
 20
15.873031
 40
0.250000
 50
90.000000
  1
P115
  7
TQS_CALIBRI
  0
TEXT
  8
1
  6
CONTINUOUS
 10
32.398726
 20
27.403155
 40
0.250000
 50
90.000000
  1
P106
  7
TQS_CALIBRI
  0
TEXT
  8
1
  6
CONTINUOUS
 10
33.398889
 20
39.220564
 40
0.250000
 50
90.000000
  1
P107
  7
TQS_CALIBRI
  0
TEXT
  8
1
  6
CONTINUOUS
 10
34.031505
 20
46.695300
 40
0.250000
 50
90.000000
  1
P108
  7
TQS_CALIBRI
  0
TEXT
  8
1
  6
CONTINUOUS
 10
18.639192
 20
50.506733
 40
0.250000
 50
90.000000
  1
P102
  7
TQS_CALIBRI
  0
TEXT
  8
1
  6
CONTINUOUS
 10
41.944895
 20
16.168471
 40
0.250000
 50
90.000000
  1
P303
  7
TQS_CALIBRI
  0
TEXT
  8
1
  6
CONTINUOUS
 10
7.168115
 20
39.947063
 40
0.250000
 50
90.000000
  1
P302
  7
TQS_CALIBRI
  0
TEXT
  8
1
  6
CONTINUOUS
 10
61.558635
 20
15.010041
 40
0.250000
 50
90.000000
  1
P118
  7
TQS_CALIBRI
  0
TEXT
  8
1
  6
CONTINUOUS
 10
31.688617
 20
17.538466
 40
0.250000
 50
90.000000
  1
P105
  7
TQS_CALIBRI
  0
TEXT
  8
1
  6
CONTINUOUS
 10
6.142281
 20
30.868413
 40
0.250000
 50
90.000000
  1
P301
  7
TQS_CALIBRI
  0
TEXT
  8
1
  6
CONTINUOUS
 10
5.564753
 20
20.391355
 40
0.250000
 50
90.000000
  1
P92
  7
TQS_CALIBRI
  0
TEXT
  8
1
  6
CONTINUOUS
 10
40.562177
 20
16.767326
 40
0.250000
 50
90.000000
  1
P110
  7
TQS_CALIBRI
  0
TEXT
  8
4
  6
CONTINUOUS
 10
16.354097
 20
39.633953
 40
0.250000
 50
445.162000
  1
C3
  7
TQS_CALIBRI
  0
TEXT
  8
4
  6
CONTINUOUS
 10
16.852315
 20
39.591784
 40
0.250000
 50
445.162000
  1
C4
  7
TQS_CALIBRI
  0
TEXT
  8
4
  6
CONTINUOUS
 10
17.350534
 20
39.549614
 40
0.250000
 50
445.162000
  1
C5
  7
TQS_CALIBRI
  0
TEXT
  8
4
  6
CONTINUOUS
 10
17.848753
 20
39.507445
 40
0.250000
 50
445.162000
  1
C6
  7
TQS_CALIBRI
  0
TEXT
  8
4
  6
CONTINUOUS
 10
31.897776
 20
38.200936
 40
0.250000
 50
445.162000
  1
C7
  7
TQS_CALIBRI
  0
TEXT
  8
4
  6
CONTINUOUS
 10
32.296351
 20
38.167201
 40
0.250000
 50
445.162000
  1
C8
  7
TQS_CALIBRI
  0
TEXT
  8
4
  6
CONTINUOUS
 10
32.694926
 20
38.133465
 40
0.250000
 50
445.162000
  1
C9
  7
TQS_CALIBRI
  0
TEXT
  8
4
  6
CONTINUOUS
 10
33.093501
 20
38.099730
 40
0.250000
 50
445.162000
  1
C10
  7
TQS_CALIBRI
  0
TEXT
  8
4
  6
CONTINUOUS
 10
33.492076
 20
38.065994
 40
0.250000
 50
445.162000
  1
C11
  7
TQS_CALIBRI
  0
TEXT
  8
4
  6
CONTINUOUS
 10
45.216679
 20
36.814489
 40
0.250000
 50
445.162000
  1
C12
  7
TQS_CALIBRI
  0
TEXT
  8
4
  6
CONTINUOUS
 10
45.548825
 20
36.786376
 40
0.250000
 50
445.162000
  1
C13
  7
TQS_CALIBRI
  0
TEXT
  8
4
  6
CONTINUOUS
 10
45.880970
 20
36.758263
 40
0.250000
 50
445.162000
  1
C14
  7
TQS_CALIBRI
  0
TEXT
  8
4
  6
CONTINUOUS
 10
46.213116
 20
36.730150
 40
0.250000
 50
445.162000
  1
C15
  7
TQS_CALIBRI
  0
TEXT
  8
4
  6
CONTINUOUS
 10
46.545262
 20
36.702037
 40
0.250000
 50
445.162000
  1
C16
  7
TQS_CALIBRI
  0
TEXT
  8
4
  6
CONTINUOUS
 10
46.877408
 20
36.673924
 40
0.250000
 50
445.162000
  1
C17
  7
TQS_CALIBRI
  0
TEXT
  8
4
  6
CONTINUOUS
 10
61.857081
 20
35.406011
 40
0.250000
 50
445.162000
  1
C18
  7
TQS_CALIBRI
  0
TEXT
  8
4
  6
CONTINUOUS
 10
62.255656
 20
35.372275
 40
0.250000
 50
445.162000
  1
C19
  7
TQS_CALIBRI
  0
TEXT
  8
4
  6
CONTINUOUS
 10
62.654231
 20
35.338540
 40
0.250000
 50
445.162000
  1
C20
  7
TQS_CALIBRI
  0
TEXT
  8
4
  6
CONTINUOUS
 10
63.052806
 20
35.304805
 40
0.250000
 50
445.162000
  1
C21
  7
TQS_CALIBRI
  0
TEXT
  8
4
  6
CONTINUOUS
 10
63.451380
 20
35.271069
 40
0.250000
 50
445.162000
  1
C22
  7
TQS_CALIBRI
  0
TEXT
  8
4
  6
CONTINUOUS
 10
78.298214
 20
34.014429
 40
0.250000
 50
445.162000
  1
C23
  7
TQS_CALIBRI
  0
TEXT
  8
4
  6
CONTINUOUS
 10
78.696789
 20
33.980693
 40
0.250000
 50
445.162000
  1
C24
  7
TQS_CALIBRI
  0
TEXT
  8
4
  6
CONTINUOUS
 10
79.095364
 20
33.946958
 40
0.250000
 50
445.162000
  1
C25
  7
TQS_CALIBRI
  0
TEXT
  8
4
  6
CONTINUOUS
 10
79.493939
 20
33.913222
 40
0.250000
 50
445.162000
  1
C26
  7
TQS_CALIBRI
  0
TEXT
  8
4
  6
CONTINUOUS
 10
79.892513
 20
33.879487
 40
0.250000
 50
445.162000
  1
C27
  7
TQS_CALIBRI
  0
TEXT
  8
4
  6
CONTINUOUS
 10
95.686037
 20
32.542718
 40
0.250000
 50
445.162000
  1
C28
  7
TQS_CALIBRI
  0
TEXT
  8
4
  6
CONTINUOUS
 10
96.117827
 20
32.506172
 40
0.250000
 50
445.162000
  1
C29
  7
TQS_CALIBRI
  0
TEXT
  8
4
  6
CONTINUOUS
 10
96.549616
 20
32.469625
 40
0.250000
 50
445.162000
  1
C30
  7
TQS_CALIBRI
  0
TEXT
  8
4
  6
CONTINUOUS
 10
7.627270
 20
40.253428
 40
0.250000
 50
449.887999
  1
C1
  7
TQS_CALIBRI
  0
TEXT
  8
4
  6
CONTINUOUS
 10
8.293935
 20
40.252125
 40
0.250000
 50
449.887999
  1
C2
  7
TQS_CALIBRI
  0
TEXT
  8
1
  6
CONTINUOUS
 10
62.799882
 20
73.352420
 40
0.220000
  1
CABO
  7
TQS_CALIBRI
  0
TEXT
  8
1
  6
CONTINUOUS
 10
69.864363
 20
73.642420
 40
0.220000
  1
COMPRIMENTO
  7
TQS_CALIBRI
  0
TEXT
  8
1
  6
CONTINUOUS
 10
72.858669
 20
73.142420
 40
0.220000
  1
TOTAL
  7
TQS_CALIBRI
  0
TEXT
  8
1
  6
CONTINUOUS
 10
75.689023
 20
73.142420
 40
0.220000
  1
A
  7
TQS_CALIBRI
  0
TEXT
  8
1
  6
CONTINUOUS
 10
76.733839
 20
73.142420
 40
0.220000
  1
P
  7
TQS_CALIBRI
  0
TEXT
  8
1
  6
CONTINUOUS
 10
77.778655
 20
73.142420
 40
0.220000
  1
I
  7
TQS_CALIBRI
  0
TEXT
  8
1
  6
CONTINUOUS
 10
75.706336
 20
73.642420
 40
0.220000
  1
ANCORAGENS
  7
TQS_CALIBRI
  0
TEXT
  8
1
  6
CONTINUOUS
 10
67.258843
 20
73.352420
 40
0.220000
  1
Q
  7
TQS_CALIBRI
  0
TEXT
  8
1
  6
CONTINUOUS
 10
63.958504
 20
74.302420
 40
0.400000
  1
PROTENSÃO: AÇO
  7
TQS_CALIBRI
  0
TEXT
  8
1
  6
CONTINUOUS
 10
69.277233
 20
73.142420
 40
0.220000
  1
UNITÁRIO
  7
TQS_CALIBRI
  0
TEXT
  8
1
  6
CONTINUOUS
 10
78.733718
 20
73.142420
 40
0.220000
  1
INI
  7
TQS_CALIBRI
  0
TEXT
  8
1
  6
CONTINUOUS
 10
80.300942
 20
73.142420
 40
0.220000
  1
FIN
  7
TQS_CALIBRI
  0
TEXT
  8
1
  6
CONTINUOUS
 10
65.188094
 20
73.354639
 40
0.220000
  1
%%c
  7
TQS_CALIBRI
  0
TEXT
  8
1
  6
CONTINUOUS
 10
78.827484
 20
73.642420
 40
0.220000
  1
ALONG
  7
TQS_CALIBRI
  0
TEXT
  8
1
  6
CONTINUOUS
 10
70.286734
 20
74.302420
 40
0.400000
  1
CP190 RB 12.7 - 12.7
  7
TQS_CALIBRI
  0
TEXT
  8
1
  6
CONTINUOUS
 10
65.473242
 20
73.354639
 40
0.220000
  1
(mm)
  7
TQS_CALIBRI
  0
TEXT
  8
1
  6
CONTINUOUS
 10
72.524439
 20
73.642420
 40
0.220000
  1
(m)
  7
TQS_CALIBRI
  0
TEXT
  8
1
  6
CONTINUOUS
 10
80.014980
 20
73.642420
 40
0.220000
  1
(mm)
  7
TQS_CALIBRI
  0
TEXT
  8
1
  6
CONTINUOUS
 10
62.445304
 20
72.642420
 40
0.220000
  1
C1 A C2
  7
TQS_CALIBRI
  0
TEXT
  8
1
  6
CONTINUOUS
 10
64.798785
 20
72.642420
 40
0.220000
  1
3 %%c 12.7
  7
TQS_CALIBRI
  0
TEXT
  8
1
  6
CONTINUOUS
 10
67.013182
 20
72.642420
 40
0.220000
  1
2
  7
TQS_CALIBRI
  0
TEXT
  8
1
  6
CONTINUOUS
 10
69.249765
 20
72.642420
 40
0.220000
  1
25.8
  7
TQS_CALIBRI
  0
TEXT
  8
1
  6
CONTINUOUS
 10
72.526598
 20
72.642420
 40
0.220000
  1
155.1
  7
TQS_CALIBRI
  0
TEXT
  8
1
  6
CONTINUOUS
 10
75.504570
 20
72.642420
 40
0.220000
  1
6
  7
TQS_CALIBRI
  0
TEXT
  8
1
  6
CONTINUOUS
 10
76.549386
 20
72.642420
 40
0.220000
  1
6
  7
TQS_CALIBRI
  0
TEXT
  8
1
  6
CONTINUOUS
 10
78.586209
 20
72.642420
 40
0.220000
  1
0
  7
TQS_CALIBRI
  0
TEXT
  8
1
  6
CONTINUOUS
 10
80.153433
 20
72.642420
 40
0.220000
  1
174
  7
TQS_CALIBRI
  0
TEXT
  8
1
  6
CONTINUOUS
 10
62.445304
 20
72.142419
 40
0.220000
  1
C3 A C6
  7
TQS_CALIBRI
  0
TEXT
  8
1
  6
CONTINUOUS
 10
64.798785
 20
72.142419
 40
0.220000
  1
4 %%c 12.7
  7
TQS_CALIBRI
  0
TEXT
  8
1
  6
CONTINUOUS
 10
67.013182
 20
72.142419
 40
0.220000
  1
4
  7
TQS_CALIBRI
  0
TEXT
  8
1
  6
CONTINUOUS
 10
69.249765
 20
72.142419
 40
0.220000
  1
25.6
  7
TQS_CALIBRI
  0
TEXT
  8
1
  6
CONTINUOUS
 10
72.526598
 20
72.142419
 40
0.220000
  1
410.4
  7
TQS_CALIBRI
  0
TEXT
  8
1
  6
CONTINUOUS
 10
75.504570
 20
72.142419
 40
0.220000
  1
16
  7
TQS_CALIBRI
  0
TEXT
  8
1
  6
CONTINUOUS
 10
76.549386
 20
72.142419
 40
0.220000
  1
16
  7
TQS_CALIBRI
  0
TEXT
  8
1
  6
CONTINUOUS
 10
78.586209
 20
72.142419
 40
0.220000
  1
0
  7
TQS_CALIBRI
  0
TEXT
  8
1
  6
CONTINUOUS
 10
80.153433
 20
72.142419
 40
0.220000
  1
170
  7
TQS_CALIBRI
  0
TEXT
  8
1
  6
CONTINUOUS
 10
62.445304
 20
71.642418
 40
0.220000
  1
C7 A C11
  7
TQS_CALIBRI
  0
TEXT
  8
1
  6
CONTINUOUS
 10
64.798785
 20
71.642418
 40
0.220000
  1
   "
  7
TQS_CALIBRI
  0
TEXT
  8
1
  6
CONTINUOUS
 10
67.013182
 20
71.642418
 40
0.220000
  1
5
  7
TQS_CALIBRI
  0
TEXT
  8
1
  6
CONTINUOUS
 10
69.249765
 20
71.642418
 40
0.220000
  1
25.8
  7
TQS_CALIBRI
  0
TEXT
  8
1
  6
CONTINUOUS
 10
72.526598
 20
71.642418
 40
0.220000
  1
515.8
  7
TQS_CALIBRI
  0
TEXT
  8
1
  6
CONTINUOUS
 10
75.504570
 20
71.642418
 40
0.220000
  1
20
  7
TQS_CALIBRI
  0
TEXT
  8
1
  6
CONTINUOUS
 10
76.549386
 20
71.642418
 40
0.220000
  1
20
  7
TQS_CALIBRI
  0
TEXT
  8
1
  6
CONTINUOUS
 10
78.586209
 20
71.642418
 40
0.220000
  1
0
  7
TQS_CALIBRI
  0
TEXT
  8
1
  6
CONTINUOUS
 10
80.153433
 20
71.642418
 40
0.220000
  1
172
  7
TQS_CALIBRI
  0
TEXT
  8
1
  6
CONTINUOUS
 10
62.445304
 20
71.142417
 40
0.220000
  1
C12 A C17
  7
TQS_CALIBRI
  0
TEXT
  8
1
  6
CONTINUOUS
 10
64.798785
 20
71.142417
 40
0.220000
  1
3 %%c 12.7
  7
TQS_CALIBRI
  0
TEXT
  8
1
  6
CONTINUOUS
 10
67.013182
 20
71.142417
 40
0.220000
  1
6
  7
TQS_CALIBRI
  0
TEXT
  8
1
  6
CONTINUOUS
 10
69.249765
 20
71.142417
 40
0.220000
  1
26.1
  7
TQS_CALIBRI
  0
TEXT
  8
1
  6
CONTINUOUS
 10
72.526598
 20
71.142417
 40
0.220000
  1
469.8
  7
TQS_CALIBRI
  0
TEXT
  8
1
  6
CONTINUOUS
 10
75.504570
 20
71.142417
 40
0.220000
  1
18
  7
TQS_CALIBRI
  0
TEXT
  8
1
  6
CONTINUOUS
 10
76.549386
 20
71.142417
 40
0.220000
  1
18
  7
TQS_CALIBRI
  0
TEXT
  8
1
  6
CONTINUOUS
 10
78.586209
 20
71.142417
 40
0.220000
  1
0
  7
TQS_CALIBRI
  0
TEXT
  8
1
  6
CONTINUOUS
 10
80.153433
 20
71.142417
 40
0.220000
  1
173
  7
TQS_CALIBRI
  0
TEXT
  8
1
  6
CONTINUOUS
 10
62.445304
 20
70.642417
 40
0.220000
  1
C18 A C22
  7
TQS_CALIBRI
  0
TEXT
  8
1
  6
CONTINUOUS
 10
64.798785
 20
70.642417
 40
0.220000
  1
4 %%c 12.7
  7
TQS_CALIBRI
  0
TEXT
  8
1
  6
CONTINUOUS
 10
67.013182
 20
70.642417
 40
0.220000
  1
5
  7
TQS_CALIBRI
  0
TEXT
  8
1
  6
CONTINUOUS
 10
69.249765
 20
70.642417
 40
0.220000
  1
26.1
  7
TQS_CALIBRI
  0
TEXT
  8
1
  6
CONTINUOUS
 10
72.526598
 20
70.642417
 40
0.220000
  1
522
  7
TQS_CALIBRI
  0
TEXT
  8
1
  6
CONTINUOUS
 10
75.504570
 20
70.642417
 40
0.220000
  1
20
  7
TQS_CALIBRI
  0
TEXT
  8
1
  6
CONTINUOUS
 10
76.549386
 20
70.642417
 40
0.220000
  1
20
  7
TQS_CALIBRI
  0
TEXT
  8
1
  6
CONTINUOUS
 10
78.586209
 20
70.642417
 40
0.220000
  1
0
  7
TQS_CALIBRI
  0
TEXT
  8
1
  6
CONTINUOUS
 10
80.153433
 20
70.642417
 40
0.220000
  1
173
  7
TQS_CALIBRI
  0
TEXT
  8
1
  6
CONTINUOUS
 10
62.445304
 20
70.142416
 40
0.220000
  1
C23 A C27
  7
TQS_CALIBRI
  0
TEXT
  8
1
  6
CONTINUOUS
 10
64.798785
 20
70.142416
 40
0.220000
  1
   "
  7
TQS_CALIBRI
  0
TEXT
  8
1
  6
CONTINUOUS
 10
67.013182
 20
70.142416
 40
0.220000
  1
5
  7
TQS_CALIBRI
  0
TEXT
  8
1
  6
CONTINUOUS
 10
69.249765
 20
70.142416
 40
0.220000
  1
26.1
  7
TQS_CALIBRI
  0
TEXT
  8
1
  6
CONTINUOUS
 10
72.526598
 20
70.142416
 40
0.220000
  1
522
  7
TQS_CALIBRI
  0
TEXT
  8
1
  6
CONTINUOUS
 10
75.504570
 20
70.142416
 40
0.220000
  1
20
  7
TQS_CALIBRI
  0
TEXT
  8
1
  6
CONTINUOUS
 10
76.549386
 20
70.142416
 40
0.220000
  1
20
  7
TQS_CALIBRI
  0
TEXT
  8
1
  6
CONTINUOUS
 10
78.586209
 20
70.142416
 40
0.220000
  1
0
  7
TQS_CALIBRI
  0
TEXT
  8
1
  6
CONTINUOUS
 10
80.153433
 20
70.142416
 40
0.220000
  1
174
  7
TQS_CALIBRI
  0
TEXT
  8
1
  6
CONTINUOUS
 10
62.445304
 20
69.642415
 40
0.220000
  1
C28 A C30
  7
TQS_CALIBRI
  0
TEXT
  8
1
  6
CONTINUOUS
 10
64.798785
 20
69.642415
 40
0.220000
  1
   "
  7
TQS_CALIBRI
  0
TEXT
  8
1
  6
CONTINUOUS
 10
67.013182
 20
69.642415
 40
0.220000
  1
3
  7
TQS_CALIBRI
  0
TEXT
  8
1
  6
CONTINUOUS
 10
69.249765
 20
69.642415
 40
0.220000
  1
26.1
  7
TQS_CALIBRI
  0
TEXT
  8
1
  6
CONTINUOUS
 10
72.526598
 20
69.642415
 40
0.220000
  1
313.2
  7
TQS_CALIBRI
  0
TEXT
  8
1
  6
CONTINUOUS
 10
75.504570
 20
69.642415
 40
0.220000
  1
12
  7
TQS_CALIBRI
  0
TEXT
  8
1
  6
CONTINUOUS
 10
76.549386
 20
69.642415
 40
0.220000
  1
12
  7
TQS_CALIBRI
  0
TEXT
  8
1
  6
CONTINUOUS
 10
78.586209
 20
69.642415
 40
0.220000
  1
0
  7
TQS_CALIBRI
  0
TEXT
  8
1
  6
CONTINUOUS
 10
80.153433
 20
69.642415
 40
0.220000
  1
173
  7
TQS_CALIBRI
  0
TEXT
  8
1
  6
CONTINUOUS
 10
62.931445
 20
66.642415
 40
0.220000
  1
%%c
  7
TQS_CALIBRI
  0
TEXT
  8
1
  6
CONTINUOUS
 10
66.504983
 20
67.142415
 40
0.220000
  1
CABO
  7
TQS_CALIBRI
  0
TEXT
  8
1
  6
CONTINUOUS
 10
72.689543
 20
66.392415
 40
0.220000
  1
A
  7
TQS_CALIBRI
  0
TEXT
  8
1
  6
CONTINUOUS
 10
73.734358
 20
66.392415
 40
0.220000
  1
P
  7
TQS_CALIBRI
  0
TEXT
  8
1
  6
CONTINUOUS
 10
74.779175
 20
66.392415
 40
0.220000
  1
I
  7
TQS_CALIBRI
  0
TEXT
  8
1
  6
CONTINUOUS
 10
69.000742
 20
66.642415
 40
0.220000
  1
PESO
  7
TQS_CALIBRI
  0
TEXT
  8
1
  6
CONTINUOUS
 10
72.759722
 20
67.142415
 40
0.220000
  1
ANCORAGENS
  7
TQS_CALIBRI
  0
TEXT
  8
1
  6
CONTINUOUS
 10
64.838502
 20
68.225747
 40
0.400000
  1
RESUMO DE PROTENSÃO
  7
TQS_CALIBRI
  0
TEXT
  8
1
  6
CONTINUOUS
 10
64.376639
 20
67.663048
 40
0.300000
  1
Monocordoalhas não aderentes
  7
TQS_CALIBRI
  0
TEXT
  8
1
  6
CONTINUOUS
 10
64.767740
 20
66.642415
 40
0.220000
  1
COMPR
  7
TQS_CALIBRI
  0
TEXT
  8
1
  6
CONTINUOUS
 10
66.617528
 20
66.142415
 40
0.220000
  1
kgf/m
  7
TQS_CALIBRI
  0
TEXT
  8
1
  6
CONTINUOUS
 10
68.769305
 20
66.142415
 40
0.220000
  1
kgf
  7
TQS_CALIBRI
  0
TEXT
  8
1
  6
CONTINUOUS
 10
70.583697
 20
66.142415
 40
0.220000
  1
kgf+4%
  7
TQS_CALIBRI
  0
TEXT
  8
1
  6
CONTINUOUS
 10
64.772286
 20
66.142415
 40
0.220000
  1
m
  7
TQS_CALIBRI
  0
TEXT
  8
1
  6
CONTINUOUS
 10
62.909825
 20
66.142415
 40
0.220000
  1
mm
  7
TQS_CALIBRI
  0
TEXT
  8
1
  6
CONTINUOUS
 10
64.497602
 20
65.642414
 40
0.220000
  1
625
  7
TQS_CALIBRI
  0
TEXT
  8
1
  6
CONTINUOUS
 10
73.543199
 20
65.642415
 40
0.220000
  1
24
  7
TQS_CALIBRI
  0
TEXT
  8
1
  6
CONTINUOUS
 10
72.498382
 20
65.642415
 40
0.220000
  1
24
  7
TQS_CALIBRI
  0
TEXT
  8
1
  6
CONTINUOUS
 10
66.617528
 20
65.642414
 40
0.220000
  1
0.886
  7
TQS_CALIBRI
  0
TEXT
  8
1
  6
CONTINUOUS
 10
68.206857
 20
65.642414
 40
0.220000
  1
554
  7
TQS_CALIBRI
  0
TEXT
  8
1
  6
CONTINUOUS
 10
70.266855
 20
65.642414
 40
0.220000
  1
576
  7
TQS_CALIBRI
  0
TEXT
  8
1
  6
CONTINUOUS
 10
62.309669
 20
65.642414
 40
0.220000
  1
3 %%c 12.7
  7
TQS_CALIBRI
  0
TEXT
  8
1
  6
CONTINUOUS
 10
64.497602
 20
65.142413
 40
0.220000
  1
2283
  7
TQS_CALIBRI
  0
TEXT
  8
1
  6
CONTINUOUS
 10
73.543199
 20
65.142414
 40
0.220000
  1
88
  7
TQS_CALIBRI
  0
TEXT
  8
1
  6
CONTINUOUS
 10
72.498382
 20
65.142414
 40
0.220000
  1
88
  7
TQS_CALIBRI
  0
TEXT
  8
1
  6
CONTINUOUS
 10
66.617528
 20
65.142413
 40
0.220000
  1
0.886
  7
TQS_CALIBRI
  0
TEXT
  8
1
  6
CONTINUOUS
 10
68.206857
 20
65.142413
 40
0.220000
  1
2023
  7
TQS_CALIBRI
  0
TEXT
  8
1
  6
CONTINUOUS
 10
70.266855
 20
65.142413
 40
0.220000
  1
2104
  7
TQS_CALIBRI
  0
TEXT
  8
1
  6
CONTINUOUS
 10
62.309669
 20
65.142413
 40
0.220000
  1
4 %%c 12.7
  7
TQS_CALIBRI
  0
TEXT
  8
1
  6
CONTINUOUS
 10
101.932386
 20
23.396411
 40
0.350000
  1
NOTAS:
  7
TQS_CALIBRI
  0
TEXT
  8
2
  6
CONTINUOUS
 10
101.965840
 20
22.812661
 40
0.240000
  1
1) CONFERIR INFORMAÇÕES DA TABELA ACIMA (TABELA DE FERRERAGEM) NA OBRA
  7
TQS_CALIBRI
  0
TEXT
  8
2
  6
CONTINUOUS
 10
101.965840
 20
22.343353
 40
0.240000
  1
ANTES DA COMPRA DAS ARMADURAS.
  7
TQS_CALIBRI
  0
TEXT
  8
1
  6
CONTINUOUS
 10
102.073109
 20
8.835799
 40
0.455000
  1
ENGENHARIA
  7
TQS_CALIBRI
  0
TEXT
  8
1
  6
CONTINUOUS
 10
101.876737
 20
16.222571
 40
0.250000
  1
REV
  7
TQS_CALIBRI
  0
TEXT
  8
1
  6
CONTINUOUS
 10
103.356169
 20
16.222571
 40
0.250000
  1
DATA
  7
TQS_CALIBRI
  0
TEXT
  8
1
  6
CONTINUOUS
 10
105.030516
 20
16.222571
 40
0.250000
  1
ASSUNTO
  7
TQS_CALIBRI
  0
TEXT
  8
1
  6
CONTINUOUS
 10
101.832253
 20
14.047181
 40
0.250000
  1
PROPRIETÁRIO - 
  7
TQS_CALIBRI
  0
TEXT
  8
1
  6
CONTINUOUS
 10
108.042444
 20
2.579059
 40
0.250000
  1
ENGENHEIRO:
  7
TQS_CALIBRI
  0
TEXT
  8
1
  6
CONTINUOUS
 10
108.046365
 20
2.149652
 40
0.250000
  1
CREA REG.:
  7
TQS_CALIBRI
  0
TEXT
  8
1
  6
CONTINUOUS
 10
110.430567
 20
2.160333
 40
0.250000
  1
020930945-8
  7
TQS_CALIBRI
  0
TEXT
  8
1
  6
CONTINUOUS
 10
103.739739
 20
9.759850
 40
1.000000
  1
VGF
  7
TQS_CALIBRI
  0
TEXT
  8
1
  6
CONTINUOUS
 10
101.832253
 20
12.147181
 40
0.250000
  1
PROJETO              Eng. Civil - CREA:020930945-8
  7
TQS_CALIBRI
  0
TEXT
  8
1
  6
CONTINUOUS
 10
101.800510
 20
2.752624
 40
0.150000
  1
DATA:
  7
TQS_CALIBRI
  0
TEXT
  8
1
  6
CONTINUOUS
 10
101.788178
 20
1.752624
 40
0.150000
  1
FASE:
  7
TQS_CALIBRI
  0
TEXT
  8
1
  6
CONTINUOUS
 10
105.124829
 20
2.752624
 40
0.150000
  1
ESCALA:
  7
TQS_CALIBRI
  0
TEXT
  8
1
  6
CONTINUOUS
 10
105.112497
 20
1.752624
 40
0.150000
  1
PLANTA:
  7
TQS_CALIBRI
  0
TEXT
  8
1
  6
CONTINUOUS
 10
101.800510
 20
6.352624
 40
0.150000
  1
TÍTULO:
  7
TQS_CALIBRI
  0
TEXT
  8
1
  6
CONTINUOUS
 10
101.787482
 20
5.577767
 40
0.150000
  1
ELEMENTOS DA PRANCHA:
  7
TQS_CALIBRI
  0
TEXT
  8
1
  6
CONTINUOUS
 10
101.800510
 20
8.252624
 40
0.150000
  1
EMPREENDIMENTO/LOCAL:
  7
TQS_CALIBRI
  0
TEXT
  8
1
  6
CONTINUOUS
 10
106.761120
 20
11.025301
 40
0.150000
  1
CONTATOS:
  7
TQS_CALIBRI
  0
TEXT
  8
1
  6
CONTINUOUS
 10
114.224829
 20
2.752624
 40
0.150000
  1
PLANTA-REVISÃO:
  7
TQS_CALIBRI
  0
TEXT
  8
1
  6
CONTINUOUS
 10
102.041441
 20
16.843956
 40
0.200000
  1
00
  7
TQS_CALIBRI
  0
TEXT
  8
1
  6
CONTINUOUS
 10
102.041441
 20
17.343956
 40
0.200000
  1
01
  7
TQS_CALIBRI
  0
TEXT
  8
1
  6
CONTINUOUS
 10
102.041441
 20
17.843956
 40
0.200000
  1
02
  7
TQS_CALIBRI
  0
TEXT
  8
1
  6
CONTINUOUS
 10
102.041441
 20
18.343956
 40
0.200000
  1
03
  7
TQS_CALIBRI
  0
TEXT
  8
1
  6
CONTINUOUS
 10
102.041441
 20
18.843956
 40
0.200000
  1
04
  7
TQS_CALIBRI
  0
TEXT
  8
1
  6
CONTINUOUS
 10
102.041441
 20
19.343956
 40
0.200000
  1
05
  7
TQS_CALIBRI
  0
TEXT
  8
1
  6
CONTINUOUS
 10
102.041441
 20
19.843956
 40
0.200000
  1
06
  7
TQS_CALIBRI
  0
TEXT
  8
1
  6
CONTINUOUS
 10
102.041441
 20
20.343956
 40
0.200000
  1
07
  7
TQS_CALIBRI
  0
TEXT
  8
1
  6
CONTINUOUS
 10
102.041441
 20
20.843956
 40
0.200000
  1
08
  7
TQS_CALIBRI
  0
TEXT
  8
1
  6
CONTINUOUS
 10
102.041441
 20
21.343956
 40
0.200000
  1
09
  7
TQS_CALIBRI
  0
TEXT
  8
1
  6
CONTINUOUS
 10
102.041441
 20
21.843956
 40
0.200000
  1
10
  7
TQS_CALIBRI
  0
TEXT
  8
1
  6
CONTINUOUS
 10
116.437973
 20
16.222571
 40
0.250000
  1
AUTOR
  7
TQS_CALIBRI
  0
TEXT
  8
1
  6
CONTINUOUS
 10
106.749019
 20
10.335784
 40
0.195000
  1
Tel: 99928-2128
  7
TQS_CALIBRI
  0
TEXT
  8
1
  6
CONTINUOUS
 10
106.749019
 20
10.012284
 40
0.195000
  1
franciscogonca@hotmail.com 
  7
TQS_CALIBRI
  0
TEXT
  8
1
  6
CONTINUOUS
 10
106.749019
 20
9.680784
 40
0.195000
  1
Tel: 99981-6458
  7
TQS_CALIBRI
  0
TEXT
  8
1
  6
CONTINUOUS
 10
106.749019
 20
9.357284
 40
0.195000
  1
tiago@vgfengenharia.com.br 
  7
TQS_CALIBRI
  0
TEXT
  8
1
  6
CONTINUOUS
 10
106.749019
 20
9.025784
 40
0.195000
  1
Tel: 99912-8379
  7
TQS_CALIBRI
  0
TEXT
  8
1
  6
CONTINUOUS
 10
110.809443
 20
11.052624
 40
0.150000
  1
CLIENTE:
  7
TQS_CALIBRI
  0
TEXT
  8
1
  6
CONTINUOUS
 10
116.009770
 20
1.647683
 40
0.500000
  1
-R
  7
TQS_CALIBRI
  0
TEXT
  8
1
  6
CONTINUOUS
 10
101.832253
 20
12.547181
 40
0.250000
  1
RESPONSÁVEL -  Diego de Vasconcelos Gonçalves Ferreira
  7
TQS_CALIBRI
  0
TEXT
  8
1
  6
CONTINUOUS
 10
110.422141
 20
2.578345
 40
0.250000
  1
Diego Vasconcelos
  7
TQS_CALIBRI
  0
TEXT
  8
1
  6
CONTINUOUS
 10
106.749019
 20
10.667284
 40
0.195000
  1
diego@vgfengenharia.com.br 
  7
TQS_CALIBRI
  0
TEXT
  8
1
  6
CONTINUOUS
 10
104.982892
 20
16.853163
 40
0.200000
  1
Emissão inicial.
  7
TQS_CALIBRI
  0
TEXT
  8
1
  6
CONTINUOUS
 10
101.795719
 20
7.825700
 40
0.250000
  1
Assembléia Legislativa de Alagoas
  7
TQS_CALIBRI
  0
TEXT
  8
1
  6
CONTINUOUS
 10
104.517953
 20
14.045361
 40
0.250000
  1
ALA
  7
TQS_CALIBRI
  0
TEXT
  8
1
  6
CONTINUOUS
 10
101.789281
 20
2.263237
 40
0.250000
  1
26/02/2024
  7
TQS_CALIBRI
  0
TEXT
  8
1
  6
CONTINUOUS
 10
102.992347
 20
16.854551
 40
0.200000
  1
26/02/24
  7
TQS_CALIBRI
  0
TEXT
  8
1
  6
CONTINUOUS
 10
101.787954
 20
7.415393
 40
0.200000
  1
RUA SÁ E ALBUQUERQUE, NÚMERO 807, JARAGUÁ - MACEIÓ-AL
  7
TQS_CALIBRI
  0
TEXT
  8
1
  6
CONTINUOUS
 10
101.789859
 20
1.251887
 40
0.250000
  1
PE
  7
TQS_CALIBRI
  0
TEXT
  8
1
  6
CONTINUOUS
 10
105.114178
 20
1.251887
 40
0.250000
  1
CLA-EEM-EST-PE-0349-ARM-R00
  7
TQS_CALIBRI
  0
TEXT
  8
1
  6
CONTINUOUS
 10
116.547332
 20
16.842370
 40
0.200000
  1
DIEGO
  7
TQS_CALIBRI
  0
TEXT
  8
1
  6
CONTINUOUS
 10
114.396264
 20
1.644018
 40
0.500000
  1
0349
  7
TQS_CALIBRI
  0
TEXT
  8
1
  6
CONTINUOUS
 10
116.689770
 20
1.647683
 40
0.500000
  1
00
  7
TQS_CALIBRI
  0
TEXT
  8
1
  6
CONTINUOUS
 10
110.802729
 20
10.513659
 40
0.400000
  1
ALA
  7
TQS_CALIBRI
  0
TEXT
  8
1
  6
CONTINUOUS
 10
101.762319
 20
5.951739
 40
0.250000
  1
ARM. PROTENSÃO HORIZONTAL (02-1Pavto) - 01 - J
  7
TQS_CALIBRI
  0
ENDSEC
  0
EOF
