  0
SECTION
  2
HEADER
  9
$ACADVER
  1
AC1002
  9
$USERI1
 70
0
  9
$INSBASE
 10
0.000000
 20
0.000000
  9
$EXTMIN
 10
0.000000
 20
0.000000
  9
$EXTMAX
 10
7.761771
 20
4.436620
  9
$LIMMIN
 10
0.000000
 20
0.000000
  9
$LIMMAX
 10
12.000000
 20
9.000000
  9
$VIEWCTR
 10
78.887138
 20
59.361758
  9
$VIEWSIZE
 40
127.522840
  9
$TEXTSIZE
 40
0.100000
  9
$TRACEWID
 40
0.010000
  9
$LTSCALE
 40
1.000000
  0
ENDSEC
  0
SECTION
  2
TABLES
  0
TABLE
  2
LTYPE
 70
     3
  0
LTYPE
  2
CONTINUOUS
 70
    64
  3
Solid line
 72
    65
 73
     0
 40
0.000000
  0
LTYPE
  2
ESTILO_TQS_0001
 70
    64
  3
-  -  -  -  -  -
 72
    65
 73
     2
 40
1.000000
 49
0.700000
 49
-0.300000
  0
LTYPE
  2
ESTILO_TQS_0002
 70
    64
  3
. . . . . . . .
 72
    65
 73
     2
 40
0.400000
 49
0.100000
 49
-0.300000
  0
LTYPE
  2
ESTILO_TQS_0003
 70
    64
  3
- . - . - . - .
 72
    65
 73
     4
 40
0.910000
 49
0.500000
 49
-0.200000
 49
0.010000
 49
-0.200000
  0
LTYPE
  2
ESTILO_TQS_0004
 70
    64
  3
- .. - .. - ..
 72
    65
 73
     6
 40
1.120000
 49
0.500000
 49
-0.200000
 49
0.010000
 49
-0.200000
 49
0.010000
 49
-0.200000
  0
LTYPE
  2
CONTINUOUS
 70
    64
  3
- - - - - - - -
 72
    65
 73
     2
 40
0.400000
 49
0.300000
 49
-0.100000
  0
ENDTAB
  0
TABLE
  2
LAYER
 70
    89
  0
LAYER
  2
0
 70
     0
 62
     7
  6
CONTINUOUS
  0
LAYER
  2
1
 70
     0
 62
     1
  6
CONTINUOUS
  0
LAYER
  2
2
 70
     0
 62
     2
  6
CONTINUOUS
  0
LAYER
  2
3
 70
     0
 62
     3
  6
CONTINUOUS
  0
LAYER
  2
4
 70
     0
 62
     4
  6
CONTINUOUS
  0
LAYER
  2
5
 70
     0
 62
     5
  6
CONTINUOUS
  0
LAYER
  2
6
 70
     0
 62
     6
  6
CONTINUOUS
  0
LAYER
  2
7
 70
     0
 62
     7
  6
CONTINUOUS
  0
LAYER
  2
8
 70
     0
 62
     8
  6
CONTINUOUS
  0
LAYER
  2
9
 70
     0
 62
     9
  6
CONTINUOUS
  0
LAYER
  2
10
 70
     0
 62
    10
  6
CONTINUOUS
  0
LAYER
  2
11
 70
     0
 62
    11
  6
CONTINUOUS
  0
LAYER
  2
12
 70
     0
 62
    12
  6
CONTINUOUS
  0
LAYER
  2
13
 70
     0
 62
    13
  6
CONTINUOUS
  0
LAYER
  2
14
 70
     0
 62
    14
  6
CONTINUOUS
  0
LAYER
  2
15
 70
     0
 62
    15
  6
CONTINUOUS
  0
LAYER
  2
16
 70
     0
 62
     7
  6
CONTINUOUS
  0
LAYER
  2
17
 70
     0
 62
     2
  6
CONTINUOUS
  0
LAYER
  2
18
 70
     0
 62
     4
  6
CONTINUOUS
  0
LAYER
  2
19
 70
     0
 62
     5
  6
CONTINUOUS
  0
LAYER
  2
20
 70
     0
 62
     4
  6
CONTINUOUS
  0
LAYER
  2
21
 70
     0
 62
     2
  6
CONTINUOUS
  0
LAYER
  2
22
 70
     0
 62
     1
  6
CONTINUOUS
  0
LAYER
  2
23
 70
     0
 62
     7
  6
CONTINUOUS
  0
LAYER
  2
24
 70
     0
 62
     6
  6
CONTINUOUS
  0
LAYER
  2
25
 70
     0
 62
     1
  6
CONTINUOUS
  0
LAYER
  2
26
 70
     0
 62
     3
  6
CONTINUOUS
  0
LAYER
  2
27
 70
     0
 62
     4
  6
CONTINUOUS
  0
LAYER
  2
28
 70
     0
 62
     4
  6
CONTINUOUS
  0
LAYER
  2
30
 70
     0
 62
     4
  6
CONTINUOUS
  0
LAYER
  2
100
 70
     0
 62
     1
  6
CONTINUOUS
  0
LAYER
  2
101
 70
     0
 62
     9
  6
CONTINUOUS
  0
LAYER
  2
102
 70
     0
 62
     7
  6
CONTINUOUS
  0
LAYER
  2
103
 70
     0
 62
     2
  6
CONTINUOUS
  0
LAYER
  2
104
 70
     0
 62
    11
  6
CONTINUOUS
  0
LAYER
  2
105
 70
     0
 62
     3
  6
CONTINUOUS
  0
LAYER
  2
106
 70
     0
 62
     5
  6
CONTINUOUS
  0
LAYER
  2
107
 70
     0
 62
     3
  6
CONTINUOUS
  0
LAYER
  2
108
 70
     0
 62
     5
  6
CONTINUOUS
  0
LAYER
  2
109
 70
     0
 62
     3
  6
CONTINUOUS
  0
LAYER
  2
197
 70
     0
 62
     3
  6
CONTINUOUS
  0
LAYER
  2
198
 70
     0
 62
     2
  6
CONTINUOUS
  0
LAYER
  2
199
 70
     0
 62
     6
  6
CONTINUOUS
  0
LAYER
  2
200
 70
     0
 62
     7
  6
ESTILO_TQS_0002
  0
LAYER
  2
201
 70
     0
 62
     7
  6
ESTILO_TQS_0001
  0
LAYER
  2
202
 70
     0
 62
     7
  6
CONTINUOUS
  0
LAYER
  2
203
 70
     0
 62
     7
  6
ESTILO_TQS_0001
  0
LAYER
  2
204
 70
     0
 62
     7
  6
ESTILO_TQS_0003
  0
LAYER
  2
205
 70
     0
 62
     5
  6
ESTILO_TQS_0004
  0
LAYER
  2
206
 70
     0
 62
    15
  6
CONTINUOUS
  0
LAYER
  2
207
 70
     0
 62
     2
  6
CONTINUOUS
  0
LAYER
  2
208
 70
     0
 62
     5
  6
CONTINUOUS
  0
LAYER
  2
210
 70
     0
 62
    15
  6
ESTILO_TQS_0002
  0
LAYER
  2
211
 70
     0
 62
     7
  6
ESTILO_TQS_0001
  0
LAYER
  2
214
 70
     0
 62
    15
  6
CONTINUOUS
  0
LAYER
  2
215
 70
     0
 62
     2
  6
CONTINUOUS
  0
LAYER
  2
216
 70
     0
 62
     3
  6
CONTINUOUS
  0
LAYER
  2
217
 70
     0
 62
     3
  6
CONTINUOUS
  0
LAYER
  2
218
 70
     0
 62
     2
  6
CONTINUOUS
  0
LAYER
  2
219
 70
     0
 62
    15
  6
CONTINUOUS
  0
LAYER
  2
220
 70
     0
 62
    10
  6
CONTINUOUS
  0
LAYER
  2
221
 70
     0
 62
    11
  6
CONTINUOUS
  0
LAYER
  2
222
 70
     0
 62
    12
  6
CONTINUOUS
  0
LAYER
  2
223
 70
     0
 62
     6
  6
CONTINUOUS
  0
LAYER
  2
224
 70
     0
 62
     1
  6
CONTINUOUS
  0
LAYER
  2
225
 70
     0
 62
    15
  6
CONTINUOUS
  0
LAYER
  2
226
 70
     0
 62
     2
  6
CONTINUOUS
  0
LAYER
  2
227
 70
     0
 62
    10
  6
CONTINUOUS
  0
LAYER
  2
228
 70
     0
 62
    11
  6
CONTINUOUS
  0
LAYER
  2
229
 70
     0
 62
    12
  6
CONTINUOUS
  0
LAYER
  2
230
 70
     0
 62
     6
  6
CONTINUOUS
  0
LAYER
  2
231
 70
     0
 62
     3
  6
CONTINUOUS
  0
LAYER
  2
232
 70
     0
 62
    12
  6
CONTINUOUS
  0
LAYER
  2
233
 70
     0
 62
     4
  6
CONTINUOUS
  0
LAYER
  2
234
 70
     0
 62
    13
  6
CONTINUOUS
  0
LAYER
  2
235
 70
     0
 62
     5
  6
CONTINUOUS
  0
LAYER
  2
236
 70
     0
 62
     2
  6
CONTINUOUS
  0
LAYER
  2
237
 70
     0
 62
     6
  6
CONTINUOUS
  0
LAYER
  2
238
 70
     0
 62
    12
  6
CONTINUOUS
  0
LAYER
  2
239
 70
     0
 62
    11
  6
CONTINUOUS
  0
LAYER
  2
240
 70
     0
 62
    11
  6
CONTINUOUS
  0
LAYER
  2
241
 70
     0
 62
    12
  6
CONTINUOUS
  0
ENDTAB
  0
TABLE
  2
STYLE
 70
     1
  0
STYLE
  2
STANDARD
 70
    64
 40
0.000000
 41
1.000000
 50
0.000000
 71
     0
 42
0.200000
  3
ROMANS.SHX
  4

  0
STYLE
  2
TQS_CALIBRI
 70
     0
 40
0.000000
 41
1.000000
 50
0.000000
 71
     0
 42
0.200000
  3
calibri.ttf
  0
STYLE
  2
TQS_CALIBRI_U
 70
     0
 40
0.000000
 41
1.000000
 50
0.000000
 71
     0
 42
0.200000
  3
calibri.ttf
  0
STYLE
  2
TQS_CALIBRI_I
 70
     0
 40
0.000000
 41
1.000000
 50
0.000000
 71
     0
 42
0.200000
  3
calibri.ttf
  0
STYLE
  2
TQS_CALIBRI_I_U
 70
     0
 40
0.000000
 41
1.000000
 50
0.000000
 71
     0
 42
0.200000
  3
calibri.ttf
  0
STYLE
  2
TQS_CALIBRI_B
 70
     0
 40
0.000000
 41
1.000000
 50
0.000000
 71
     0
 42
0.200000
  3
calibri.ttf
  0
STYLE
  2
TQS_CALIBRI_B_U
 70
     0
 40
0.000000
 41
1.000000
 50
0.000000
 71
     0
 42
0.200000
  3
calibri.ttf
  0
STYLE
  2
TQS_CALIBRI_B_I
 70
     0
 40
0.000000
 41
1.000000
 50
0.000000
 71
     0
 42
0.200000
  3
calibri.ttf
  0
STYLE
  2
TQS_CALIBRI_B_I_U
 70
     0
 40
0.000000
 41
1.000000
 50
0.000000
 71
     0
 42
0.200000
  3
calibri.ttf
  0
ENDTAB
  0
TABLE
  2
VIEW
 70
     0
  0
ENDTAB
  0
ENDSEC
  0
SECTION
  2
BLOCKS
  0
BLOCK
  8
0
  2
_PLWTQS
 70
    64
 10
0.000000
 20
0.000000
  0
TEXT
  8
0
  6
CONTINUOUS
 10
0.000000
 20
0.000000
 40
0.200000
  1
$PLWDWGGlBMVwAAAAAAAChABAAAAMHC82deG7a4TWoBHUHqWtcFPiKQt4diP7hd04bCF6ZmY4pmV5yA1E0YhskNr3hGvJzSOVrZxrWIjLvuTcUlo55/JSpC9PZvyC1v8y0k4gqmbd4wAUc8CWhkT8a30/KXbtIzJsVuyFFAjDOuDr334qk=
  7
TQS_CALIBRI
  0
TEXT
  8
0
  6
CONTINUOUS
 10
0.000000
 20
-0.250000
 40
0.200000
  1
$PLWDWGPpnu2h5BmxrV3TiAD2gW3wjTuRpgxdXnq8jpMcAehfEYFf/T9m6KFfDDVHX1hkv7XPS3B4xuPPEBx3DmSt2YCkmsoJ2Pkwaj2C1T+pk6UU29iBbGZak78lUEWEp9AOtLak3fhMqLXo7evGDI5POliN0lyDfp6glf05OcBHRn2xE=
  7
TQS_CALIBRI
  0
TEXT
  8
0
  6
CONTINUOUS
 10
0.000000
 20
-0.500000
 40
0.200000
  1
$PLWDWGSoReJnqmGixDG5tH9pm8V1BzA20HuNavtYMvd4fOIkYyPl4PnbhsboQc4sWuSEUpbe22ykEily1U8s/inhl5Bt1VlLjDITsGbKcI2oMGTZ6H02DXl7kEyhgnDgi99hmZJayFTEHT/OdumA04zOIDKy6M/Nmbu/fm5QR5G2KFT8M=
  7
TQS_CALIBRI
  0
TEXT
  8
0
  6
CONTINUOUS
 10
0.000000
 20
-0.750000
 40
0.200000
  1
$PLWDWGvrzhCZOSmqiL/FBaVqi0QyWxOUwnookNzmbdzylpWY3yqYRTY8yaLKntypFNUqx6y9Fsv9FwA1d+7Zo3lQjf8tUGZGra7le7gBuMxg2LBLMFn3IyzHBXI/CddXed2vrNOQDVR4yDtsuKmG8It5k/oGL+YFQp946KuW5Lil627EY=
  7
TQS_CALIBRI
  0
TEXT
  8
0
  6
CONTINUOUS
 10
0.000000
 20
-1.000000
 40
0.200000
  1
$PLWDWGUnORkgaPY5lbjUiA6xWEs41v/p/VA8TeOon0IcBYLdyffwQhmmZUYcqQCbJV2gQpVrGsVUU5GoMpEshoD4YcgsPrDU6xGfyos7+JxbgNJ2Ug0TRFvyaqcQiZqhw4nUPIHKXvzvzYM2qfhwJLKsN8ZNwKcuPYxNPpposjozX1mM4=
  7
TQS_CALIBRI
  0
TEXT
  8
0
  6
CONTINUOUS
 10
0.000000
 20
-1.250000
 40
0.200000
  1
$PLWDWGcYCq4Im+ZY7GVygNKxxpeHyvG6cBqn/vxPjXiyT8TDQAC2vkUVrDQMqbEnJN554JXlLx00Pzq4WSAsp9jcdNP2nevWmi3lIpX5xkfidlTAcYPjk0BRF5qP7hsGpMTCLP0kELCLGaJgzfv+GHV+wJ3ajynBlOGlAifOn7ANMGVbI=
  7
TQS_CALIBRI
  0
TEXT
  8
0
  6
CONTINUOUS
 10
0.000000
 20
-1.500000
 40
0.200000
  1
$PLWDWGAGncdgvVzilegvxUK8Bxj2r2eRzWWGhW5MJEoL8qGuK9smS1owLELQFqbP7ALz1COPeFbjhMH8OYn5/79XMaSWyUO4lR12qG4zMEfVp07ev1/zyF7WnGncCZryHGlrXH/JbmHgwsQHZWQLiD4PtWRweMbu6xlu1A5wX+DDh/rso=
  7
TQS_CALIBRI
  0
TEXT
  8
0
  6
CONTINUOUS
 10
0.000000
 20
-1.750000
 40
0.200000
  1
$PLWDWGm5ohOnpoC4dHYlLPnDV7BdRbQqIuqSNt95IYq5+Zqaqk59WEtXxT+jmpaEayxRYFmsHNUkysCTcAAAAANTcSRKMZNv6dSVCKuDEmpZrBzVJMrAk3AAAAAA==
  7
TQS_CALIBRI
  0
ENDBLK
  8
0
  0
ENDSEC
  0
SECTION
  2
ENTITIES
  0
SOLID
  8
13
  6
CONTINUOUS
 10
102.095046
 20
10.244446
 11
102.095046
 21
9.498246
 12
101.971546
 22
9.498246
 13
101.971546
 23
9.498246
  0
SOLID
  8
13
  6
CONTINUOUS
 10
102.095046
 20
10.244446
 11
101.971546
 21
9.498246
 12
101.971546
 22
11.162246
 13
101.971546
 23
11.162246
  0
SOLID
  8
13
  6
CONTINUOUS
 10
102.095046
 20
10.244446
 11
101.971546
 21
11.162246
 12
102.095046
 22
11.162246
 13
102.095046
 23
11.162246
  0
SOLID
  8
13
  6
CONTINUOUS
 10
102.095046
 20
10.244446
 11
102.095046
 21
11.162246
 12
102.095046
 22
10.244446
 13
102.095046
 23
10.244446
  0
SOLID
  8
13
  6
CONTINUOUS
 10
102.522746
 20
10.230979
 11
102.522746
 21
9.498246
 12
102.095046
 22
9.498246
 13
102.095046
 23
9.498246
  0
SOLID
  8
13
  6
CONTINUOUS
 10
102.522746
 20
10.230979
 11
102.095046
 21
9.498246
 12
102.095046
 22
10.244446
 13
102.095046
 23
10.244446
  0
SOLID
  8
13
  6
CONTINUOUS
 10
102.522746
 20
10.230979
 11
102.095046
 21
10.244446
 12
102.143544
 22
10.248642
 13
102.143544
 23
10.248642
  0
SOLID
  8
13
  6
CONTINUOUS
 10
102.522746
 20
10.230979
 11
102.143544
 21
10.248642
 12
102.211078
 22
10.252071
 13
102.211078
 23
10.252071
  0
SOLID
  8
13
  6
CONTINUOUS
 10
102.522746
 20
10.230979
 11
102.211078
 21
10.252071
 12
102.259959
 22
10.252484
 13
102.259959
 23
10.252484
  0
SOLID
  8
13
  6
CONTINUOUS
 10
102.522746
 20
10.230979
 11
102.259959
 21
10.252484
 12
102.290321
 22
10.252141
 13
102.290321
 23
10.252141
  0
SOLID
  8
13
  6
CONTINUOUS
 10
102.522746
 20
10.230979
 11
102.290321
 21
10.252141
 12
102.334203
 22
10.250668
 13
102.334203
 23
10.250668
  0
SOLID
  8
13
  6
CONTINUOUS
 10
102.522746
 20
10.230979
 11
102.334203
 21
10.250668
 12
102.394518
 22
10.246747
 13
102.394518
 23
10.246747
  0
SOLID
  8
13
  6
CONTINUOUS
 10
102.522746
 20
10.230979
 11
102.394518
 21
10.246747
 12
102.446340
 22
10.241621
 13
102.446340
 23
10.241621
  0
SOLID
  8
13
  6
CONTINUOUS
 10
102.522746
 20
10.230979
 11
102.446340
 21
10.241621
 12
102.490083
 22
10.235974
 13
102.490083
 23
10.235974
  0
SOLID
  8
13
  6
CONTINUOUS
 10
102.522746
 20
10.230979
 11
102.490083
 21
10.235974
 12
102.522746
 22
10.230979
 13
102.522746
 23
10.230979
  0
SOLID
  8
13
  6
CONTINUOUS
 10
102.594246
 20
10.217654
 11
102.594246
 21
9.498246
 12
103.021946
 22
9.498246
 13
103.021946
 23
9.498246
  0
SOLID
  8
13
  6
CONTINUOUS
 10
102.594246
 20
10.217654
 11
103.021946
 21
9.498246
 12
103.021946
 22
10.064184
 13
103.021946
 23
10.064184
  0
SOLID
  8
13
  6
CONTINUOUS
 10
102.594246
 20
10.217654
 11
103.021946
 21
10.064184
 12
103.003898
 22
10.073542
 13
103.003898
 23
10.073542
  0
SOLID
  8
13
  6
CONTINUOUS
 10
102.594246
 20
10.217654
 11
103.003898
 21
10.073542
 12
102.981716
 22
10.084501
 13
102.981716
 23
10.084501
  0
SOLID
  8
13
  6
CONTINUOUS
 10
102.594246
 20
10.217654
 11
102.981716
 21
10.084501
 12
102.953307
 22
10.098271
 13
102.953307
 23
10.098271
  0
SOLID
  8
13
  6
CONTINUOUS
 10
102.594246
 20
10.217654
 11
102.953307
 21
10.098271
 12
102.912865
 22
10.116383
 13
102.912865
 23
10.116383
  0
SOLID
  8
13
  6
CONTINUOUS
 10
102.594246
 20
10.217654
 11
102.912865
 21
10.116383
 12
102.885024
 22
10.128001
 13
102.885024
 23
10.128001
  0
SOLID
  8
13
  6
CONTINUOUS
 10
102.594246
 20
10.217654
 11
102.885024
 21
10.128001
 12
102.844071
 22
10.144755
 13
102.844071
 23
10.144755
  0
SOLID
  8
13
  6
CONTINUOUS
 10
102.594246
 20
10.217654
 11
102.844071
 21
10.144755
 12
102.813490
 22
10.155923
 13
102.813490
 23
10.155923
  0
SOLID
  8
13
  6
CONTINUOUS
 10
102.594246
 20
10.217654
 11
102.813490
 21
10.155923
 12
102.778388
 22
10.168156
 13
102.778388
 23
10.168156
  0
SOLID
  8
13
  6
CONTINUOUS
 10
102.594246
 20
10.217654
 11
102.778388
 21
10.168156
 12
102.744083
 22
10.178793
 13
102.744083
 23
10.178793
  0
SOLID
  8
13
  6
CONTINUOUS
 10
102.594246
 20
10.217654
 11
102.744083
 21
10.178793
 12
102.703465
 22
10.191172
 13
102.703465
 23
10.191172
  0
SOLID
  8
13
  6
CONTINUOUS
 10
102.594246
 20
10.217654
 11
102.703465
 21
10.191172
 12
102.665141
 22
10.201162
 13
102.665141
 23
10.201162
  0
SOLID
  8
13
  6
CONTINUOUS
 10
102.594246
 20
10.217654
 11
102.665141
 21
10.201162
 12
102.624819
 22
10.210970
 13
102.624819
 23
10.210970
  0
SOLID
  8
13
  6
CONTINUOUS
 10
102.594246
 20
10.217654
 11
102.624819
 21
10.210970
 12
102.594246
 22
10.217654
 13
102.594246
 23
10.217654
  0
SOLID
  8
13
  6
CONTINUOUS
 10
103.093446
 20
10.024343
 11
103.093446
 21
9.498246
 12
103.521146
 22
9.498246
 13
103.521146
 23
9.498246
  0
SOLID
  8
13
  6
CONTINUOUS
 10
103.093446
 20
10.024343
 11
103.521146
 21
9.498246
 12
103.521146
 22
9.661030
 13
103.521146
 23
9.661030
  0
SOLID
  8
13
  6
CONTINUOUS
 10
103.093446
 20
10.024343
 11
103.521146
 21
9.661030
 12
103.507797
 22
9.676793
 13
103.507797
 23
9.676793
  0
SOLID
  8
13
  6
CONTINUOUS
 10
103.093446
 20
10.024343
 11
103.507797
 21
9.676793
 12
103.495964
 22
9.690528
 13
103.495964
 23
9.690528
  0
SOLID
  8
13
  6
CONTINUOUS
 10
103.093446
 20
10.024343
 11
103.495964
 21
9.690528
 12
103.473877
 22
9.715277
 13
103.473877
 23
9.715277
  0
SOLID
  8
13
  6
CONTINUOUS
 10
103.093446
 20
10.024343
 11
103.473877
 21
9.715277
 12
103.454164
 22
9.736530
 13
103.454164
 23
9.736530
  0
SOLID
  8
13
  6
CONTINUOUS
 10
103.093446
 20
10.024343
 11
103.454164
 21
9.736530
 12
103.434048
 22
9.757502
 13
103.434048
 23
9.757502
  0
SOLID
  8
13
  6
CONTINUOUS
 10
103.093446
 20
10.024343
 11
103.434048
 21
9.757502
 12
103.410015
 22
9.781535
 13
103.410015
 23
9.781535
  0
SOLID
  8
13
  6
CONTINUOUS
 10
103.093446
 20
10.024343
 11
103.410015
 21
9.781535
 12
103.399294
 22
9.791943
 13
103.399294
 23
9.791943
  0
SOLID
  8
13
  6
CONTINUOUS
 10
103.093446
 20
10.024343
 11
103.399294
 21
9.791943
 12
103.388429
 22
9.802406
 13
103.388429
 23
9.802406
  0
SOLID
  8
13
  6
CONTINUOUS
 10
103.093446
 20
10.024343
 11
103.388429
 21
9.802406
 12
103.359952
 22
9.828752
 13
103.359952
 23
9.828752
  0
SOLID
  8
13
  6
CONTINUOUS
 10
103.093446
 20
10.024343
 11
103.359952
 21
9.828752
 12
103.325139
 22
9.859181
 13
103.325139
 23
9.859181
  0
SOLID
  8
13
  6
CONTINUOUS
 10
103.093446
 20
10.024343
 11
103.325139
 21
9.859181
 12
103.286846
 22
9.890826
 13
103.286846
 23
9.890826
  0
SOLID
  8
13
  6
CONTINUOUS
 10
103.093446
 20
10.024343
 11
103.286846
 21
9.890826
 12
103.251036
 22
9.918745
 13
103.251036
 23
9.918745
  0
SOLID
  8
13
  6
CONTINUOUS
 10
103.093446
 20
10.024343
 11
103.251036
 21
9.918745
 12
103.200839
 22
9.955427
 13
103.200839
 23
9.955427
  0
SOLID
  8
13
  6
CONTINUOUS
 10
103.093446
 20
10.024343
 11
103.200839
 21
9.955427
 12
103.134352
 22
9.999676
 13
103.134352
 23
9.999676
  0
SOLID
  8
13
  6
CONTINUOUS
 10
103.093446
 20
10.024343
 11
103.134352
 21
9.999676
 12
103.093446
 22
10.024343
 13
103.093446
 23
10.024343
  0
SOLID
  8
13
  6
CONTINUOUS
 10
102.522746
 20
10.635283
 11
102.522746
 21
11.162246
 12
102.095046
 22
11.162246
 13
102.095046
 23
11.162246
  0
SOLID
  8
13
  6
CONTINUOUS
 10
102.522746
 20
10.635283
 11
102.095046
 21
11.162246
 12
102.095046
 22
10.995122
 13
102.095046
 23
10.995122
  0
SOLID
  8
13
  6
CONTINUOUS
 10
102.522746
 20
10.635283
 11
102.095046
 21
10.995122
 12
102.153689
 22
10.929235
 13
102.153689
 23
10.929235
  0
SOLID
  8
13
  6
CONTINUOUS
 10
102.522746
 20
10.635283
 11
102.153689
 21
10.929235
 12
102.237359
 22
10.846559
 13
102.237359
 23
10.846559
  0
SOLID
  8
13
  6
CONTINUOUS
 10
102.522746
 20
10.635283
 11
102.237359
 21
10.846559
 12
102.308389
 22
10.784730
 13
102.308389
 23
10.784730
  0
SOLID
  8
13
  6
CONTINUOUS
 10
102.522746
 20
10.635283
 11
102.308389
 21
10.784730
 12
102.366624
 22
10.739274
 13
102.366624
 23
10.739274
  0
SOLID
  8
13
  6
CONTINUOUS
 10
102.522746
 20
10.635283
 11
102.366624
 21
10.739274
 12
102.406322
 22
10.710064
 13
102.406322
 23
10.710064
  0
SOLID
  8
13
  6
CONTINUOUS
 10
102.522746
 20
10.635283
 11
102.406322
 21
10.710064
 12
102.455827
 22
10.676682
 13
102.455827
 23
10.676682
  0
SOLID
  8
13
  6
CONTINUOUS
 10
102.522746
 20
10.635283
 11
102.455827
 21
10.676682
 12
102.493954
 22
10.652515
 13
102.493954
 23
10.652515
  0
SOLID
  8
13
  6
CONTINUOUS
 10
102.522746
 20
10.635283
 11
102.493954
 21
10.652515
 12
102.522746
 22
10.635283
 13
102.522746
 23
10.635283
  0
SOLID
  8
13
  6
CONTINUOUS
 10
103.021946
 20
10.443678
 11
103.021946
 21
11.162246
 12
102.594246
 22
11.162246
 13
102.594246
 23
11.162246
  0
SOLID
  8
13
  6
CONTINUOUS
 10
103.021946
 20
10.443678
 11
102.594246
 21
11.162246
 12
102.594246
 22
10.595859
 13
102.594246
 23
10.595859
  0
SOLID
  8
13
  6
CONTINUOUS
 10
103.021946
 20
10.443678
 11
102.594246
 21
10.595859
 12
102.663800
 22
10.561766
 13
102.663800
 23
10.561766
  0
SOLID
  8
13
  6
CONTINUOUS
 10
103.021946
 20
10.443678
 11
102.663800
 21
10.561766
 12
102.744359
 22
10.527375
 13
102.744359
 23
10.527375
  0
SOLID
  8
13
  6
CONTINUOUS
 10
103.021946
 20
10.443678
 11
102.744359
 21
10.527375
 12
102.812197
 22
10.501464
 13
102.812197
 23
10.501464
  0
SOLID
  8
13
  6
CONTINUOUS
 10
103.021946
 20
10.443678
 11
102.812197
 21
10.501464
 12
102.889458
 22
10.476967
 13
102.889458
 23
10.476967
  0
SOLID
  8
13
  6
CONTINUOUS
 10
103.021946
 20
10.443678
 11
102.889458
 21
10.476967
 12
102.950702
 22
10.460007
 13
102.950702
 23
10.460007
  0
SOLID
  8
13
  6
CONTINUOUS
 10
103.021946
 20
10.443678
 11
102.950702
 21
10.460007
 12
103.021946
 22
10.443678
 13
103.021946
 23
10.443678
  0
SOLID
  8
13
  6
CONTINUOUS
 10
103.093446
 20
10.430307
 11
103.093446
 21
11.162246
 12
103.521146
 22
11.162246
 13
103.521146
 23
11.162246
  0
SOLID
  8
13
  6
CONTINUOUS
 10
103.093446
 20
10.430307
 11
103.521146
 21
11.162246
 12
103.521146
 22
10.417580
 13
103.521146
 23
10.417580
  0
SOLID
  8
13
  6
CONTINUOUS
 10
103.093446
 20
10.430307
 11
103.521146
 21
10.417580
 12
103.476372
 22
10.413637
 13
103.476372
 23
10.413637
  0
SOLID
  8
13
  6
CONTINUOUS
 10
103.093446
 20
10.430307
 11
103.476372
 21
10.413637
 12
103.416577
 22
10.410480
 13
103.416577
 23
10.410480
  0
SOLID
  8
13
  6
CONTINUOUS
 10
103.093446
 20
10.430307
 11
103.416577
 21
10.410480
 12
103.366788
 22
10.409453
 13
103.366788
 23
10.409453
  0
SOLID
  8
13
  6
CONTINUOUS
 10
103.093446
 20
10.430307
 11
103.366788
 21
10.409453
 12
103.336830
 22
10.409453
 13
103.336830
 23
10.409453
  0
SOLID
  8
13
  6
CONTINUOUS
 10
103.093446
 20
10.430307
 11
103.336830
 21
10.409453
 12
103.286182
 22
10.410821
 13
103.286182
 23
10.410821
  0
SOLID
  8
13
  6
CONTINUOUS
 10
103.093446
 20
10.430307
 11
103.286182
 21
10.410821
 12
103.241261
 22
10.413321
 13
103.241261
 23
10.413321
  0
SOLID
  8
13
  6
CONTINUOUS
 10
103.093446
 20
10.430307
 11
103.241261
 21
10.413321
 12
103.205545
 22
10.416539
 13
103.205545
 23
10.416539
  0
SOLID
  8
13
  6
CONTINUOUS
 10
103.093446
 20
10.430307
 11
103.205545
 21
10.416539
 12
103.155349
 22
10.421044
 13
103.155349
 23
10.421044
  0
SOLID
  8
13
  6
CONTINUOUS
 10
103.093446
 20
10.430307
 11
103.155349
 21
10.421044
 12
103.093446
 22
10.430307
 13
103.093446
 23
10.430307
  0
SOLID
  8
13
  6
CONTINUOUS
 10
102.594246
 20
9.498246
 11
102.594246
 21
11.162246
 12
102.522746
 22
11.162246
 13
102.522746
 23
11.162246
  0
SOLID
  8
13
  6
CONTINUOUS
 10
102.594246
 20
9.498246
 11
102.522746
 21
11.162246
 12
102.522746
 22
9.498246
 13
102.522746
 23
9.498246
  0
SOLID
  8
13
  6
CONTINUOUS
 10
102.594246
 20
9.498246
 11
102.522746
 21
9.498246
 12
102.522746
 22
9.498246
 13
102.522746
 23
9.498246
  0
SOLID
  8
13
  6
CONTINUOUS
 10
103.021946
 20
11.162246
 11
103.093446
 21
11.162246
 12
103.093446
 22
9.498246
 13
103.093446
 23
9.498246
  0
SOLID
  8
13
  6
CONTINUOUS
 10
103.021946
 20
11.162246
 11
103.093446
 21
9.498246
 12
103.021946
 22
9.498246
 13
103.021946
 23
9.498246
  0
SOLID
  8
13
  6
CONTINUOUS
 10
103.021946
 20
11.162246
 11
103.021946
 21
9.498246
 12
103.021946
 22
11.162246
 13
103.021946
 23
11.162246
  0
SOLID
  8
13
  6
CONTINUOUS
 10
103.521146
 20
9.498246
 11
103.635546
 21
9.498246
 12
103.635546
 22
11.162246
 13
103.635546
 23
11.162246
  0
SOLID
  8
13
  6
CONTINUOUS
 10
103.521146
 20
9.498246
 11
103.635546
 21
11.162246
 12
103.521146
 22
11.162246
 13
103.521146
 23
11.162246
  0
SOLID
  8
13
  6
CONTINUOUS
 10
103.521146
 20
9.498246
 11
103.521146
 21
11.162246
 12
103.521146
 22
9.498246
 13
103.521146
 23
9.498246
  0
POLYLINE
  8
1
  6
CONTINUOUS
 66
     1
  0
VERTEX
  8
1
  6
CONTINUOUS
 10
98.324871
 20
49.742326
  0
VERTEX
  8
1
  6
CONTINUOUS
 10
99.650137
 20
49.630163
  0
SEQEND
  8
1
  6
CONTINUOUS
  0
POLYLINE
  8
1
  6
CONTINUOUS
 66
     1
  0
VERTEX
  8
1
  6
CONTINUOUS
 10
99.692303
 20
50.128382
  0
VERTEX
  8
1
  6
CONTINUOUS
 10
98.366953
 20
50.240552
  0
SEQEND
  8
1
  6
CONTINUOUS
  0
POLYLINE
  8
1
  6
CONTINUOUS
 66
     1
  0
VERTEX
  8
1
  6
CONTINUOUS
 10
88.493504
 20
50.574397
  0
VERTEX
  8
1
  6
CONTINUOUS
 10
97.162360
 20
49.840714
  0
SEQEND
  8
1
  6
CONTINUOUS
  0
POLYLINE
  8
1
  6
CONTINUOUS
 66
     1
  0
VERTEX
  8
1
  6
CONTINUOUS
 10
97.204442
 20
50.338940
  0
VERTEX
  8
1
  6
CONTINUOUS
 10
88.535586
 20
51.072622
  0
SEQEND
  8
1
  6
CONTINUOUS
  0
POLYLINE
  8
1
  6
CONTINUOUS
 66
     1
  0
VERTEX
  8
1
  6
CONTINUOUS
 10
77.698763
 20
51.488002
  0
VERTEX
  8
1
  6
CONTINUOUS
 10
87.995285
 20
50.616563
  0
SEQEND
  8
1
  6
CONTINUOUS
  0
POLYLINE
  8
1
  6
CONTINUOUS
 66
     1
  0
VERTEX
  8
1
  6
CONTINUOUS
 10
88.037368
 20
51.114789
  0
VERTEX
  8
1
  6
CONTINUOUS
 10
77.740845
 20
51.986228
  0
SEQEND
  8
1
  6
CONTINUOUS
  0
POLYLINE
  8
1
  6
CONTINUOUS
 66
     1
  0
VERTEX
  8
1
  6
CONTINUOUS
 10
68.564751
 20
52.261052
  0
VERTEX
  8
1
  6
CONTINUOUS
 10
77.200544
 20
51.530168
  0
SEQEND
  8
1
  6
CONTINUOUS
  0
POLYLINE
  8
1
  6
CONTINUOUS
 66
     1
  0
VERTEX
  8
1
  6
CONTINUOUS
 10
77.242627
 20
52.028394
  0
VERTEX
  8
1
  6
CONTINUOUS
 10
68.606834
 20
52.759278
  0
SEQEND
  8
1
  6
CONTINUOUS
  0
POLYLINE
  8
1
  6
CONTINUOUS
 66
     1
  0
VERTEX
  8
1
  6
CONTINUOUS
 10
60.635997
 20
52.932097
  0
VERTEX
  8
1
  6
CONTINUOUS
 10
68.066533
 20
52.303219
  0
SEQEND
  8
1
  6
CONTINUOUS
  0
POLYLINE
  8
1
  6
CONTINUOUS
 66
     1
  0
VERTEX
  8
1
  6
CONTINUOUS
 10
68.108615
 20
52.801444
  0
VERTEX
  8
1
  6
CONTINUOUS
 10
60.678079
 20
53.430322
  0
SEQEND
  8
1
  6
CONTINUOUS
  0
POLYLINE
  8
1
  6
CONTINUOUS
 66
     1
  0
VERTEX
  8
1
  6
CONTINUOUS
 10
51.957458
 20
53.666598
  0
VERTEX
  8
1
  6
CONTINUOUS
 10
59.473486
 20
53.030485
  0
SEQEND
  8
1
  6
CONTINUOUS
  0
POLYLINE
  8
1
  6
CONTINUOUS
 66
     1
  0
VERTEX
  8
1
  6
CONTINUOUS
 10
59.515569
 20
53.528711
  0
VERTEX
  8
1
  6
CONTINUOUS
 10
51.999540
 20
54.164824
  0
SEQEND
  8
1
  6
CONTINUOUS
  0
POLYLINE
  8
1
  6
CONTINUOUS
 66
     1
  0
VERTEX
  8
1
  6
CONTINUOUS
 10
45.314540
 20
54.228817
  0
VERTEX
  8
1
  6
CONTINUOUS
 10
51.459239
 20
53.708765
  0
SEQEND
  8
1
  6
CONTINUOUS
  0
POLYLINE
  8
1
  6
CONTINUOUS
 66
     1
  0
VERTEX
  8
1
  6
CONTINUOUS
 10
51.501321
 20
54.206991
  0
VERTEX
  8
1
  6
CONTINUOUS
 10
45.356622
 20
54.727043
  0
SEQEND
  8
1
  6
CONTINUOUS
  0
POLYLINE
  8
1
  6
CONTINUOUS
 66
     1
  0
VERTEX
  8
1
  6
CONTINUOUS
 10
37.113444
 20
54.922911
  0
VERTEX
  8
1
  6
CONTINUOUS
 10
44.816321
 20
54.270983
  0
SEQEND
  8
1
  6
CONTINUOUS
  0
POLYLINE
  8
1
  6
CONTINUOUS
 66
     1
  0
VERTEX
  8
1
  6
CONTINUOUS
 10
44.858404
 20
54.769209
  0
VERTEX
  8
1
  6
CONTINUOUS
 10
37.155526
 20
55.421137
  0
SEQEND
  8
1
  6
CONTINUOUS
  0
POLYLINE
  8
1
  6
CONTINUOUS
 66
     1
  0
VERTEX
  8
1
  6
CONTINUOUS
 10
27.647286
 20
55.724072
  0
VERTEX
  8
1
  6
CONTINUOUS
 10
35.950933
 20
55.021299
  0
SEQEND
  8
1
  6
CONTINUOUS
  0
POLYLINE
  8
1
  6
CONTINUOUS
 66
     1
  0
VERTEX
  8
1
  6
CONTINUOUS
 10
35.993016
 20
55.519525
  0
VERTEX
  8
1
  6
CONTINUOUS
 10
27.689369
 20
56.222298
  0
SEQEND
  8
1
  6
CONTINUOUS
  0
POLYLINE
  8
1
  6
CONTINUOUS
 66
     1
  0
VERTEX
  8
1
  6
CONTINUOUS
 10
18.062591
 20
56.535266
  0
VERTEX
  8
1
  6
CONTINUOUS
 10
27.149067
 20
55.766239
  0
SEQEND
  8
1
  6
CONTINUOUS
  0
POLYLINE
  8
1
  6
CONTINUOUS
 66
     1
  0
VERTEX
  8
1
  6
CONTINUOUS
 10
27.191150
 20
56.264465
  0
VERTEX
  8
1
  6
CONTINUOUS
 10
18.104673
 20
57.033492
  0
SEQEND
  8
1
  6
CONTINUOUS
  0
POLYLINE
  8
1
  6
CONTINUOUS
 66
     1
  0
VERTEX
  8
1
  6
CONTINUOUS
 10
9.260725
 20
57.280206
  0
VERTEX
  8
1
  6
CONTINUOUS
 10
17.564372
 20
56.577432
  0
SEQEND
  8
1
  6
CONTINUOUS
  0
POLYLINE
  8
1
  6
CONTINUOUS
 66
     1
  0
VERTEX
  8
1
  6
CONTINUOUS
 10
17.606455
 20
57.075658
  0
VERTEX
  8
1
  6
CONTINUOUS
 10
9.302807
 20
57.778432
  0
SEQEND
  8
1
  6
CONTINUOUS
  0
POLYLINE
  8
1
  6
CONTINUOUS
 66
     1
  0
VERTEX
  8
1
  6
CONTINUOUS
 10
7.018029
 20
57.470015
  0
VERTEX
  8
1
  6
CONTINUOUS
 10
8.098214
 20
57.378594
  0
SEQEND
  8
1
  6
CONTINUOUS
  0
POLYLINE
  8
1
  6
CONTINUOUS
 66
     1
  0
VERTEX
  8
1
  6
CONTINUOUS
 10
8.140297
 20
57.876820
  0
VERTEX
  8
1
  6
CONTINUOUS
 10
6.519091
 20
58.014029
  0
SEQEND
  8
1
  6
CONTINUOUS
  0
POLYLINE
  8
1
  6
CONTINUOUS
 66
     1
  0
VERTEX
  8
1
  6
CONTINUOUS
 10
99.650137
 20
49.630163
  0
VERTEX
  8
1
  6
CONTINUOUS
 10
99.692303
 20
50.128382
  0
SEQEND
  8
1
  6
CONTINUOUS
  0
POLYLINE
  8
1
  6
CONTINUOUS
 66
     1
  0
VERTEX
  8
1
  6
CONTINUOUS
 10
6.970370
 20
16.036388
  0
VERTEX
  8
1
  6
CONTINUOUS
 10
6.968882
 20
15.275088
  0
SEQEND
  8
1
  6
CONTINUOUS
  0
POLYLINE
  8
1
  6
CONTINUOUS
 66
     1
  0
VERTEX
  8
1
  6
CONTINUOUS
 10
7.436388
 20
15.703851
  0
VERTEX
  8
1
  6
CONTINUOUS
 10
7.437036
 20
16.035476
  0
SEQEND
  8
1
  6
CONTINUOUS
  0
POLYLINE
  8
1
  6
CONTINUOUS
 66
     1
  0
VERTEX
  8
1
  6
CONTINUOUS
 10
6.988316
 20
25.216842
  0
VERTEX
  8
1
  6
CONTINUOUS
 10
6.971348
 20
16.536387
  0
SEQEND
  8
1
  6
CONTINUOUS
  0
POLYLINE
  8
1
  6
CONTINUOUS
 66
     1
  0
VERTEX
  8
1
  6
CONTINUOUS
 10
7.438013
 20
16.535475
  0
VERTEX
  8
1
  6
CONTINUOUS
 10
7.454982
 20
25.215929
  0
SEQEND
  8
1
  6
CONTINUOUS
  0
POLYLINE
  8
1
  6
CONTINUOUS
 66
     1
  0
VERTEX
  8
1
  6
CONTINUOUS
 10
7.007603
 20
35.083489
  0
VERTEX
  8
1
  6
CONTINUOUS
 10
6.989293
 20
25.716841
  0
SEQEND
  8
1
  6
CONTINUOUS
  0
POLYLINE
  8
1
  6
CONTINUOUS
 66
     1
  0
VERTEX
  8
1
  6
CONTINUOUS
 10
7.455959
 20
25.715928
  0
VERTEX
  8
1
  6
CONTINUOUS
 10
7.474269
 20
35.082577
  0
SEQEND
  8
1
  6
CONTINUOUS
  0
POLYLINE
  8
1
  6
CONTINUOUS
 66
     1
  0
VERTEX
  8
1
  6
CONTINUOUS
 10
31.457467
 20
13.202192
  0
VERTEX
  8
1
  6
CONTINUOUS
 10
40.394121
 20
12.445728
  0
SEQEND
  8
1
  6
CONTINUOUS
  0
POLYLINE
  8
1
  6
CONTINUOUS
 66
     1
  0
VERTEX
  8
1
  6
CONTINUOUS
 10
40.433479
 20
12.910732
  0
VERTEX
  8
1
  6
CONTINUOUS
 10
31.496825
 20
13.667196
  0
SEQEND
  8
1
  6
CONTINUOUS
  0
POLYLINE
  8
1
  6
CONTINUOUS
 66
     1
  0
VERTEX
  8
1
  6
CONTINUOUS
 10
22.126117
 20
13.992067
  0
VERTEX
  8
1
  6
CONTINUOUS
 10
30.959249
 20
13.244365
  0
SEQEND
  8
1
  6
CONTINUOUS
  0
POLYLINE
  8
1
  6
CONTINUOUS
 66
     1
  0
VERTEX
  8
1
  6
CONTINUOUS
 10
30.998607
 20
13.709369
  0
VERTEX
  8
1
  6
CONTINUOUS
 10
22.165475
 20
14.457071
  0
SEQEND
  8
1
  6
CONTINUOUS
  0
POLYLINE
  8
1
  6
CONTINUOUS
 66
     1
  0
VERTEX
  8
1
  6
CONTINUOUS
 10
14.611324
 20
14.628175
  0
VERTEX
  8
1
  6
CONTINUOUS
 10
21.627899
 20
14.034240
  0
SEQEND
  8
1
  6
CONTINUOUS
  0
POLYLINE
  8
1
  6
CONTINUOUS
 66
     1
  0
VERTEX
  8
1
  6
CONTINUOUS
 10
21.667257
 20
14.499244
  0
VERTEX
  8
1
  6
CONTINUOUS
 10
14.650682
 20
15.093179
  0
SEQEND
  8
1
  6
CONTINUOUS
  0
POLYLINE
  8
1
  6
CONTINUOUS
 66
     1
  0
VERTEX
  8
1
  6
CONTINUOUS
 10
6.968882
 20
15.275088
  0
VERTEX
  8
1
  6
CONTINUOUS
 10
14.113106
 20
14.670348
  0
SEQEND
  8
1
  6
CONTINUOUS
  0
POLYLINE
  8
1
  6
CONTINUOUS
 66
     1
  0
VERTEX
  8
1
  6
CONTINUOUS
 10
14.152464
 20
15.135352
  0
VERTEX
  8
1
  6
CONTINUOUS
 10
7.436388
 20
15.703851
  0
SEQEND
  8
1
  6
CONTINUOUS
  0
POLYLINE
  8
1
  6
CONTINUOUS
 66
     1
  0
VERTEX
  8
1
  6
CONTINUOUS
 10
94.733004
 20
7.310458
  0
VERTEX
  8
1
  6
CONTINUOUS
 10
96.058220
 20
7.198276
  0
SEQEND
  8
1
  6
CONTINUOUS
  0
POLYLINE
  8
1
  6
CONTINUOUS
 66
     1
  0
VERTEX
  8
1
  6
CONTINUOUS
 10
96.100395
 20
7.696494
  0
VERTEX
  8
1
  6
CONTINUOUS
 10
94.775182
 20
7.808676
  0
SEQEND
  8
1
  6
CONTINUOUS
  0
POLYLINE
  8
1
  6
CONTINUOUS
 66
     1
  0
VERTEX
  8
1
  6
CONTINUOUS
 10
81.836830
 20
8.402141
  0
VERTEX
  8
1
  6
CONTINUOUS
 10
94.234786
 20
7.352633
  0
SEQEND
  8
1
  6
CONTINUOUS
  0
POLYLINE
  8
1
  6
CONTINUOUS
 66
     1
  0
VERTEX
  8
1
  6
CONTINUOUS
 10
94.276964
 20
7.850851
  0
VERTEX
  8
1
  6
CONTINUOUS
 10
81.879008
 20
8.900359
  0
SEQEND
  8
1
  6
CONTINUOUS
  0
POLYLINE
  8
1
  6
CONTINUOUS
 66
     1
  0
VERTEX
  8
1
  6
CONTINUOUS
 10
71.872468
 20
9.245641
  0
VERTEX
  8
1
  6
CONTINUOUS
 10
81.338611
 20
8.444316
  0
SEQEND
  8
1
  6
CONTINUOUS
  0
POLYLINE
  8
1
  6
CONTINUOUS
 66
     1
  0
VERTEX
  8
1
  6
CONTINUOUS
 10
81.380790
 20
8.942534
  0
VERTEX
  8
1
  6
CONTINUOUS
 10
71.914646
 20
9.743858
  0
SEQEND
  8
1
  6
CONTINUOUS
  0
POLYLINE
  8
1
  6
CONTINUOUS
 66
     1
  0
VERTEX
  8
1
  6
CONTINUOUS
 10
61.282485
 20
10.142100
  0
VERTEX
  8
1
  6
CONTINUOUS
 10
71.374250
 20
9.287816
  0
SEQEND
  8
1
  6
CONTINUOUS
  0
POLYLINE
  8
1
  6
CONTINUOUS
 66
     1
  0
VERTEX
  8
1
  6
CONTINUOUS
 10
71.416428
 20
9.786033
  0
VERTEX
  8
1
  6
CONTINUOUS
 10
61.324654
 20
10.640319
  0
SEQEND
  8
1
  6
CONTINUOUS
  0
POLYLINE
  8
1
  6
CONTINUOUS
 66
     1
  0
VERTEX
  8
1
  6
CONTINUOUS
 10
51.417669
 20
10.977174
  0
VERTEX
  8
1
  6
CONTINUOUS
 10
60.784267
 20
10.184275
  0
SEQEND
  8
1
  6
CONTINUOUS
  0
POLYLINE
  8
1
  6
CONTINUOUS
 66
     1
  0
VERTEX
  8
1
  6
CONTINUOUS
 10
60.826436
 20
10.682494
  0
VERTEX
  8
1
  6
CONTINUOUS
 10
51.459839
 20
11.475392
  0
SEQEND
  8
1
  6
CONTINUOUS
  0
POLYLINE
  8
1
  6
CONTINUOUS
 66
     1
  0
VERTEX
  8
1
  6
CONTINUOUS
 10
41.710924
 20
11.798866
  0
VERTEX
  8
1
  6
CONTINUOUS
 10
50.587306
 20
11.047465
  0
SEQEND
  8
1
  6
CONTINUOUS
  0
POLYLINE
  8
1
  6
CONTINUOUS
 66
     1
  0
VERTEX
  8
1
  6
CONTINUOUS
 10
50.629475
 20
11.545684
  0
VERTEX
  8
1
  6
CONTINUOUS
 10
41.753093
 20
12.297084
  0
SEQEND
  8
1
  6
CONTINUOUS
  0
POLYLINE
  8
1
  6
CONTINUOUS
 66
     1
  0
VERTEX
  8
1
  6
CONTINUOUS
 10
96.058220
 20
7.198276
  0
VERTEX
  8
1
  6
CONTINUOUS
 10
96.100395
 20
7.696494
  0
SEQEND
  8
1
  6
CONTINUOUS
  0
POLYLINE
  8
1
  6
CONTINUOUS
 66
     1
  0
VERTEX
  8
1
  6
CONTINUOUS
 10
6.490560
 20
43.417849
  0
VERTEX
  8
1
  6
CONTINUOUS
 10
6.476290
 20
36.117863
  0
SEQEND
  8
1
  6
CONTINUOUS
  0
POLYLINE
  8
1
  6
CONTINUOUS
 66
     1
  0
VERTEX
  8
1
  6
CONTINUOUS
 10
6.976289
 20
36.116886
  0
VERTEX
  8
1
  6
CONTINUOUS
 10
6.990559
 20
43.416872
  0
SEQEND
  8
1
  6
CONTINUOUS
  0
POLYLINE
  8
1
  6
CONTINUOUS
 66
     1
  0
VERTEX
  8
1
  6
CONTINUOUS
 10
6.514831
 20
55.834492
  0
VERTEX
  8
1
  6
CONTINUOUS
 10
6.491537
 20
43.917848
  0
SEQEND
  8
1
  6
CONTINUOUS
  0
POLYLINE
  8
1
  6
CONTINUOUS
 66
     1
  0
VERTEX
  8
1
  6
CONTINUOUS
 10
6.991536
 20
43.916871
  0
VERTEX
  8
1
  6
CONTINUOUS
 10
7.014830
 20
55.833515
  0
SEQEND
  8
1
  6
CONTINUOUS
  0
POLYLINE
  8
1
  6
CONTINUOUS
 66
     1
  0
VERTEX
  8
1
  6
CONTINUOUS
 10
6.519091
 20
58.014029
  0
VERTEX
  8
1
  6
CONTINUOUS
 10
6.515808
 20
56.334491
  0
SEQEND
  8
1
  6
CONTINUOUS
  0
POLYLINE
  8
1
  6
CONTINUOUS
 66
     1
  0
VERTEX
  8
1
  6
CONTINUOUS
 10
7.015807
 20
56.333514
  0
VERTEX
  8
1
  6
CONTINUOUS
 10
7.018029
 20
57.470015
  0
SEQEND
  8
1
  6
CONTINUOUS
  0
LINE
  8
1
  6
CONTINUOUS
 10
96.100518
 20
7.696882
 11
99.650102
 21
49.630166
  0
LINE
  8
1
  6
CONTINUOUS
 10
61.324655
 20
10.640453
 11
61.327497
 21
10.673661
  0
LINE
  8
1
  6
CONTINUOUS
 10
41.254876
 20
12.339271
 11
41.221662
 21
12.342083
  0
LINE
  8
1
  6
CONTINUOUS
 10
41.221662
 20
12.342083
 11
41.224453
 21
12.375048
  0
LINE
  8
1
  6
CONTINUOUS
 10
7.008606
 20
35.583488
 11
6.975273
 21
35.583553
  0
LINE
  8
1
  6
CONTINUOUS
 10
6.975273
 20
35.583553
 11
6.975338
 21
35.616887
  0
LINE
  8
1
  6
CONTINUOUS
 10
78.382221
 20
19.650146
 11
78.382221
 21
19.650146
  0
POLYLINE
  8
1
  6
CONTINUOUS
 66
     1
  0
VERTEX
  8
1
  6
CONTINUOUS
 10
78.762262
 20
19.199823
  0
VERTEX
  8
1
  6
CONTINUOUS
 10
78.832544
 20
20.030187
  0
VERTEX
  8
1
  6
CONTINUOUS
 10
78.002180
 20
20.100469
  0
VERTEX
  8
1
  6
CONTINUOUS
 10
77.931898
 20
19.270105
  0
VERTEX
  8
1
  6
CONTINUOUS
 10
78.762262
 20
19.199823
  0
SEQEND
  8
1
  6
CONTINUOUS
  0
LINE
  8
1
  6
CONTINUOUS
 10
79.298196
 20
30.471105
 11
79.298196
 21
30.471105
  0
POLYLINE
  8
1
  6
CONTINUOUS
 66
     1
  0
VERTEX
  8
1
  6
CONTINUOUS
 10
79.678237
 20
30.020782
  0
VERTEX
  8
1
  6
CONTINUOUS
 10
79.748519
 20
30.851146
  0
VERTEX
  8
1
  6
CONTINUOUS
 10
78.918155
 20
30.921429
  0
VERTEX
  8
1
  6
CONTINUOUS
 10
78.847873
 20
30.091064
  0
VERTEX
  8
1
  6
CONTINUOUS
 10
79.678237
 20
30.020782
  0
SEQEND
  8
1
  6
CONTINUOUS
  0
LINE
  8
1
  6
CONTINUOUS
 10
80.174624
 20
40.824856
 11
80.174624
 21
40.824856
  0
POLYLINE
  8
1
  6
CONTINUOUS
 66
     1
  0
VERTEX
  8
1
  6
CONTINUOUS
 10
80.554665
 20
40.374532
  0
VERTEX
  8
1
  6
CONTINUOUS
 10
80.624947
 20
41.204897
  0
VERTEX
  8
1
  6
CONTINUOUS
 10
79.794583
 20
41.275179
  0
VERTEX
  8
1
  6
CONTINUOUS
 10
79.724301
 20
40.444815
  0
VERTEX
  8
1
  6
CONTINUOUS
 10
80.554665
 20
40.374532
  0
SEQEND
  8
1
  6
CONTINUOUS
  0
LINE
  8
1
  6
CONTINUOUS
 10
61.774946
 20
21.055919
 11
61.774946
 21
21.055919
  0
POLYLINE
  8
1
  6
CONTINUOUS
 66
     1
  0
VERTEX
  8
1
  6
CONTINUOUS
 10
62.154987
 20
20.605595
  0
VERTEX
  8
1
  6
CONTINUOUS
 10
62.225269
 20
21.435960
  0
VERTEX
  8
1
  6
CONTINUOUS
 10
61.394905
 20
21.506242
  0
VERTEX
  8
1
  6
CONTINUOUS
 10
61.324623
 20
20.675878
  0
VERTEX
  8
1
  6
CONTINUOUS
 10
62.154987
 20
20.605595
  0
SEQEND
  8
1
  6
CONTINUOUS
  0
LINE
  8
1
  6
CONTINUOUS
 10
62.864022
 20
31.945858
 11
62.864022
 21
31.945858
  0
POLYLINE
  8
1
  6
CONTINUOUS
 66
     1
  0
VERTEX
  8
1
  6
CONTINUOUS
 10
63.244063
 20
31.495535
  0
VERTEX
  8
1
  6
CONTINUOUS
 10
63.314345
 20
32.325899
  0
VERTEX
  8
1
  6
CONTINUOUS
 10
62.483981
 20
32.396181
  0
VERTEX
  8
1
  6
CONTINUOUS
 10
62.413699
 20
31.565817
  0
VERTEX
  8
1
  6
CONTINUOUS
 10
63.244063
 20
31.495535
  0
SEQEND
  8
1
  6
CONTINUOUS
  0
LINE
  8
1
  6
CONTINUOUS
 10
63.733422
 20
42.216572
 11
63.733422
 21
42.216572
  0
POLYLINE
  8
1
  6
CONTINUOUS
 66
     1
  0
VERTEX
  8
1
  6
CONTINUOUS
 10
64.113463
 20
41.766249
  0
VERTEX
  8
1
  6
CONTINUOUS
 10
64.183745
 20
42.596613
  0
VERTEX
  8
1
  6
CONTINUOUS
 10
63.353381
 20
42.666895
  0
VERTEX
  8
1
  6
CONTINUOUS
 10
63.283099
 20
41.836531
  0
VERTEX
  8
1
  6
CONTINUOUS
 10
64.113463
 20
41.766249
  0
SEQEND
  8
1
  6
CONTINUOUS
  0
LINE
  8
1
  6
CONTINUOUS
 10
45.291574
 20
21.949416
 11
45.291574
 21
21.949416
  0
POLYLINE
  8
1
  6
CONTINUOUS
 66
     1
  0
VERTEX
  8
1
  6
CONTINUOUS
 10
45.491486
 20
21.347077
  0
VERTEX
  8
1
  6
CONTINUOUS
 10
45.589881
 20
22.509587
  0
VERTEX
  8
1
  6
CONTINUOUS
 10
45.091663
 20
22.551756
  0
VERTEX
  8
1
  6
CONTINUOUS
 10
44.993268
 20
21.389246
  0
VERTEX
  8
1
  6
CONTINUOUS
 10
45.491486
 20
21.347077
  0
SEQEND
  8
1
  6
CONTINUOUS
  0
LINE
  8
1
  6
CONTINUOUS
 10
46.291888
 20
33.766813
 11
46.291888
 21
33.766813
  0
POLYLINE
  8
1
  6
CONTINUOUS
 66
     1
  0
VERTEX
  8
1
  6
CONTINUOUS
 10
46.491800
 20
33.164473
  0
VERTEX
  8
1
  6
CONTINUOUS
 10
46.590195
 20
34.326983
  0
VERTEX
  8
1
  6
CONTINUOUS
 10
46.091977
 20
34.369153
  0
VERTEX
  8
1
  6
CONTINUOUS
 10
45.993582
 20
33.206643
  0
VERTEX
  8
1
  6
CONTINUOUS
 10
46.491800
 20
33.164473
  0
SEQEND
  8
1
  6
CONTINUOUS
  0
LINE
  8
1
  6
CONTINUOUS
 10
47.168317
 20
44.120563
 11
47.168317
 21
44.120563
  0
POLYLINE
  8
1
  6
CONTINUOUS
 66
     1
  0
VERTEX
  8
1
  6
CONTINUOUS
 10
47.368228
 20
43.518223
  0
VERTEX
  8
1
  6
CONTINUOUS
 10
47.466623
 20
44.680733
  0
VERTEX
  8
1
  6
CONTINUOUS
 10
46.968405
 20
44.722903
  0
VERTEX
  8
1
  6
CONTINUOUS
 10
46.870010
 20
43.560393
  0
VERTEX
  8
1
  6
CONTINUOUS
 10
47.368228
 20
43.518223
  0
SEQEND
  8
1
  6
CONTINUOUS
  0
LINE
  8
1
  6
CONTINUOUS
 10
16.314510
 20
24.402243
 11
16.314510
 21
24.402243
  0
POLYLINE
  8
1
  6
CONTINUOUS
 66
     1
  0
VERTEX
  8
1
  6
CONTINUOUS
 10
16.514422
 20
23.799903
  0
VERTEX
  8
1
  6
CONTINUOUS
 10
16.612817
 20
24.962413
  0
VERTEX
  8
1
  6
CONTINUOUS
 10
16.114598
 20
25.004582
  0
VERTEX
  8
1
  6
CONTINUOUS
 10
16.016203
 20
23.842072
  0
VERTEX
  8
1
  6
CONTINUOUS
 10
16.514422
 20
23.799903
  0
SEQEND
  8
1
  6
CONTINUOUS
  0
LINE
  8
1
  6
CONTINUOUS
 10
17.314824
 20
36.219639
 11
17.314824
 21
36.219639
  0
POLYLINE
  8
1
  6
CONTINUOUS
 66
     1
  0
VERTEX
  8
1
  6
CONTINUOUS
 10
17.514736
 20
35.617300
  0
VERTEX
  8
1
  6
CONTINUOUS
 10
17.613131
 20
36.779810
  0
VERTEX
  8
1
  6
CONTINUOUS
 10
17.114912
 20
36.821979
  0
VERTEX
  8
1
  6
CONTINUOUS
 10
17.016517
 20
35.659469
  0
VERTEX
  8
1
  6
CONTINUOUS
 10
17.514736
 20
35.617300
  0
SEQEND
  8
1
  6
CONTINUOUS
  0
LINE
  8
1
  6
CONTINUOUS
 10
95.346306
 20
18.507667
 11
95.346306
 21
18.507667
  0
POLYLINE
  8
1
  6
CONTINUOUS
 66
     1
  0
VERTEX
  8
1
  6
CONTINUOUS
 10
95.650339
 20
18.147408
  0
VERTEX
  8
1
  6
CONTINUOUS
 10
95.706565
 20
18.811700
  0
VERTEX
  8
1
  6
CONTINUOUS
 10
95.042273
 20
18.867925
  0
VERTEX
  8
1
  6
CONTINUOUS
 10
94.986047
 20
18.203634
  0
VERTEX
  8
1
  6
CONTINUOUS
 10
95.650339
 20
18.147408
  0
SEQEND
  8
1
  6
CONTINUOUS
  0
LINE
  8
1
  6
CONTINUOUS
 10
96.217742
 20
28.803453
 11
96.217742
 21
28.803453
  0
POLYLINE
  8
1
  6
CONTINUOUS
 66
     1
  0
VERTEX
  8
1
  6
CONTINUOUS
 10
96.521775
 20
28.443195
  0
VERTEX
  8
1
  6
CONTINUOUS
 10
96.578000
 20
29.107486
  0
VERTEX
  8
1
  6
CONTINUOUS
 10
95.913709
 20
29.163712
  0
VERTEX
  8
1
  6
CONTINUOUS
 10
95.857483
 20
28.499421
  0
VERTEX
  8
1
  6
CONTINUOUS
 10
96.521775
 20
28.443195
  0
SEQEND
  8
1
  6
CONTINUOUS
  0
LINE
  8
1
  6
CONTINUOUS
 10
97.089239
 20
39.099969
 11
97.089239
 21
39.099969
  0
POLYLINE
  8
1
  6
CONTINUOUS
 66
     1
  0
VERTEX
  8
1
  6
CONTINUOUS
 10
97.393272
 20
38.739710
  0
VERTEX
  8
1
  6
CONTINUOUS
 10
97.449498
 20
39.404002
  0
VERTEX
  8
1
  6
CONTINUOUS
 10
96.785207
 20
39.460227
  0
VERTEX
  8
1
  6
CONTINUOUS
 10
96.728981
 20
38.795936
  0
VERTEX
  8
1
  6
CONTINUOUS
 10
97.393272
 20
38.739710
  0
SEQEND
  8
1
  6
CONTINUOUS
  0
LINE
  8
1
  6
CONTINUOUS
 10
14.381841
 20
14.881135
 11
14.381841
 21
14.881135
  0
POLYLINE
  8
1
  6
CONTINUOUS
 66
     1
  0
VERTEX
  8
1
  6
CONTINUOUS
 10
14.650629
 20
15.092552
  0
VERTEX
  8
1
  6
CONTINUOUS
 10
14.152411
 20
15.134722
  0
VERTEX
  8
1
  6
CONTINUOUS
 10
14.113053
 20
14.669718
  0
VERTEX
  8
1
  6
CONTINUOUS
 10
14.611271
 20
14.627548
  0
VERTEX
  8
1
  6
CONTINUOUS
 10
14.650629
 20
15.092552
  0
SEQEND
  8
1
  6
CONTINUOUS
  0
POLYLINE
  8
1
  6
CONTINUOUS
 66
     1
  0
VERTEX
  8
1
  6
CONTINUOUS
 10
13.822976
 20
12.915574
  0
VERTEX
  8
1
  6
CONTINUOUS
 10
13.822976
 20
13.790574
  0
VERTEX
  8
1
  6
CONTINUOUS
 10
14.113053
 20
14.669718
  0
VERTEX
  8
1
  6
CONTINUOUS
 10
14.081935
 20
14.505982
  0
VERTEX
  8
1
  6
CONTINUOUS
 10
14.113053
 20
14.669718
  0
VERTEX
  8
1
  6
CONTINUOUS
 10
14.040618
 20
14.519615
  0
SEQEND
  8
1
  6
CONTINUOUS
  0
LINE
  8
1
  6
CONTINUOUS
 10
97.764655
 20
50.040619
 11
97.764655
 21
50.040619
  0
POLYLINE
  8
1
  6
CONTINUOUS
 66
     1
  0
VERTEX
  8
1
  6
CONTINUOUS
 10
98.324878
 20
49.742410
  0
VERTEX
  8
1
  6
CONTINUOUS
 10
98.366960
 20
50.240636
  0
VERTEX
  8
1
  6
CONTINUOUS
 10
97.204433
 20
50.338828
  0
VERTEX
  8
1
  6
CONTINUOUS
 10
97.162351
 20
49.840602
  0
VERTEX
  8
1
  6
CONTINUOUS
 10
98.324878
 20
49.742410
  0
SEQEND
  8
1
  6
CONTINUOUS
  0
LINE
  8
1
  6
CONTINUOUS
 10
88.265443
 20
50.844679
 11
88.265443
 21
50.844679
  0
POLYLINE
  8
1
  6
CONTINUOUS
 66
     1
  0
VERTEX
  8
1
  6
CONTINUOUS
 10
88.493515
 20
50.574525
  0
VERTEX
  8
1
  6
CONTINUOUS
 10
88.535597
 20
51.072751
  0
VERTEX
  8
1
  6
CONTINUOUS
 10
88.037371
 20
51.114834
  0
VERTEX
  8
1
  6
CONTINUOUS
 10
87.995289
 20
50.616608
  0
VERTEX
  8
1
  6
CONTINUOUS
 10
88.493515
 20
50.574525
  0
SEQEND
  8
1
  6
CONTINUOUS
  0
LINE
  8
1
  6
CONTINUOUS
 10
77.470703
 20
51.758294
 11
77.470703
 21
51.758294
  0
POLYLINE
  8
1
  6
CONTINUOUS
 66
     1
  0
VERTEX
  8
1
  6
CONTINUOUS
 10
77.698775
 20
51.488140
  0
VERTEX
  8
1
  6
CONTINUOUS
 10
77.740857
 20
51.986366
  0
VERTEX
  8
1
  6
CONTINUOUS
 10
77.242631
 20
52.028449
  0
VERTEX
  8
1
  6
CONTINUOUS
 10
77.200549
 20
51.530223
  0
VERTEX
  8
1
  6
CONTINUOUS
 10
77.698775
 20
51.488140
  0
SEQEND
  8
1
  6
CONTINUOUS
  0
LINE
  8
1
  6
CONTINUOUS
 10
68.336692
 20
52.531353
 11
68.336692
 21
52.531353
  0
POLYLINE
  8
1
  6
CONTINUOUS
 66
     1
  0
VERTEX
  8
1
  6
CONTINUOUS
 10
68.564764
 20
52.261199
  0
VERTEX
  8
1
  6
CONTINUOUS
 10
68.606846
 20
52.759425
  0
VERTEX
  8
1
  6
CONTINUOUS
 10
68.108620
 20
52.801508
  0
VERTEX
  8
1
  6
CONTINUOUS
 10
68.066538
 20
52.303282
  0
VERTEX
  8
1
  6
CONTINUOUS
 10
68.564764
 20
52.261199
  0
SEQEND
  8
1
  6
CONTINUOUS
  0
LINE
  8
1
  6
CONTINUOUS
 10
51.729400
 20
53.936921
 11
51.729400
 21
53.936921
  0
POLYLINE
  8
1
  6
CONTINUOUS
 66
     1
  0
VERTEX
  8
1
  6
CONTINUOUS
 10
51.957472
 20
53.666766
  0
VERTEX
  8
1
  6
CONTINUOUS
 10
51.999554
 20
54.164992
  0
VERTEX
  8
1
  6
CONTINUOUS
 10
51.501328
 20
54.207075
  0
VERTEX
  8
1
  6
CONTINUOUS
 10
51.459246
 20
53.708849
  0
VERTEX
  8
1
  6
CONTINUOUS
 10
51.957472
 20
53.666766
  0
SEQEND
  8
1
  6
CONTINUOUS
  0
LINE
  8
1
  6
CONTINUOUS
 10
45.086482
 20
54.499140
 11
45.086482
 21
54.499140
  0
POLYLINE
  8
1
  6
CONTINUOUS
 66
     1
  0
VERTEX
  8
1
  6
CONTINUOUS
 10
45.314554
 20
54.228985
  0
VERTEX
  8
1
  6
CONTINUOUS
 10
45.356637
 20
54.727211
  0
VERTEX
  8
1
  6
CONTINUOUS
 10
44.858411
 20
54.769294
  0
VERTEX
  8
1
  6
CONTINUOUS
 10
44.816328
 20
54.271068
  0
VERTEX
  8
1
  6
CONTINUOUS
 10
45.314554
 20
54.228985
  0
SEQEND
  8
1
  6
CONTINUOUS
  0
LINE
  8
1
  6
CONTINUOUS
 10
27.419231
 20
55.994425
 11
27.419231
 21
55.994425
  0
POLYLINE
  8
1
  6
CONTINUOUS
 66
     1
  0
VERTEX
  8
1
  6
CONTINUOUS
 10
27.647303
 20
55.724271
  0
VERTEX
  8
1
  6
CONTINUOUS
 10
27.689385
 20
56.222496
  0
VERTEX
  8
1
  6
CONTINUOUS
 10
27.191160
 20
56.264579
  0
VERTEX
  8
1
  6
CONTINUOUS
 10
27.149077
 20
55.766353
  0
VERTEX
  8
1
  6
CONTINUOUS
 10
27.647303
 20
55.724271
  0
SEQEND
  8
1
  6
CONTINUOUS
  0
LINE
  8
1
  6
CONTINUOUS
 10
17.834536
 20
56.805624
 11
17.834536
 21
56.805624
  0
POLYLINE
  8
1
  6
CONTINUOUS
 66
     1
  0
VERTEX
  8
1
  6
CONTINUOUS
 10
18.062608
 20
56.535470
  0
VERTEX
  8
1
  6
CONTINUOUS
 10
18.104691
 20
57.033696
  0
VERTEX
  8
1
  6
CONTINUOUS
 10
17.606465
 20
57.075779
  0
VERTEX
  8
1
  6
CONTINUOUS
 10
17.564382
 20
56.577553
  0
VERTEX
  8
1
  6
CONTINUOUS
 10
18.062608
 20
56.535470
  0
SEQEND
  8
1
  6
CONTINUOUS
  0
LINE
  8
1
  6
CONTINUOUS
 10
8.700529
 20
57.578726
 11
8.700529
 21
57.578726
  0
POLYLINE
  8
1
  6
CONTINUOUS
 66
     1
  0
VERTEX
  8
1
  6
CONTINUOUS
 10
9.260751
 20
57.280517
  0
VERTEX
  8
1
  6
CONTINUOUS
 10
9.302834
 20
57.778743
  0
VERTEX
  8
1
  6
CONTINUOUS
 10
8.140307
 20
57.876935
  0
VERTEX
  8
1
  6
CONTINUOUS
 10
8.098224
 20
57.378710
  0
VERTEX
  8
1
  6
CONTINUOUS
 10
9.260751
 20
57.280517
  0
SEQEND
  8
1
  6
CONTINUOUS
  0
LINE
  8
1
  6
CONTINUOUS
 10
7.222150
 20
25.466385
 11
7.222150
 21
25.466385
  0
POLYLINE
  8
1
  6
CONTINUOUS
 66
     1
  0
VERTEX
  8
1
  6
CONTINUOUS
 10
7.454994
 20
25.215929
  0
VERTEX
  8
1
  6
CONTINUOUS
 10
7.455972
 20
25.715928
  0
VERTEX
  8
1
  6
CONTINUOUS
 10
6.989306
 20
25.716841
  0
VERTEX
  8
1
  6
CONTINUOUS
 10
6.988329
 20
25.216842
  0
VERTEX
  8
1
  6
CONTINUOUS
 10
7.454994
 20
25.215929
  0
SEQEND
  8
1
  6
CONTINUOUS
  0
POLYLINE
  8
1
  6
CONTINUOUS
 66
     1
  0
VERTEX
  8
1
  6
CONTINUOUS
 10
8.312459
 20
23.576195
  0
VERTEX
  8
1
  6
CONTINUOUS
 10
8.312459
 20
24.451195
  0
VERTEX
  8
1
  6
CONTINUOUS
 10
7.454994
 20
25.215929
  0
VERTEX
  8
1
  6
CONTINUOUS
 10
7.592795
 20
25.122181
  0
VERTEX
  8
1
  6
CONTINUOUS
 10
7.454994
 20
25.215929
  0
VERTEX
  8
1
  6
CONTINUOUS
 10
7.563835
 20
25.089710
  0
SEQEND
  8
1
  6
CONTINUOUS
  0
LINE
  8
1
  6
CONTINUOUS
 10
7.241450
 20
35.333033
 11
7.241450
 21
35.333033
  0
POLYLINE
  8
1
  6
CONTINUOUS
 66
     1
  0
VERTEX
  8
1
  6
CONTINUOUS
 10
7.474294
 20
35.082577
  0
VERTEX
  8
1
  6
CONTINUOUS
 10
7.475272
 20
35.582576
  0
VERTEX
  8
1
  6
CONTINUOUS
 10
7.008606
 20
35.583488
  0
VERTEX
  8
1
  6
CONTINUOUS
 10
7.007629
 20
35.083489
  0
VERTEX
  8
1
  6
CONTINUOUS
 10
7.474294
 20
35.082577
  0
SEQEND
  8
1
  6
CONTINUOUS
  0
LINE
  8
1
  6
CONTINUOUS
 10
6.741085
 20
43.667360
 11
6.741085
 21
43.667360
  0
POLYLINE
  8
1
  6
CONTINUOUS
 66
     1
  0
VERTEX
  8
1
  6
CONTINUOUS
 10
6.990596
 20
43.416872
  0
VERTEX
  8
1
  6
CONTINUOUS
 10
6.991574
 20
43.916871
  0
VERTEX
  8
1
  6
CONTINUOUS
 10
6.491575
 20
43.917848
  0
VERTEX
  8
1
  6
CONTINUOUS
 10
6.490597
 20
43.417849
  0
VERTEX
  8
1
  6
CONTINUOUS
 10
6.990596
 20
43.416872
  0
SEQEND
  8
1
  6
CONTINUOUS
  0
LINE
  8
1
  6
CONTINUOUS
 10
6.765374
 20
56.084003
 11
6.765374
 21
56.084003
  0
POLYLINE
  8
1
  6
CONTINUOUS
 66
     1
  0
VERTEX
  8
1
  6
CONTINUOUS
 10
7.014885
 20
55.833515
  0
VERTEX
  8
1
  6
CONTINUOUS
 10
7.015862
 20
56.333514
  0
VERTEX
  8
1
  6
CONTINUOUS
 10
6.515863
 20
56.334491
  0
VERTEX
  8
1
  6
CONTINUOUS
 10
6.514885
 20
55.834492
  0
VERTEX
  8
1
  6
CONTINUOUS
 10
7.014885
 20
55.833515
  0
SEQEND
  8
1
  6
CONTINUOUS
  0
LINE
  8
1
  6
CONTINUOUS
 10
60.075798
 20
53.230580
 11
60.075798
 21
53.230580
  0
POLYLINE
  8
1
  6
CONTINUOUS
 66
     1
  0
VERTEX
  8
1
  6
CONTINUOUS
 10
60.636020
 20
52.932371
  0
VERTEX
  8
1
  6
CONTINUOUS
 10
60.678103
 20
53.430597
  0
VERTEX
  8
1
  6
CONTINUOUS
 10
59.515575
 20
53.528789
  0
VERTEX
  8
1
  6
CONTINUOUS
 10
59.473493
 20
53.030563
  0
VERTEX
  8
1
  6
CONTINUOUS
 10
60.636020
 20
52.932371
  0
SEQEND
  8
1
  6
CONTINUOUS
  0
LINE
  8
1
  6
CONTINUOUS
 10
21.896640
 20
14.245102
 11
21.896640
 21
14.245102
  0
POLYLINE
  8
1
  6
CONTINUOUS
 66
     1
  0
VERTEX
  8
1
  6
CONTINUOUS
 10
22.165428
 20
14.456519
  0
VERTEX
  8
1
  6
CONTINUOUS
 10
21.667210
 20
14.498688
  0
VERTEX
  8
1
  6
CONTINUOUS
 10
21.627852
 20
14.033684
  0
VERTEX
  8
1
  6
CONTINUOUS
 10
22.126070
 20
13.991515
  0
VERTEX
  8
1
  6
CONTINUOUS
 10
22.165428
 20
14.456519
  0
SEQEND
  8
1
  6
CONTINUOUS
  0
POLYLINE
  8
1
  6
CONTINUOUS
 66
     1
  0
VERTEX
  8
1
  6
CONTINUOUS
 10
21.542801
 20
12.063398
  0
VERTEX
  8
1
  6
CONTINUOUS
 10
21.542801
 20
13.188398
  0
VERTEX
  8
1
  6
CONTINUOUS
 10
21.627852
 20
14.033684
  0
VERTEX
  8
1
  6
CONTINUOUS
 10
21.632954
 20
13.867096
  0
VERTEX
  8
1
  6
CONTINUOUS
 10
21.627852
 20
14.033684
  0
VERTEX
  8
1
  6
CONTINUOUS
 10
21.589664
 20
13.871452
  0
SEQEND
  8
1
  6
CONTINUOUS
  0
LINE
  8
1
  6
CONTINUOUS
 10
71.644434
 20
9.515670
 11
71.644434
 21
9.515670
  0
POLYLINE
  8
1
  6
CONTINUOUS
 66
     1
  0
VERTEX
  8
1
  6
CONTINUOUS
 10
71.914632
 20
9.743690
  0
VERTEX
  8
1
  6
CONTINUOUS
 10
71.416414
 20
9.785868
  0
VERTEX
  8
1
  6
CONTINUOUS
 10
71.374236
 20
9.287650
  0
VERTEX
  8
1
  6
CONTINUOUS
 10
71.872454
 20
9.245472
  0
VERTEX
  8
1
  6
CONTINUOUS
 10
71.914632
 20
9.743690
  0
SEQEND
  8
1
  6
CONTINUOUS
  0
LINE
  8
1
  6
CONTINUOUS
 10
81.608810
 20
8.672337
 11
81.608810
 21
8.672337
  0
POLYLINE
  8
1
  6
CONTINUOUS
 66
     1
  0
VERTEX
  8
1
  6
CONTINUOUS
 10
81.879008
 20
8.900357
  0
VERTEX
  8
1
  6
CONTINUOUS
 10
81.380790
 20
8.942535
  0
VERTEX
  8
1
  6
CONTINUOUS
 10
81.338612
 20
8.444317
  0
VERTEX
  8
1
  6
CONTINUOUS
 10
81.836829
 20
8.402139
  0
VERTEX
  8
1
  6
CONTINUOUS
 10
81.879008
 20
8.900357
  0
SEQEND
  8
1
  6
CONTINUOUS
  0
LINE
  8
1
  6
CONTINUOUS
 10
94.504978
 20
7.580575
 11
94.504978
 21
7.580575
  0
POLYLINE
  8
1
  6
CONTINUOUS
 66
     1
  0
VERTEX
  8
1
  6
CONTINUOUS
 10
94.775176
 20
7.808595
  0
VERTEX
  8
1
  6
CONTINUOUS
 10
94.276958
 20
7.850773
  0
VERTEX
  8
1
  6
CONTINUOUS
 10
94.234780
 20
7.352555
  0
VERTEX
  8
1
  6
CONTINUOUS
 10
94.732998
 20
7.310377
  0
VERTEX
  8
1
  6
CONTINUOUS
 10
94.775176
 20
7.808595
  0
SEQEND
  8
1
  6
CONTINUOUS
  0
LINE
  8
1
  6
CONTINUOUS
 10
36.553235
 20
55.221279
 11
36.553235
 21
55.221279
  0
POLYLINE
  8
1
  6
CONTINUOUS
 66
     1
  0
VERTEX
  8
1
  6
CONTINUOUS
 10
37.113457
 20
54.923070
  0
VERTEX
  8
1
  6
CONTINUOUS
 10
37.155540
 20
55.421296
  0
VERTEX
  8
1
  6
CONTINUOUS
 10
35.993013
 20
55.519488
  0
VERTEX
  8
1
  6
CONTINUOUS
 10
35.950930
 20
55.021262
  0
VERTEX
  8
1
  6
CONTINUOUS
 10
37.113457
 20
54.923070
  0
SEQEND
  8
1
  6
CONTINUOUS
  0
LINE
  8
1
  6
CONTINUOUS
 10
51.044651
 20
11.510471
 11
51.044651
 21
11.510471
  0
POLYLINE
  8
1
  6
CONTINUOUS
 66
     1
  0
VERTEX
  8
1
  6
CONTINUOUS
 10
51.502003
 20
11.973548
  0
VERTEX
  8
1
  6
CONTINUOUS
 10
50.671639
 20
12.043831
  0
VERTEX
  8
1
  6
CONTINUOUS
 10
50.587300
 20
11.047393
  0
VERTEX
  8
1
  6
CONTINUOUS
 10
51.417664
 20
10.977111
  0
VERTEX
  8
1
  6
CONTINUOUS
 10
51.502003
 20
11.973548
  0
SEQEND
  8
1
  6
CONTINUOUS
  0
LINE
  8
1
  6
CONTINUOUS
 10
31.908620
 20
22.971615
 11
31.908620
 21
22.971615
  0
POLYLINE
  8
1
  6
CONTINUOUS
 66
     1
  0
VERTEX
  8
1
  6
CONTINUOUS
 10
32.108531
 20
22.369275
  0
VERTEX
  8
1
  6
CONTINUOUS
 10
32.206926
 20
23.531785
  0
VERTEX
  8
1
  6
CONTINUOUS
 10
31.708708
 20
23.573955
  0
VERTEX
  8
1
  6
CONTINUOUS
 10
31.610313
 20
22.411445
  0
VERTEX
  8
1
  6
CONTINUOUS
 10
32.108531
 20
22.369275
  0
SEQEND
  8
1
  6
CONTINUOUS
  0
LINE
  8
1
  6
CONTINUOUS
 10
32.908783
 20
34.789024
 11
32.908783
 21
34.789024
  0
POLYLINE
  8
1
  6
CONTINUOUS
 66
     1
  0
VERTEX
  8
1
  6
CONTINUOUS
 10
33.108694
 20
34.186685
  0
VERTEX
  8
1
  6
CONTINUOUS
 10
33.207089
 20
35.349195
  0
VERTEX
  8
1
  6
CONTINUOUS
 10
32.708871
 20
35.391364
  0
VERTEX
  8
1
  6
CONTINUOUS
 10
32.610476
 20
34.228854
  0
VERTEX
  8
1
  6
CONTINUOUS
 10
33.108694
 20
34.186685
  0
SEQEND
  8
1
  6
CONTINUOUS
  0
LINE
  8
1
  6
CONTINUOUS
 10
33.541398
 20
42.263761
 11
33.541398
 21
42.263761
  0
POLYLINE
  8
1
  6
CONTINUOUS
 66
     1
  0
VERTEX
  8
1
  6
CONTINUOUS
 10
33.741309
 20
41.661421
  0
VERTEX
  8
1
  6
CONTINUOUS
 10
33.839705
 20
42.823931
  0
VERTEX
  8
1
  6
CONTINUOUS
 10
33.341486
 20
42.866100
  0
VERTEX
  8
1
  6
CONTINUOUS
 10
33.243091
 20
41.703590
  0
VERTEX
  8
1
  6
CONTINUOUS
 10
33.741309
 20
41.661421
  0
SEQEND
  8
1
  6
CONTINUOUS
  0
LINE
  8
1
  6
CONTINUOUS
 10
18.149085
 20
46.075194
 11
18.149085
 21
46.075194
  0
POLYLINE
  8
1
  6
CONTINUOUS
 66
     1
  0
VERTEX
  8
1
  6
CONTINUOUS
 10
18.348997
 20
45.472854
  0
VERTEX
  8
1
  6
CONTINUOUS
 10
18.447392
 20
46.635364
  0
VERTEX
  8
1
  6
CONTINUOUS
 10
17.949174
 20
46.677533
  0
VERTEX
  8
1
  6
CONTINUOUS
 10
17.850779
 20
45.515023
  0
VERTEX
  8
1
  6
CONTINUOUS
 10
18.348997
 20
45.472854
  0
SEQEND
  8
1
  6
CONTINUOUS
  0
LINE
  8
1
  6
CONTINUOUS
 10
41.482901
 20
12.069077
 11
41.482901
 21
12.069077
  0
POLYLINE
  8
1
  6
CONTINUOUS
 66
     1
  0
VERTEX
  8
1
  6
CONTINUOUS
 10
41.753095
 20
12.297102
  0
VERTEX
  8
1
  6
CONTINUOUS
 10
41.254876
 20
12.339271
  0
VERTEX
  8
1
  6
CONTINUOUS
 10
41.212707
 20
11.841052
  0
VERTEX
  8
1
  6
CONTINUOUS
 10
41.710925
 20
11.798883
  0
VERTEX
  8
1
  6
CONTINUOUS
 10
41.753095
 20
12.297102
  0
SEQEND
  8
1
  6
CONTINUOUS
  0
LINE
  8
1
  6
CONTINUOUS
 10
6.725827
 20
35.867375
 11
6.725827
 21
35.867375
  0
POLYLINE
  8
1
  6
CONTINUOUS
 66
     1
  0
VERTEX
  8
1
  6
CONTINUOUS
 10
6.975338
 20
35.616887
  0
VERTEX
  8
1
  6
CONTINUOUS
 10
6.976315
 20
36.116886
  0
VERTEX
  8
1
  6
CONTINUOUS
 10
6.476316
 20
36.117863
  0
VERTEX
  8
1
  6
CONTINUOUS
 10
6.475339
 20
35.617864
  0
VERTEX
  8
1
  6
CONTINUOUS
 10
6.975338
 20
35.616887
  0
SEQEND
  8
1
  6
CONTINUOUS
  0
LINE
  8
1
  6
CONTINUOUS
 10
61.075556
 20
10.661537
 11
61.075556
 21
10.661537
  0
POLYLINE
  8
1
  6
CONTINUOUS
 66
     1
  0
VERTEX
  8
1
  6
CONTINUOUS
 10
61.366835
 20
11.138671
  0
VERTEX
  8
1
  6
CONTINUOUS
 10
60.868616
 20
11.180841
  0
VERTEX
  8
1
  6
CONTINUOUS
 10
60.784278
 20
10.184403
  0
VERTEX
  8
1
  6
CONTINUOUS
 10
61.282496
 20
10.142234
  0
VERTEX
  8
1
  6
CONTINUOUS
 10
61.366835
 20
11.138671
  0
SEQEND
  8
1
  6
CONTINUOUS
  0
LINE
  8
1
  6
CONTINUOUS
 10
31.228028
 20
13.455680
 11
31.228028
 21
13.455680
  0
POLYLINE
  8
1
  6
CONTINUOUS
 66
     1
  0
VERTEX
  8
1
  6
CONTINUOUS
 10
31.496817
 20
13.667097
  0
VERTEX
  8
1
  6
CONTINUOUS
 10
30.998598
 20
13.709266
  0
VERTEX
  8
1
  6
CONTINUOUS
 10
30.959240
 20
13.244262
  0
VERTEX
  8
1
  6
CONTINUOUS
 10
31.457459
 20
13.202093
  0
VERTEX
  8
1
  6
CONTINUOUS
 10
31.496817
 20
13.667097
  0
SEQEND
  8
1
  6
CONTINUOUS
  0
LINE
  8
1
  6
CONTINUOUS
 10
6.706462
 20
26.000727
 11
6.706462
 21
26.000727
  0
POLYLINE
  8
1
  6
CONTINUOUS
 66
     1
  0
VERTEX
  8
1
  6
CONTINUOUS
 10
6.955973
 20
25.750239
  0
VERTEX
  8
1
  6
CONTINUOUS
 10
6.956950
 20
26.250238
  0
VERTEX
  8
1
  6
CONTINUOUS
 10
6.456951
 20
26.251215
  0
VERTEX
  8
1
  6
CONTINUOUS
 10
6.455974
 20
25.751216
  0
VERTEX
  8
1
  6
CONTINUOUS
 10
6.955973
 20
25.750239
  0
SEQEND
  8
1
  6
CONTINUOUS
  0
LINE
  8
5
  6
CONTINUOUS
 10
6.956950
 20
26.250238
 11
7.123942
 21
26.416579
  0
LINE
  8
5
  6
CONTINUOUS
 10
6.456951
 20
26.251215
 11
6.290610
 21
26.418208
  0
LINE
  8
5
  6
CONTINUOUS
 10
6.455974
 20
25.751216
 11
6.288981
 21
25.584876
  0
LINE
  8
5
  6
CONTINUOUS
 10
6.955973
 20
25.750239
 11
7.122313
 21
25.583247
  0
POLYLINE
  8
1
  6
CONTINUOUS
 66
     1
  0
VERTEX
  8
1
  6
CONTINUOUS
 10
6.325481
 20
28.164213
  0
VERTEX
  8
1
  6
CONTINUOUS
 10
6.325481
 20
27.039213
  0
VERTEX
  8
1
  6
CONTINUOUS
 10
6.456951
 20
26.251215
  0
VERTEX
  8
1
  6
CONTINUOUS
 10
6.408300
 20
26.410623
  0
VERTEX
  8
1
  6
CONTINUOUS
 10
6.456951
 20
26.251215
  0
VERTEX
  8
1
  6
CONTINUOUS
 10
6.451216
 20
26.417783
  0
SEQEND
  8
1
  6
CONTINUOUS
  0
LINE
  8
1
  6
CONTINUOUS
 10
7.204192
 20
16.285931
 11
7.204192
 21
16.285931
  0
POLYLINE
  8
1
  6
CONTINUOUS
 66
     1
  0
VERTEX
  8
1
  6
CONTINUOUS
 10
7.437036
 20
16.035476
  0
VERTEX
  8
1
  6
CONTINUOUS
 10
7.438013
 20
16.535475
  0
VERTEX
  8
1
  6
CONTINUOUS
 10
6.971348
 20
16.536387
  0
VERTEX
  8
1
  6
CONTINUOUS
 10
6.970370
 20
16.036388
  0
VERTEX
  8
1
  6
CONTINUOUS
 10
7.437036
 20
16.035476
  0
SEQEND
  8
1
  6
CONTINUOUS
  0
POLYLINE
  8
1
  6
CONTINUOUS
 66
     1
  0
VERTEX
  8
1
  6
CONTINUOUS
 10
5.747953
 20
17.437155
  0
VERTEX
  8
1
  6
CONTINUOUS
 10
5.747953
 20
16.562155
  0
VERTEX
  8
1
  6
CONTINUOUS
 10
6.971348
 20
16.536387
  0
VERTEX
  8
1
  6
CONTINUOUS
 10
6.805685
 20
16.518117
  0
VERTEX
  8
1
  6
CONTINUOUS
 10
6.971348
 20
16.536387
  0
VERTEX
  8
1
  6
CONTINUOUS
 10
6.806602
 20
16.561616
  0
SEQEND
  8
1
  6
CONTINUOUS
  0
LINE
  8
1
  6
CONTINUOUS
 10
40.828970
 20
12.642941
 11
40.828970
 21
12.642941
  0
POLYLINE
  8
1
  6
CONTINUOUS
 66
     1
  0
VERTEX
  8
1
  6
CONTINUOUS
 10
41.263831
 20
12.840302
  0
VERTEX
  8
1
  6
CONTINUOUS
 10
40.433467
 20
12.910584
  0
VERTEX
  8
1
  6
CONTINUOUS
 10
40.394109
 20
12.445580
  0
VERTEX
  8
1
  6
CONTINUOUS
 10
41.224473
 20
12.375298
  0
VERTEX
  8
1
  6
CONTINUOUS
 10
41.263831
 20
12.840302
  0
SEQEND
  8
1
  6
CONTINUOUS
  0
LINE
  8
4
  6
CONTINUOUS
 10
96.588199
 20
13.457667
 11
97.335526
 21
13.394411
  0
LINE
  8
4
  6
CONTINUOUS
 10
97.330782
 20
13.338362
 11
97.340271
 21
13.450461
  0
LINE
  8
4
  6
CONTINUOUS
 10
97.330782
 20
13.338362
 11
98.082854
 21
13.331156
  0
LINE
  8
4
  6
CONTINUOUS
 10
97.340271
 20
13.450461
 11
98.082854
 21
13.331156
  0
LINE
  8
4
  6
CONTINUOUS
 10
97.176573
 20
13.294963
 11
97.195549
 21
13.519162
  0
LINE
  8
4
  6
CONTINUOUS
 10
97.083157
 20
13.302870
 11
97.102133
 21
13.527069
  0
LINE
  8
4
  6
CONTINUOUS
 10
96.989741
 20
13.310777
 11
97.008717
 21
13.534975
  0
LINE
  8
4
  6
CONTINUOUS
 10
7.928100
 20
20.962029
 11
6.931663
 21
21.046369
  0
LINE
  8
4
  6
CONTINUOUS
 10
6.940097
 20
21.146013
 11
6.923229
 21
20.946725
  0
LINE
  8
4
  6
CONTINUOUS
 10
6.960025
 20
21.144326
 11
6.943157
 21
20.945039
  0
LINE
  8
4
  6
CONTINUOUS
 10
6.979954
 20
21.142639
 11
6.963086
 21
20.943352
  0
POLYLINE
  8
4
  6
CONTINUOUS
 66
     1
  0
VERTEX
  8
4
  6
CONTINUOUS
 10
7.928100
 20
20.962029
  0
VERTEX
  8
4
  6
CONTINUOUS
 10
96.588199
 20
13.457667
  0
SEQEND
  8
4
  6
CONTINUOUS
  0
LINE
  8
4
  6
CONTINUOUS
 10
96.661294
 20
14.321245
 11
97.408621
 21
14.257990
  0
LINE
  8
4
  6
CONTINUOUS
 10
97.403877
 20
14.201941
 11
97.413366
 21
14.314040
  0
LINE
  8
4
  6
CONTINUOUS
 10
97.403877
 20
14.201941
 11
98.155949
 21
14.194735
  0
LINE
  8
4
  6
CONTINUOUS
 10
97.413366
 20
14.314040
 11
98.155949
 21
14.194735
  0
LINE
  8
4
  6
CONTINUOUS
 10
97.249668
 20
14.158542
 11
97.268644
 21
14.382740
  0
LINE
  8
4
  6
CONTINUOUS
 10
97.156252
 20
14.166449
 11
97.175228
 21
14.390647
  0
LINE
  8
4
  6
CONTINUOUS
 10
97.062836
 20
14.174356
 11
97.081812
 21
14.398554
  0
LINE
  8
4
  6
CONTINUOUS
 10
8.001195
 20
21.825607
 11
7.004758
 21
21.909948
  0
LINE
  8
4
  6
CONTINUOUS
 10
7.013192
 20
22.009592
 11
6.996324
 21
21.810304
  0
LINE
  8
4
  6
CONTINUOUS
 10
7.033120
 20
22.007905
 11
7.016252
 21
21.808617
  0
LINE
  8
4
  6
CONTINUOUS
 10
7.053049
 20
22.006218
 11
7.036181
 21
21.806931
  0
POLYLINE
  8
4
  6
CONTINUOUS
 66
     1
  0
VERTEX
  8
4
  6
CONTINUOUS
 10
8.001195
 20
21.825607
  0
VERTEX
  8
4
  6
CONTINUOUS
 10
96.661294
 20
14.321245
  0
SEQEND
  8
4
  6
CONTINUOUS
  0
LINE
  8
4
  6
CONTINUOUS
 10
96.734389
 20
15.184824
 11
97.481716
 21
15.121569
  0
LINE
  8
4
  6
CONTINUOUS
 10
97.476972
 20
15.065519
 11
97.486460
 21
15.177618
  0
LINE
  8
4
  6
CONTINUOUS
 10
97.476972
 20
15.065519
 11
98.229044
 21
15.058314
  0
LINE
  8
4
  6
CONTINUOUS
 10
97.486460
 20
15.177618
 11
98.229044
 21
15.058314
  0
LINE
  8
4
  6
CONTINUOUS
 10
97.322763
 20
15.022121
 11
97.341739
 21
15.246319
  0
LINE
  8
4
  6
CONTINUOUS
 10
97.229347
 20
15.030028
 11
97.248323
 21
15.254226
  0
LINE
  8
4
  6
CONTINUOUS
 10
97.135931
 20
15.037935
 11
97.154907
 21
15.262133
  0
LINE
  8
4
  6
CONTINUOUS
 10
8.074290
 20
22.689186
 11
7.077853
 21
22.773527
  0
LINE
  8
4
  6
CONTINUOUS
 10
7.086287
 20
22.873170
 11
7.069419
 21
22.673883
  0
LINE
  8
4
  6
CONTINUOUS
 10
7.106215
 20
22.871483
 11
7.089347
 21
22.672196
  0
LINE
  8
4
  6
CONTINUOUS
 10
7.126144
 20
22.869797
 11
7.109276
 21
22.670509
  0
POLYLINE
  8
4
  6
CONTINUOUS
 66
     1
  0
VERTEX
  8
4
  6
CONTINUOUS
 10
8.074290
 20
22.689186
  0
VERTEX
  8
4
  6
CONTINUOUS
 10
96.734389
 20
15.184824
  0
SEQEND
  8
4
  6
CONTINUOUS
  0
LINE
  8
4
  6
CONTINUOUS
 10
96.807484
 20
16.048403
 11
97.554811
 21
15.985148
  0
LINE
  8
4
  6
CONTINUOUS
 10
97.550067
 20
15.929098
 11
97.559555
 21
16.041197
  0
LINE
  8
4
  6
CONTINUOUS
 10
97.550067
 20
15.929098
 11
98.302139
 21
15.921892
  0
LINE
  8
4
  6
CONTINUOUS
 10
97.559555
 20
16.041197
 11
98.302139
 21
15.921892
  0
LINE
  8
4
  6
CONTINUOUS
 10
97.395857
 20
15.885700
 11
97.414834
 21
16.109898
  0
LINE
  8
4
  6
CONTINUOUS
 10
97.302442
 20
15.893606
 11
97.321418
 21
16.117805
  0
LINE
  8
4
  6
CONTINUOUS
 10
97.209026
 20
15.901513
 11
97.228002
 21
16.125712
  0
LINE
  8
4
  6
CONTINUOUS
 10
8.147385
 20
23.552765
 11
7.150948
 21
23.637105
  0
LINE
  8
4
  6
CONTINUOUS
 10
7.159382
 20
23.736749
 11
7.142514
 21
23.537462
  0
LINE
  8
4
  6
CONTINUOUS
 10
7.179310
 20
23.735062
 11
7.162442
 21
23.535775
  0
LINE
  8
4
  6
CONTINUOUS
 10
7.199239
 20
23.733375
 11
7.182371
 21
23.534088
  0
POLYLINE
  8
4
  6
CONTINUOUS
 66
     1
  0
VERTEX
  8
4
  6
CONTINUOUS
 10
8.147385
 20
23.552765
  0
VERTEX
  8
4
  6
CONTINUOUS
 10
96.807484
 20
16.048403
  0
SEQEND
  8
4
  6
CONTINUOUS
  0
LINE
  8
4
  6
CONTINUOUS
 10
96.880579
 20
16.911982
 11
97.627906
 21
16.848726
  0
LINE
  8
4
  6
CONTINUOUS
 10
97.623162
 20
16.792677
 11
97.632650
 21
16.904776
  0
LINE
  8
4
  6
CONTINUOUS
 10
97.623162
 20
16.792677
 11
98.375234
 21
16.785471
  0
LINE
  8
4
  6
CONTINUOUS
 10
97.632650
 20
16.904776
 11
98.375234
 21
16.785471
  0
LINE
  8
4
  6
CONTINUOUS
 10
97.468952
 20
16.749278
 11
97.487929
 21
16.973477
  0
LINE
  8
4
  6
CONTINUOUS
 10
97.375536
 20
16.757185
 11
97.394513
 21
16.981383
  0
LINE
  8
4
  6
CONTINUOUS
 10
97.282121
 20
16.765092
 11
97.301097
 21
16.989290
  0
LINE
  8
4
  6
CONTINUOUS
 10
8.220480
 20
24.416344
 11
7.224043
 21
24.500684
  0
LINE
  8
4
  6
CONTINUOUS
 10
7.232477
 20
24.600328
 11
7.215609
 21
24.401040
  0
LINE
  8
4
  6
CONTINUOUS
 10
7.252405
 20
24.598641
 11
7.235537
 21
24.399354
  0
LINE
  8
4
  6
CONTINUOUS
 10
7.272334
 20
24.596954
 11
7.255466
 21
24.397667
  0
POLYLINE
  8
4
  6
CONTINUOUS
 66
     1
  0
VERTEX
  8
4
  6
CONTINUOUS
 10
8.220480
 20
24.416344
  0
VERTEX
  8
4
  6
CONTINUOUS
 10
96.880579
 20
16.911982
  0
SEQEND
  8
4
  6
CONTINUOUS
  0
LINE
  8
4
  6
CONTINUOUS
 10
96.953674
 20
17.775560
 11
97.701001
 21
17.712305
  0
LINE
  8
4
  6
CONTINUOUS
 10
97.696257
 20
17.656256
 11
97.705745
 21
17.768355
  0
LINE
  8
4
  6
CONTINUOUS
 10
97.696257
 20
17.656256
 11
98.448329
 21
17.649050
  0
LINE
  8
4
  6
CONTINUOUS
 10
97.705745
 20
17.768355
 11
98.448329
 21
17.649050
  0
LINE
  8
4
  6
CONTINUOUS
 10
97.542047
 20
17.612857
 11
97.561024
 21
17.837055
  0
LINE
  8
4
  6
CONTINUOUS
 10
97.448631
 20
17.620764
 11
97.467608
 21
17.844962
  0
LINE
  8
4
  6
CONTINUOUS
 10
97.355215
 20
17.628671
 11
97.374192
 21
17.852869
  0
LINE
  8
4
  6
CONTINUOUS
 10
8.293575
 20
25.279922
 11
7.297138
 21
25.364263
  0
LINE
  8
4
  6
CONTINUOUS
 10
7.305572
 20
25.463906
 11
7.288704
 21
25.264619
  0
LINE
  8
4
  6
CONTINUOUS
 10
7.325500
 20
25.462220
 11
7.308632
 21
25.262932
  0
LINE
  8
4
  6
CONTINUOUS
 10
7.345429
 20
25.460533
 11
7.328561
 21
25.261245
  0
POLYLINE
  8
4
  6
CONTINUOUS
 66
     1
  0
VERTEX
  8
4
  6
CONTINUOUS
 10
8.293575
 20
25.279922
  0
VERTEX
  8
4
  6
CONTINUOUS
 10
96.953674
 20
17.775560
  0
SEQEND
  8
4
  6
CONTINUOUS
  0
LINE
  8
4
  6
CONTINUOUS
 10
97.026768
 20
18.639139
 11
97.774096
 21
18.575884
  0
LINE
  8
4
  6
CONTINUOUS
 10
97.769352
 20
18.519834
 11
97.778840
 21
18.631933
  0
LINE
  8
4
  6
CONTINUOUS
 10
97.769352
 20
18.519834
 11
98.521424
 21
18.512629
  0
LINE
  8
4
  6
CONTINUOUS
 10
97.778840
 20
18.631933
 11
98.521424
 21
18.512629
  0
LINE
  8
4
  6
CONTINUOUS
 10
97.615142
 20
18.476436
 11
97.634119
 21
18.700634
  0
LINE
  8
4
  6
CONTINUOUS
 10
97.521726
 20
18.484343
 11
97.540703
 21
18.708541
  0
LINE
  8
4
  6
CONTINUOUS
 10
97.428310
 20
18.492250
 11
97.447287
 21
18.716448
  0
LINE
  8
4
  6
CONTINUOUS
 10
8.366670
 20
26.143501
 11
7.370233
 21
26.227842
  0
LINE
  8
4
  6
CONTINUOUS
 10
7.378667
 20
26.327485
 11
7.361798
 21
26.128198
  0
LINE
  8
4
  6
CONTINUOUS
 10
7.398595
 20
26.325798
 11
7.381727
 21
26.126511
  0
LINE
  8
4
  6
CONTINUOUS
 10
7.418524
 20
26.324112
 11
7.401656
 21
26.124824
  0
POLYLINE
  8
4
  6
CONTINUOUS
 66
     1
  0
VERTEX
  8
4
  6
CONTINUOUS
 10
8.366670
 20
26.143501
  0
VERTEX
  8
4
  6
CONTINUOUS
 10
97.026768
 20
18.639139
  0
SEQEND
  8
4
  6
CONTINUOUS
  0
LINE
  8
4
  6
CONTINUOUS
 10
97.099863
 20
19.502718
 11
97.847191
 21
19.439463
  0
LINE
  8
4
  6
CONTINUOUS
 10
97.842447
 20
19.383413
 11
97.851935
 21
19.495512
  0
LINE
  8
4
  6
CONTINUOUS
 10
97.842447
 20
19.383413
 11
98.594519
 21
19.376207
  0
LINE
  8
4
  6
CONTINUOUS
 10
97.851935
 20
19.495512
 11
98.594519
 21
19.376207
  0
LINE
  8
4
  6
CONTINUOUS
 10
97.688237
 20
19.340014
 11
97.707214
 21
19.564213
  0
LINE
  8
4
  6
CONTINUOUS
 10
97.594821
 20
19.347921
 11
97.613798
 21
19.572120
  0
LINE
  8
4
  6
CONTINUOUS
 10
97.501405
 20
19.355828
 11
97.520382
 21
19.580027
  0
LINE
  8
4
  6
CONTINUOUS
 10
8.439764
 20
27.007080
 11
7.443327
 21
27.091420
  0
LINE
  8
4
  6
CONTINUOUS
 10
7.451762
 20
27.191064
 11
7.434893
 21
26.991777
  0
LINE
  8
4
  6
CONTINUOUS
 10
7.471690
 20
27.189377
 11
7.454822
 21
26.990090
  0
LINE
  8
4
  6
CONTINUOUS
 10
7.491619
 20
27.187690
 11
7.474751
 21
26.988403
  0
POLYLINE
  8
4
  6
CONTINUOUS
 66
     1
  0
VERTEX
  8
4
  6
CONTINUOUS
 10
8.439764
 20
27.007080
  0
VERTEX
  8
4
  6
CONTINUOUS
 10
97.099863
 20
19.502718
  0
SEQEND
  8
4
  6
CONTINUOUS
  0
LINE
  8
4
  6
CONTINUOUS
 10
97.172958
 20
20.366297
 11
97.920286
 21
20.303041
  0
LINE
  8
4
  6
CONTINUOUS
 10
97.915542
 20
20.246992
 11
97.925030
 21
20.359091
  0
LINE
  8
4
  6
CONTINUOUS
 10
97.915542
 20
20.246992
 11
98.667614
 21
20.239786
  0
LINE
  8
4
  6
CONTINUOUS
 10
97.925030
 20
20.359091
 11
98.667614
 21
20.239786
  0
LINE
  8
4
  6
CONTINUOUS
 10
97.761332
 20
20.203593
 11
97.780309
 21
20.427792
  0
LINE
  8
4
  6
CONTINUOUS
 10
97.667916
 20
20.211500
 11
97.686893
 21
20.435698
  0
LINE
  8
4
  6
CONTINUOUS
 10
97.574500
 20
20.219407
 11
97.593477
 21
20.443605
  0
LINE
  8
4
  6
CONTINUOUS
 10
8.512859
 20
27.870659
 11
7.516422
 21
27.954999
  0
LINE
  8
4
  6
CONTINUOUS
 10
7.524856
 20
28.054643
 11
7.507988
 21
27.855355
  0
LINE
  8
4
  6
CONTINUOUS
 10
7.544785
 20
28.052956
 11
7.527917
 21
27.853668
  0
LINE
  8
4
  6
CONTINUOUS
 10
7.564714
 20
28.051269
 11
7.547846
 21
27.851982
  0
POLYLINE
  8
4
  6
CONTINUOUS
 66
     1
  0
VERTEX
  8
4
  6
CONTINUOUS
 10
8.512859
 20
27.870659
  0
VERTEX
  8
4
  6
CONTINUOUS
 10
97.172958
 20
20.366297
  0
SEQEND
  8
4
  6
CONTINUOUS
  0
LINE
  8
4
  6
CONTINUOUS
 10
97.246053
 20
21.229875
 11
97.993381
 21
21.166620
  0
LINE
  8
4
  6
CONTINUOUS
 10
97.988637
 20
21.110570
 11
97.998125
 21
21.222670
  0
LINE
  8
4
  6
CONTINUOUS
 10
97.988637
 20
21.110570
 11
98.740709
 21
21.103365
  0
LINE
  8
4
  6
CONTINUOUS
 10
97.998125
 20
21.222670
 11
98.740709
 21
21.103365
  0
LINE
  8
4
  6
CONTINUOUS
 10
97.834427
 20
21.067172
 11
97.853404
 21
21.291370
  0
LINE
  8
4
  6
CONTINUOUS
 10
97.741011
 20
21.075079
 11
97.759988
 21
21.299277
  0
LINE
  8
4
  6
CONTINUOUS
 10
97.647595
 20
21.082986
 11
97.666572
 21
21.307184
  0
LINE
  8
4
  6
CONTINUOUS
 10
8.585954
 20
28.734237
 11
7.589517
 21
28.818578
  0
LINE
  8
4
  6
CONTINUOUS
 10
7.597951
 20
28.918221
 11
7.581083
 21
28.718934
  0
LINE
  8
4
  6
CONTINUOUS
 10
7.617880
 20
28.916535
 11
7.601012
 21
28.717247
  0
LINE
  8
4
  6
CONTINUOUS
 10
7.637809
 20
28.914848
 11
7.620941
 21
28.715560
  0
POLYLINE
  8
4
  6
CONTINUOUS
 66
     1
  0
VERTEX
  8
4
  6
CONTINUOUS
 10
8.585954
 20
28.734237
  0
VERTEX
  8
4
  6
CONTINUOUS
 10
97.246053
 20
21.229875
  0
SEQEND
  8
4
  6
CONTINUOUS
  0
LINE
  8
4
  6
CONTINUOUS
 10
97.319148
 20
22.093454
 11
98.066476
 21
22.030199
  0
LINE
  8
4
  6
CONTINUOUS
 10
98.061732
 20
21.974149
 11
98.071220
 21
22.086248
  0
LINE
  8
4
  6
CONTINUOUS
 10
98.061732
 20
21.974149
 11
98.813804
 21
21.966944
  0
LINE
  8
4
  6
CONTINUOUS
 10
98.071220
 20
22.086248
 11
98.813804
 21
21.966944
  0
LINE
  8
4
  6
CONTINUOUS
 10
97.907522
 20
21.930751
 11
97.926499
 21
22.154949
  0
LINE
  8
4
  6
CONTINUOUS
 10
97.814106
 20
21.938658
 11
97.833083
 21
22.162856
  0
LINE
  8
4
  6
CONTINUOUS
 10
97.720690
 20
21.946564
 11
97.739667
 21
22.170763
  0
LINE
  8
4
  6
CONTINUOUS
 10
8.659049
 20
29.597816
 11
7.662612
 21
29.682156
  0
LINE
  8
4
  6
CONTINUOUS
 10
7.671046
 20
29.781800
 11
7.654178
 21
29.582513
  0
LINE
  8
4
  6
CONTINUOUS
 10
7.690975
 20
29.780113
 11
7.674107
 21
29.580826
  0
LINE
  8
4
  6
CONTINUOUS
 10
7.710904
 20
29.778427
 11
7.694036
 21
29.579139
  0
POLYLINE
  8
4
  6
CONTINUOUS
 66
     1
  0
VERTEX
  8
4
  6
CONTINUOUS
 10
8.659049
 20
29.597816
  0
VERTEX
  8
4
  6
CONTINUOUS
 10
97.319148
 20
22.093454
  0
SEQEND
  8
4
  6
CONTINUOUS
  0
LINE
  8
4
  6
CONTINUOUS
 10
97.392243
 20
22.957033
 11
98.139571
 21
22.893778
  0
LINE
  8
4
  6
CONTINUOUS
 10
98.134827
 20
22.837728
 11
98.144315
 21
22.949827
  0
LINE
  8
4
  6
CONTINUOUS
 10
98.134827
 20
22.837728
 11
98.886899
 21
22.830522
  0
LINE
  8
4
  6
CONTINUOUS
 10
98.144315
 20
22.949827
 11
98.886899
 21
22.830522
  0
LINE
  8
4
  6
CONTINUOUS
 10
97.980617
 20
22.794329
 11
97.999594
 21
23.018528
  0
LINE
  8
4
  6
CONTINUOUS
 10
97.887201
 20
22.802236
 11
97.906178
 21
23.026435
  0
LINE
  8
4
  6
CONTINUOUS
 10
97.793785
 20
22.810143
 11
97.812762
 21
23.034342
  0
LINE
  8
4
  6
CONTINUOUS
 10
8.732144
 20
30.461395
 11
7.735707
 21
30.545735
  0
LINE
  8
4
  6
CONTINUOUS
 10
7.744141
 20
30.645379
 11
7.727273
 21
30.446092
  0
LINE
  8
4
  6
CONTINUOUS
 10
7.764070
 20
30.643692
 11
7.747202
 21
30.444405
  0
LINE
  8
4
  6
CONTINUOUS
 10
7.783999
 20
30.642005
 11
7.767131
 21
30.442718
  0
POLYLINE
  8
4
  6
CONTINUOUS
 66
     1
  0
VERTEX
  8
4
  6
CONTINUOUS
 10
8.732144
 20
30.461395
  0
VERTEX
  8
4
  6
CONTINUOUS
 10
97.392243
 20
22.957033
  0
SEQEND
  8
4
  6
CONTINUOUS
  0
LINE
  8
4
  6
CONTINUOUS
 10
96.210892
 20
9.000663
 11
96.958219
 21
8.937407
  0
LINE
  8
4
  6
CONTINUOUS
 10
96.953475
 20
8.881358
 11
96.962964
 21
8.993457
  0
LINE
  8
4
  6
CONTINUOUS
 10
96.953475
 20
8.881358
 11
97.705547
 21
8.874152
  0
LINE
  8
4
  6
CONTINUOUS
 10
96.962964
 20
8.993457
 11
97.705547
 21
8.874152
  0
LINE
  8
4
  6
CONTINUOUS
 10
96.786809
 20
8.839014
 11
96.805786
 21
9.063212
  0
LINE
  8
4
  6
CONTINUOUS
 10
96.662255
 20
8.849556
 11
96.681232
 21
9.073754
  0
LINE
  8
4
  6
CONTINUOUS
 10
8.159825
 20
16.453471
 11
7.163388
 21
16.537811
  0
LINE
  8
4
  6
CONTINUOUS
 10
7.171822
 20
16.637455
 11
7.154954
 21
16.438168
  0
LINE
  8
4
  6
CONTINUOUS
 10
7.191750
 20
16.635768
 11
7.174882
 21
16.436481
  0
LINE
  8
4
  6
CONTINUOUS
 10
7.211679
 20
16.634082
 11
7.194811
 21
16.434794
  0
POLYLINE
  8
4
  6
CONTINUOUS
 66
     1
  0
VERTEX
  8
4
  6
CONTINUOUS
 10
8.159825
 20
16.453471
  0
VERTEX
  8
4
  6
CONTINUOUS
 10
96.210892
 20
9.000663
  0
SEQEND
  8
4
  6
CONTINUOUS
  0
LINE
  8
4
  6
CONTINUOUS
 10
96.343025
 20
10.561747
 11
97.090353
 21
10.498492
  0
LINE
  8
4
  6
CONTINUOUS
 10
97.085608
 20
10.442442
 11
97.095097
 21
10.554542
  0
LINE
  8
4
  6
CONTINUOUS
 10
97.085608
 20
10.442442
 11
97.837680
 21
10.435237
  0
LINE
  8
4
  6
CONTINUOUS
 10
97.095097
 20
10.554542
 11
97.837680
 21
10.435237
  0
LINE
  8
4
  6
CONTINUOUS
 10
96.918942
 20
10.400098
 11
96.937919
 21
10.624297
  0
LINE
  8
4
  6
CONTINUOUS
 10
96.794388
 20
10.410641
 11
96.813365
 21
10.634839
  0
LINE
  8
4
  6
CONTINUOUS
 10
8.291958
 20
18.014556
 11
7.295521
 21
18.098896
  0
LINE
  8
4
  6
CONTINUOUS
 10
7.303955
 20
18.198540
 11
7.287087
 21
17.999252
  0
LINE
  8
4
  6
CONTINUOUS
 10
7.323883
 20
18.196853
 11
7.307015
 21
17.997566
  0
LINE
  8
4
  6
CONTINUOUS
 10
7.343812
 20
18.195166
 11
7.326944
 21
17.995879
  0
POLYLINE
  8
4
  6
CONTINUOUS
 66
     1
  0
VERTEX
  8
4
  6
CONTINUOUS
 10
8.291958
 20
18.014556
  0
VERTEX
  8
4
  6
CONTINUOUS
 10
96.343025
 20
10.561747
  0
SEQEND
  8
4
  6
CONTINUOUS
  0
LINE
  8
4
  6
CONTINUOUS
 10
96.475158
 20
12.122832
 11
97.222486
 21
12.059577
  0
LINE
  8
4
  6
CONTINUOUS
 10
97.217742
 20
12.003527
 11
97.227230
 21
12.115626
  0
LINE
  8
4
  6
CONTINUOUS
 10
97.217742
 20
12.003527
 11
97.969813
 21
11.996321
  0
LINE
  8
4
  6
CONTINUOUS
 10
97.227230
 20
12.115626
 11
97.969813
 21
11.996321
  0
LINE
  8
4
  6
CONTINUOUS
 10
97.051075
 20
11.961183
 11
97.070052
 21
12.185381
  0
LINE
  8
4
  6
CONTINUOUS
 10
96.926521
 20
11.971725
 11
96.945498
 21
12.195924
  0
LINE
  8
4
  6
CONTINUOUS
 10
8.424091
 20
19.575640
 11
7.427654
 21
19.659981
  0
LINE
  8
4
  6
CONTINUOUS
 10
7.436088
 20
19.759624
 11
7.419220
 21
19.560337
  0
LINE
  8
4
  6
CONTINUOUS
 10
7.456017
 20
19.757938
 11
7.439149
 21
19.558650
  0
LINE
  8
4
  6
CONTINUOUS
 10
7.475945
 20
19.756251
 11
7.459077
 21
19.556963
  0
POLYLINE
  8
4
  6
CONTINUOUS
 66
     1
  0
VERTEX
  8
4
  6
CONTINUOUS
 10
8.424091
 20
19.575640
  0
VERTEX
  8
4
  6
CONTINUOUS
 10
96.475158
 20
12.122832
  0
SEQEND
  8
4
  6
CONTINUOUS
  0
LINE
  8
4
  6
CONTINUOUS
 10
97.479148
 20
23.982980
 11
98.226476
 21
23.919725
  0
LINE
  8
4
  6
CONTINUOUS
 10
98.221732
 20
23.863676
 11
98.231220
 21
23.975775
  0
LINE
  8
4
  6
CONTINUOUS
 10
98.221732
 20
23.863676
 11
98.973804
 21
23.856470
  0
LINE
  8
4
  6
CONTINUOUS
 10
98.231220
 20
23.975775
 11
98.973804
 21
23.856470
  0
LINE
  8
4
  6
CONTINUOUS
 10
98.067522
 20
23.820277
 11
98.086499
 21
24.044475
  0
LINE
  8
4
  6
CONTINUOUS
 10
97.974106
 20
23.828184
 11
97.993083
 21
24.052382
  0
LINE
  8
4
  6
CONTINUOUS
 10
97.880690
 20
23.836091
 11
97.899667
 21
24.060289
  0
LINE
  8
4
  6
CONTINUOUS
 10
7.423506
 20
31.605473
 11
6.427069
 21
31.689813
  0
LINE
  8
4
  6
CONTINUOUS
 10
6.435503
 20
31.789457
 11
6.418635
 21
31.590170
  0
LINE
  8
4
  6
CONTINUOUS
 10
6.455432
 20
31.787770
 11
6.438564
 21
31.588483
  0
LINE
  8
4
  6
CONTINUOUS
 10
6.475361
 20
31.786083
 11
6.458493
 21
31.586796
  0
POLYLINE
  8
4
  6
CONTINUOUS
 66
     1
  0
VERTEX
  8
4
  6
CONTINUOUS
 10
7.423506
 20
31.605473
  0
VERTEX
  8
4
  6
CONTINUOUS
 10
97.479148
 20
23.982980
  0
SEQEND
  8
4
  6
CONTINUOUS
  0
LINE
  8
4
  6
CONTINUOUS
 10
97.546621
 20
24.780130
 11
98.293948
 21
24.716875
  0
LINE
  8
4
  6
CONTINUOUS
 10
98.289204
 20
24.660825
 11
98.298693
 21
24.772924
  0
LINE
  8
4
  6
CONTINUOUS
 10
98.289204
 20
24.660825
 11
99.041276
 21
24.653619
  0
LINE
  8
4
  6
CONTINUOUS
 10
98.298693
 20
24.772924
 11
99.041276
 21
24.653619
  0
LINE
  8
4
  6
CONTINUOUS
 10
98.134995
 20
24.617427
 11
98.153971
 21
24.841625
  0
LINE
  8
4
  6
CONTINUOUS
 10
98.041579
 20
24.625334
 11
98.060555
 21
24.849532
  0
LINE
  8
4
  6
CONTINUOUS
 10
97.948163
 20
24.633240
 11
97.967139
 21
24.857439
  0
LINE
  8
4
  6
CONTINUOUS
 10
7.490979
 20
32.402622
 11
6.494542
 21
32.486963
  0
LINE
  8
4
  6
CONTINUOUS
 10
6.502976
 20
32.586607
 11
6.486108
 21
32.387319
  0
LINE
  8
4
  6
CONTINUOUS
 10
6.522905
 20
32.584920
 11
6.506036
 21
32.385632
  0
LINE
  8
4
  6
CONTINUOUS
 10
6.542833
 20
32.583233
 11
6.525965
 21
32.383945
  0
POLYLINE
  8
4
  6
CONTINUOUS
 66
     1
  0
VERTEX
  8
4
  6
CONTINUOUS
 10
7.490979
 20
32.402622
  0
VERTEX
  8
4
  6
CONTINUOUS
 10
97.546621
 20
24.780130
  0
SEQEND
  8
4
  6
CONTINUOUS
  0
LINE
  8
4
  6
CONTINUOUS
 10
97.614093
 20
25.577280
 11
98.361421
 21
25.514024
  0
LINE
  8
4
  6
CONTINUOUS
 10
98.356677
 20
25.457975
 11
98.366165
 21
25.570074
  0
LINE
  8
4
  6
CONTINUOUS
 10
98.356677
 20
25.457975
 11
99.108749
 21
25.450769
  0
LINE
  8
4
  6
CONTINUOUS
 10
98.366165
 20
25.570074
 11
99.108749
 21
25.450769
  0
LINE
  8
4
  6
CONTINUOUS
 10
98.202467
 20
25.414576
 11
98.221444
 21
25.638775
  0
LINE
  8
4
  6
CONTINUOUS
 10
98.109051
 20
25.422483
 11
98.128028
 21
25.646681
  0
LINE
  8
4
  6
CONTINUOUS
 10
98.015635
 20
25.430390
 11
98.034612
 21
25.654588
  0
LINE
  8
4
  6
CONTINUOUS
 10
7.558451
 20
33.199772
 11
6.562014
 21
33.284112
  0
LINE
  8
4
  6
CONTINUOUS
 10
6.570448
 20
33.383756
 11
6.553580
 21
33.184469
  0
LINE
  8
4
  6
CONTINUOUS
 10
6.590377
 20
33.382069
 11
6.573509
 21
33.182782
  0
LINE
  8
4
  6
CONTINUOUS
 10
6.610306
 20
33.380382
 11
6.593438
 21
33.181095
  0
POLYLINE
  8
4
  6
CONTINUOUS
 66
     1
  0
VERTEX
  8
4
  6
CONTINUOUS
 10
7.558451
 20
33.199772
  0
VERTEX
  8
4
  6
CONTINUOUS
 10
97.614093
 20
25.577280
  0
SEQEND
  8
4
  6
CONTINUOUS
  0
LINE
  8
4
  6
CONTINUOUS
 10
97.681565
 20
26.374429
 11
98.428893
 21
26.311174
  0
LINE
  8
4
  6
CONTINUOUS
 10
98.424149
 20
26.255124
 11
98.433637
 21
26.367223
  0
LINE
  8
4
  6
CONTINUOUS
 10
98.424149
 20
26.255124
 11
99.176221
 21
26.247919
  0
LINE
  8
4
  6
CONTINUOUS
 10
98.433637
 20
26.367223
 11
99.176221
 21
26.247919
  0
LINE
  8
4
  6
CONTINUOUS
 10
98.269939
 20
26.211726
 11
98.288916
 21
26.435924
  0
LINE
  8
4
  6
CONTINUOUS
 10
98.176523
 20
26.219633
 11
98.195500
 21
26.443831
  0
LINE
  8
4
  6
CONTINUOUS
 10
98.083107
 20
26.227540
 11
98.102084
 21
26.451738
  0
LINE
  8
4
  6
CONTINUOUS
 10
7.625924
 20
33.996922
 11
6.629487
 21
34.081262
  0
LINE
  8
4
  6
CONTINUOUS
 10
6.637921
 20
34.180906
 11
6.621052
 21
33.981618
  0
LINE
  8
4
  6
CONTINUOUS
 10
6.657849
 20
34.179219
 11
6.640981
 21
33.979931
  0
LINE
  8
4
  6
CONTINUOUS
 10
6.677778
 20
34.177532
 11
6.660910
 21
33.978245
  0
POLYLINE
  8
4
  6
CONTINUOUS
 66
     1
  0
VERTEX
  8
4
  6
CONTINUOUS
 10
7.625924
 20
33.996922
  0
VERTEX
  8
4
  6
CONTINUOUS
 10
97.681565
 20
26.374429
  0
SEQEND
  8
4
  6
CONTINUOUS
  0
LINE
  8
4
  6
CONTINUOUS
 10
97.749038
 20
27.171579
 11
98.496366
 21
27.108323
  0
LINE
  8
4
  6
CONTINUOUS
 10
98.491621
 20
27.052274
 11
98.501110
 21
27.164373
  0
LINE
  8
4
  6
CONTINUOUS
 10
98.491621
 20
27.052274
 11
99.243693
 21
27.045068
  0
LINE
  8
4
  6
CONTINUOUS
 10
98.501110
 20
27.164373
 11
99.243693
 21
27.045068
  0
LINE
  8
4
  6
CONTINUOUS
 10
98.337412
 20
27.008875
 11
98.356388
 21
27.233074
  0
LINE
  8
4
  6
CONTINUOUS
 10
98.243996
 20
27.016782
 11
98.262972
 21
27.240981
  0
LINE
  8
4
  6
CONTINUOUS
 10
98.150580
 20
27.024689
 11
98.169556
 21
27.248888
  0
LINE
  8
4
  6
CONTINUOUS
 10
7.693396
 20
34.794071
 11
6.696959
 21
34.878412
  0
LINE
  8
4
  6
CONTINUOUS
 10
6.705393
 20
34.978055
 11
6.688525
 21
34.778768
  0
LINE
  8
4
  6
CONTINUOUS
 10
6.725322
 20
34.976368
 11
6.708454
 21
34.777081
  0
LINE
  8
4
  6
CONTINUOUS
 10
6.745250
 20
34.974682
 11
6.728382
 21
34.775394
  0
POLYLINE
  8
4
  6
CONTINUOUS
 66
     1
  0
VERTEX
  8
4
  6
CONTINUOUS
 10
7.693396
 20
34.794071
  0
VERTEX
  8
4
  6
CONTINUOUS
 10
97.749038
 20
27.171579
  0
SEQEND
  8
4
  6
CONTINUOUS
  0
LINE
  8
4
  6
CONTINUOUS
 10
97.816510
 20
27.968728
 11
98.563838
 21
27.905473
  0
LINE
  8
4
  6
CONTINUOUS
 10
98.559094
 20
27.849424
 11
98.568582
 21
27.961523
  0
LINE
  8
4
  6
CONTINUOUS
 10
98.559094
 20
27.849424
 11
99.311166
 21
27.842218
  0
LINE
  8
4
  6
CONTINUOUS
 10
98.568582
 20
27.961523
 11
99.311166
 21
27.842218
  0
LINE
  8
4
  6
CONTINUOUS
 10
98.404884
 20
27.806025
 11
98.423861
 21
28.030223
  0
LINE
  8
4
  6
CONTINUOUS
 10
98.311468
 20
27.813932
 11
98.330445
 21
28.038130
  0
LINE
  8
4
  6
CONTINUOUS
 10
98.218052
 20
27.821839
 11
98.237029
 21
28.046037
  0
LINE
  8
4
  6
CONTINUOUS
 10
7.760868
 20
35.591221
 11
6.764431
 21
35.675561
  0
LINE
  8
4
  6
CONTINUOUS
 10
6.772865
 20
35.775205
 11
6.755997
 21
35.575917
  0
LINE
  8
4
  6
CONTINUOUS
 10
6.792794
 20
35.773518
 11
6.775926
 21
35.574231
  0
LINE
  8
4
  6
CONTINUOUS
 10
6.812723
 20
35.771831
 11
6.795855
 21
35.572544
  0
POLYLINE
  8
4
  6
CONTINUOUS
 66
     1
  0
VERTEX
  8
4
  6
CONTINUOUS
 10
7.760868
 20
35.591221
  0
VERTEX
  8
4
  6
CONTINUOUS
 10
97.816510
 20
27.968728
  0
SEQEND
  8
4
  6
CONTINUOUS
  0
LINE
  8
4
  6
CONTINUOUS
 10
97.883983
 20
28.765878
 11
98.631310
 21
28.702623
  0
LINE
  8
4
  6
CONTINUOUS
 10
98.626566
 20
28.646573
 11
98.636054
 21
28.758672
  0
LINE
  8
4
  6
CONTINUOUS
 10
98.626566
 20
28.646573
 11
99.378638
 21
28.639367
  0
LINE
  8
4
  6
CONTINUOUS
 10
98.636054
 20
28.758672
 11
99.378638
 21
28.639367
  0
LINE
  8
4
  6
CONTINUOUS
 10
98.472356
 20
28.603175
 11
98.491333
 21
28.827373
  0
LINE
  8
4
  6
CONTINUOUS
 10
98.378940
 20
28.611082
 11
98.397917
 21
28.835280
  0
LINE
  8
4
  6
CONTINUOUS
 10
98.285524
 20
28.618988
 11
98.304501
 21
28.843187
  0
LINE
  8
4
  6
CONTINUOUS
 10
7.828341
 20
36.388370
 11
6.831904
 21
36.472711
  0
LINE
  8
4
  6
CONTINUOUS
 10
6.840338
 20
36.572354
 11
6.823470
 21
36.373067
  0
LINE
  8
4
  6
CONTINUOUS
 10
6.860266
 20
36.570668
 11
6.843398
 21
36.371380
  0
LINE
  8
4
  6
CONTINUOUS
 10
6.880195
 20
36.568981
 11
6.863327
 21
36.369693
  0
POLYLINE
  8
4
  6
CONTINUOUS
 66
     1
  0
VERTEX
  8
4
  6
CONTINUOUS
 10
7.828341
 20
36.388370
  0
VERTEX
  8
4
  6
CONTINUOUS
 10
97.883983
 20
28.765878
  0
SEQEND
  8
4
  6
CONTINUOUS
  0
LINE
  8
4
  6
CONTINUOUS
 10
97.951455
 20
29.563028
 11
98.698783
 21
29.499772
  0
LINE
  8
4
  6
CONTINUOUS
 10
98.694038
 20
29.443723
 11
98.703527
 21
29.555822
  0
LINE
  8
4
  6
CONTINUOUS
 10
98.694038
 20
29.443723
 11
99.446110
 21
29.436517
  0
LINE
  8
4
  6
CONTINUOUS
 10
98.703527
 20
29.555822
 11
99.446110
 21
29.436517
  0
LINE
  8
4
  6
CONTINUOUS
 10
98.539829
 20
29.400324
 11
98.558805
 21
29.624523
  0
LINE
  8
4
  6
CONTINUOUS
 10
98.446413
 20
29.408231
 11
98.465389
 21
29.632429
  0
LINE
  8
4
  6
CONTINUOUS
 10
98.352997
 20
29.416138
 11
98.371973
 21
29.640336
  0
LINE
  8
4
  6
CONTINUOUS
 10
7.895813
 20
37.185520
 11
6.899376
 21
37.269860
  0
LINE
  8
4
  6
CONTINUOUS
 10
6.907810
 20
37.369504
 11
6.890942
 21
37.170217
  0
LINE
  8
4
  6
CONTINUOUS
 10
6.927739
 20
37.367817
 11
6.910871
 21
37.168530
  0
LINE
  8
4
  6
CONTINUOUS
 10
6.947667
 20
37.366130
 11
6.930799
 21
37.166843
  0
POLYLINE
  8
4
  6
CONTINUOUS
 66
     1
  0
VERTEX
  8
4
  6
CONTINUOUS
 10
7.895813
 20
37.185520
  0
VERTEX
  8
4
  6
CONTINUOUS
 10
97.951455
 20
29.563028
  0
SEQEND
  8
4
  6
CONTINUOUS
  0
LINE
  8
4
  6
CONTINUOUS
 10
98.018927
 20
30.360177
 11
98.766255
 21
30.296922
  0
LINE
  8
4
  6
CONTINUOUS
 10
98.761511
 20
30.240872
 11
98.770999
 21
30.352971
  0
LINE
  8
4
  6
CONTINUOUS
 10
98.761511
 20
30.240872
 11
99.513583
 21
30.233667
  0
LINE
  8
4
  6
CONTINUOUS
 10
98.770999
 20
30.352971
 11
99.513583
 21
30.233667
  0
LINE
  8
4
  6
CONTINUOUS
 10
98.607301
 20
30.197474
 11
98.626278
 21
30.421672
  0
LINE
  8
4
  6
CONTINUOUS
 10
98.513885
 20
30.205381
 11
98.532862
 21
30.429579
  0
LINE
  8
4
  6
CONTINUOUS
 10
98.420469
 20
30.213288
 11
98.439446
 21
30.437486
  0
LINE
  8
4
  6
CONTINUOUS
 10
7.963285
 20
37.982670
 11
6.966848
 21
38.067010
  0
LINE
  8
4
  6
CONTINUOUS
 10
6.975282
 20
38.166654
 11
6.958414
 21
37.967366
  0
LINE
  8
4
  6
CONTINUOUS
 10
6.995211
 20
38.164967
 11
6.978343
 21
37.965679
  0
LINE
  8
4
  6
CONTINUOUS
 10
7.015140
 20
38.163280
 11
6.998272
 21
37.963993
  0
POLYLINE
  8
4
  6
CONTINUOUS
 66
     1
  0
VERTEX
  8
4
  6
CONTINUOUS
 10
7.963285
 20
37.982670
  0
VERTEX
  8
4
  6
CONTINUOUS
 10
98.018927
 20
30.360177
  0
SEQEND
  8
4
  6
CONTINUOUS
  0
LINE
  8
4
  6
CONTINUOUS
 10
98.086400
 20
31.157327
 11
98.833727
 21
31.094071
  0
LINE
  8
4
  6
CONTINUOUS
 10
98.828983
 20
31.038022
 11
98.838471
 21
31.150121
  0
LINE
  8
4
  6
CONTINUOUS
 10
98.828983
 20
31.038022
 11
99.581055
 21
31.030816
  0
LINE
  8
4
  6
CONTINUOUS
 10
98.838471
 20
31.150121
 11
99.581055
 21
31.030816
  0
LINE
  8
4
  6
CONTINUOUS
 10
98.674773
 20
30.994623
 11
98.693750
 21
31.218822
  0
LINE
  8
4
  6
CONTINUOUS
 10
98.581358
 20
31.002530
 11
98.600334
 21
31.226729
  0
LINE
  8
4
  6
CONTINUOUS
 10
98.487942
 20
31.010437
 11
98.506918
 21
31.234636
  0
LINE
  8
4
  6
CONTINUOUS
 10
8.030758
 20
38.779819
 11
7.034321
 21
38.864160
  0
LINE
  8
4
  6
CONTINUOUS
 10
7.042755
 20
38.963803
 11
7.025887
 21
38.764516
  0
LINE
  8
4
  6
CONTINUOUS
 10
7.062683
 20
38.962116
 11
7.045815
 21
38.762829
  0
LINE
  8
4
  6
CONTINUOUS
 10
7.082612
 20
38.960430
 11
7.065744
 21
38.761142
  0
POLYLINE
  8
4
  6
CONTINUOUS
 66
     1
  0
VERTEX
  8
4
  6
CONTINUOUS
 10
8.030758
 20
38.779819
  0
VERTEX
  8
4
  6
CONTINUOUS
 10
98.086400
 20
31.157327
  0
SEQEND
  8
4
  6
CONTINUOUS
  0
LINE
  8
4
  6
CONTINUOUS
 10
98.153872
 20
31.954476
 11
98.901200
 21
31.891221
  0
LINE
  8
4
  6
CONTINUOUS
 10
98.896456
 20
31.835171
 11
98.905944
 21
31.947271
  0
LINE
  8
4
  6
CONTINUOUS
 10
98.896456
 20
31.835171
 11
99.648527
 21
31.827966
  0
LINE
  8
4
  6
CONTINUOUS
 10
98.905944
 20
31.947271
 11
99.648527
 21
31.827966
  0
LINE
  8
4
  6
CONTINUOUS
 10
98.742246
 20
31.791773
 11
98.761222
 21
32.015971
  0
LINE
  8
4
  6
CONTINUOUS
 10
98.648830
 20
31.799680
 11
98.667806
 21
32.023878
  0
LINE
  8
4
  6
CONTINUOUS
 10
98.555414
 20
31.807587
 11
98.574391
 21
32.031785
  0
LINE
  8
4
  6
CONTINUOUS
 10
8.098230
 20
39.576969
 11
7.101793
 21
39.661309
  0
LINE
  8
4
  6
CONTINUOUS
 10
7.110227
 20
39.760953
 11
7.093359
 21
39.561665
  0
LINE
  8
4
  6
CONTINUOUS
 10
7.130156
 20
39.759266
 11
7.113288
 21
39.559979
  0
LINE
  8
4
  6
CONTINUOUS
 10
7.150085
 20
39.757579
 11
7.133216
 21
39.558292
  0
POLYLINE
  8
4
  6
CONTINUOUS
 66
     1
  0
VERTEX
  8
4
  6
CONTINUOUS
 10
8.098230
 20
39.576969
  0
VERTEX
  8
4
  6
CONTINUOUS
 10
98.153872
 20
31.954476
  0
SEQEND
  8
4
  6
CONTINUOUS
  0
LINE
  8
4
  6
CONTINUOUS
 10
98.221344
 20
32.751626
 11
98.968672
 21
32.688371
  0
LINE
  8
4
  6
CONTINUOUS
 10
98.963928
 20
32.632321
 11
98.973416
 21
32.744420
  0
LINE
  8
4
  6
CONTINUOUS
 10
98.963928
 20
32.632321
 11
99.716000
 21
32.625115
  0
LINE
  8
4
  6
CONTINUOUS
 10
98.973416
 20
32.744420
 11
99.716000
 21
32.625115
  0
LINE
  8
4
  6
CONTINUOUS
 10
98.809718
 20
32.588923
 11
98.828695
 21
32.813121
  0
LINE
  8
4
  6
CONTINUOUS
 10
98.716302
 20
32.596829
 11
98.735279
 21
32.821028
  0
LINE
  8
4
  6
CONTINUOUS
 10
98.622886
 20
32.604736
 11
98.641863
 21
32.828935
  0
LINE
  8
4
  6
CONTINUOUS
 10
8.165702
 20
40.374118
 11
7.169265
 21
40.458459
  0
LINE
  8
4
  6
CONTINUOUS
 10
7.177699
 20
40.558102
 11
7.160831
 21
40.358815
  0
LINE
  8
4
  6
CONTINUOUS
 10
7.197628
 20
40.556416
 11
7.180760
 21
40.357128
  0
LINE
  8
4
  6
CONTINUOUS
 10
7.217557
 20
40.554729
 11
7.200689
 21
40.355441
  0
POLYLINE
  8
4
  6
CONTINUOUS
 66
     1
  0
VERTEX
  8
4
  6
CONTINUOUS
 10
8.165702
 20
40.374118
  0
VERTEX
  8
4
  6
CONTINUOUS
 10
98.221344
 20
32.751626
  0
SEQEND
  8
4
  6
CONTINUOUS
  0
LINE
  8
4
  6
CONTINUOUS
 10
98.288817
 20
33.548776
 11
99.036144
 21
33.485520
  0
LINE
  8
4
  6
CONTINUOUS
 10
99.031400
 20
33.429471
 11
99.040889
 21
33.541570
  0
LINE
  8
4
  6
CONTINUOUS
 10
99.031400
 20
33.429471
 11
99.783472
 21
33.422265
  0
LINE
  8
4
  6
CONTINUOUS
 10
99.040889
 20
33.541570
 11
99.783472
 21
33.422265
  0
LINE
  8
4
  6
CONTINUOUS
 10
98.877191
 20
33.386072
 11
98.896167
 21
33.610271
  0
LINE
  8
4
  6
CONTINUOUS
 10
98.783775
 20
33.393979
 11
98.802751
 21
33.618177
  0
LINE
  8
4
  6
CONTINUOUS
 10
98.690359
 20
33.401886
 11
98.709335
 21
33.626084
  0
LINE
  8
4
  6
CONTINUOUS
 10
8.233175
 20
41.171268
 11
7.236738
 21
41.255608
  0
LINE
  8
4
  6
CONTINUOUS
 10
7.245172
 20
41.355252
 11
7.228304
 21
41.155965
  0
LINE
  8
4
  6
CONTINUOUS
 10
7.265101
 20
41.353565
 11
7.248232
 21
41.154278
  0
LINE
  8
4
  6
CONTINUOUS
 10
7.285029
 20
41.351878
 11
7.268161
 21
41.152591
  0
POLYLINE
  8
4
  6
CONTINUOUS
 66
     1
  0
VERTEX
  8
4
  6
CONTINUOUS
 10
8.233175
 20
41.171268
  0
VERTEX
  8
4
  6
CONTINUOUS
 10
98.288817
 20
33.548776
  0
SEQEND
  8
4
  6
CONTINUOUS
  0
LINE
  8
4
  6
CONTINUOUS
 10
98.369868
 20
34.505571
 11
99.117196
 21
34.442316
  0
LINE
  8
4
  6
CONTINUOUS
 10
99.112452
 20
34.386266
 11
99.121940
 21
34.498366
  0
LINE
  8
4
  6
CONTINUOUS
 10
99.112452
 20
34.386266
 11
99.864524
 21
34.379061
  0
LINE
  8
4
  6
CONTINUOUS
 10
99.121940
 20
34.498366
 11
99.864524
 21
34.379061
  0
LINE
  8
4
  6
CONTINUOUS
 10
98.958242
 20
34.342868
 11
98.977219
 21
34.567066
  0
LINE
  8
4
  6
CONTINUOUS
 10
98.864826
 20
34.350775
 11
98.883803
 21
34.574973
  0
LINE
  8
4
  6
CONTINUOUS
 10
98.771410
 20
34.358682
 11
98.790387
 21
34.582880
  0
LINE
  8
4
  6
CONTINUOUS
 10
7.436954
 20
42.202323
 11
6.440517
 21
42.286664
  0
LINE
  8
4
  6
CONTINUOUS
 10
6.448951
 20
42.386308
 11
6.432083
 21
42.187020
  0
LINE
  8
4
  6
CONTINUOUS
 10
6.468880
 20
42.384621
 11
6.452012
 21
42.185333
  0
LINE
  8
4
  6
CONTINUOUS
 10
6.488809
 20
42.382934
 11
6.471940
 21
42.183647
  0
POLYLINE
  8
4
  6
CONTINUOUS
 66
     1
  0
VERTEX
  8
4
  6
CONTINUOUS
 10
7.436954
 20
42.202323
  0
VERTEX
  8
4
  6
CONTINUOUS
 10
98.369868
 20
34.505571
  0
SEQEND
  8
4
  6
CONTINUOUS
  0
LINE
  8
4
  6
CONTINUOUS
 10
98.444369
 20
35.385757
 11
99.191697
 21
35.322502
  0
LINE
  8
4
  6
CONTINUOUS
 10
99.186953
 20
35.266453
 11
99.196441
 21
35.378552
  0
LINE
  8
4
  6
CONTINUOUS
 10
99.186953
 20
35.266453
 11
99.939025
 21
35.259247
  0
LINE
  8
4
  6
CONTINUOUS
 10
99.196441
 20
35.378552
 11
99.939025
 21
35.259247
  0
LINE
  8
4
  6
CONTINUOUS
 10
99.032743
 20
35.223054
 11
99.051720
 21
35.447252
  0
LINE
  8
4
  6
CONTINUOUS
 10
98.939327
 20
35.230961
 11
98.958304
 21
35.455159
  0
LINE
  8
4
  6
CONTINUOUS
 10
98.845911
 20
35.238868
 11
98.864888
 21
35.463066
  0
LINE
  8
4
  6
CONTINUOUS
 10
7.511455
 20
43.082509
 11
6.515018
 21
43.166850
  0
LINE
  8
4
  6
CONTINUOUS
 10
6.523452
 20
43.266494
 11
6.506584
 21
43.067206
  0
LINE
  8
4
  6
CONTINUOUS
 10
6.543381
 20
43.264807
 11
6.526512
 21
43.065519
  0
LINE
  8
4
  6
CONTINUOUS
 10
6.563309
 20
43.263120
 11
6.546441
 21
43.063833
  0
POLYLINE
  8
4
  6
CONTINUOUS
 66
     1
  0
VERTEX
  8
4
  6
CONTINUOUS
 10
7.511455
 20
43.082509
  0
VERTEX
  8
4
  6
CONTINUOUS
 10
98.444369
 20
35.385757
  0
SEQEND
  8
4
  6
CONTINUOUS
  0
LINE
  8
4
  6
CONTINUOUS
 10
98.518870
 20
36.265943
 11
99.266198
 21
36.202688
  0
LINE
  8
4
  6
CONTINUOUS
 10
99.261454
 20
36.146639
 11
99.270942
 21
36.258738
  0
LINE
  8
4
  6
CONTINUOUS
 10
99.261454
 20
36.146639
 11
100.013525
 21
36.139433
  0
LINE
  8
4
  6
CONTINUOUS
 10
99.270942
 20
36.258738
 11
100.013525
 21
36.139433
  0
LINE
  8
4
  6
CONTINUOUS
 10
99.107244
 20
36.103240
 11
99.126220
 21
36.327438
  0
LINE
  8
4
  6
CONTINUOUS
 10
99.013828
 20
36.111147
 11
99.032804
 21
36.335345
  0
LINE
  8
4
  6
CONTINUOUS
 10
98.920412
 20
36.119054
 11
98.939388
 21
36.343252
  0
LINE
  8
4
  6
CONTINUOUS
 10
7.585956
 20
43.962695
 11
6.589519
 21
44.047036
  0
LINE
  8
4
  6
CONTINUOUS
 10
6.597953
 20
44.146680
 11
6.581085
 21
43.947392
  0
LINE
  8
4
  6
CONTINUOUS
 10
6.617881
 20
44.144993
 11
6.601013
 21
43.945705
  0
LINE
  8
4
  6
CONTINUOUS
 10
6.637810
 20
44.143306
 11
6.620942
 21
43.944019
  0
POLYLINE
  8
4
  6
CONTINUOUS
 66
     1
  0
VERTEX
  8
4
  6
CONTINUOUS
 10
7.585956
 20
43.962695
  0
VERTEX
  8
4
  6
CONTINUOUS
 10
98.518870
 20
36.265943
  0
SEQEND
  8
4
  6
CONTINUOUS
  0
LINE
  8
4
  6
CONTINUOUS
 10
98.593371
 20
37.146129
 11
99.340698
 21
37.082874
  0
LINE
  8
4
  6
CONTINUOUS
 10
99.335954
 20
37.026825
 11
99.345443
 21
37.138924
  0
LINE
  8
4
  6
CONTINUOUS
 10
99.335954
 20
37.026825
 11
100.088026
 21
37.019619
  0
LINE
  8
4
  6
CONTINUOUS
 10
99.345443
 20
37.138924
 11
100.088026
 21
37.019619
  0
LINE
  8
4
  6
CONTINUOUS
 10
99.181745
 20
36.983426
 11
99.200721
 21
37.207624
  0
LINE
  8
4
  6
CONTINUOUS
 10
99.088329
 20
36.991333
 11
99.107305
 21
37.215531
  0
LINE
  8
4
  6
CONTINUOUS
 10
98.994913
 20
36.999240
 11
99.013889
 21
37.223438
  0
LINE
  8
4
  6
CONTINUOUS
 10
7.660456
 20
44.842881
 11
6.664019
 21
44.927222
  0
LINE
  8
4
  6
CONTINUOUS
 10
6.672453
 20
45.026866
 11
6.655585
 21
44.827578
  0
LINE
  8
4
  6
CONTINUOUS
 10
6.692382
 20
45.025179
 11
6.675514
 21
44.825891
  0
LINE
  8
4
  6
CONTINUOUS
 10
6.712311
 20
45.023492
 11
6.695443
 21
44.824205
  0
POLYLINE
  8
4
  6
CONTINUOUS
 66
     1
  0
VERTEX
  8
4
  6
CONTINUOUS
 10
7.660456
 20
44.842881
  0
VERTEX
  8
4
  6
CONTINUOUS
 10
98.593371
 20
37.146129
  0
SEQEND
  8
4
  6
CONTINUOUS
  0
LINE
  8
4
  6
CONTINUOUS
 10
98.667871
 20
38.026315
 11
99.415199
 21
37.963060
  0
LINE
  8
4
  6
CONTINUOUS
 10
99.410455
 20
37.907011
 11
99.419943
 21
38.019110
  0
LINE
  8
4
  6
CONTINUOUS
 10
99.410455
 20
37.907011
 11
100.162527
 21
37.899805
  0
LINE
  8
4
  6
CONTINUOUS
 10
99.419943
 20
38.019110
 11
100.162527
 21
37.899805
  0
LINE
  8
4
  6
CONTINUOUS
 10
99.256245
 20
37.863612
 11
99.275222
 21
38.087810
  0
LINE
  8
4
  6
CONTINUOUS
 10
99.162829
 20
37.871519
 11
99.181806
 21
38.095717
  0
LINE
  8
4
  6
CONTINUOUS
 10
99.069413
 20
37.879426
 11
99.088390
 21
38.103624
  0
LINE
  8
4
  6
CONTINUOUS
 10
7.734957
 20
45.723067
 11
6.738520
 21
45.807408
  0
LINE
  8
4
  6
CONTINUOUS
 10
6.746954
 20
45.907052
 11
6.730086
 21
45.707764
  0
LINE
  8
4
  6
CONTINUOUS
 10
6.766883
 20
45.905365
 11
6.750015
 21
45.706077
  0
LINE
  8
4
  6
CONTINUOUS
 10
6.786812
 20
45.903678
 11
6.769944
 21
45.704391
  0
POLYLINE
  8
4
  6
CONTINUOUS
 66
     1
  0
VERTEX
  8
4
  6
CONTINUOUS
 10
7.734957
 20
45.723067
  0
VERTEX
  8
4
  6
CONTINUOUS
 10
98.667871
 20
38.026315
  0
SEQEND
  8
4
  6
CONTINUOUS
  0
LINE
  8
4
  6
CONTINUOUS
 10
98.742372
 20
38.906502
 11
99.489700
 21
38.843246
  0
LINE
  8
4
  6
CONTINUOUS
 10
99.484956
 20
38.787197
 11
99.494444
 21
38.899296
  0
LINE
  8
4
  6
CONTINUOUS
 10
99.484956
 20
38.787197
 11
100.237028
 21
38.779991
  0
LINE
  8
4
  6
CONTINUOUS
 10
99.494444
 20
38.899296
 11
100.237028
 21
38.779991
  0
LINE
  8
4
  6
CONTINUOUS
 10
99.330746
 20
38.743798
 11
99.349723
 21
38.967996
  0
LINE
  8
4
  6
CONTINUOUS
 10
99.237330
 20
38.751705
 11
99.256307
 21
38.975903
  0
LINE
  8
4
  6
CONTINUOUS
 10
99.143914
 20
38.759612
 11
99.162891
 21
38.983810
  0
LINE
  8
4
  6
CONTINUOUS
 10
7.809458
 20
46.603253
 11
6.813021
 21
46.687594
  0
LINE
  8
4
  6
CONTINUOUS
 10
6.821455
 20
46.787238
 11
6.804587
 21
46.587950
  0
LINE
  8
4
  6
CONTINUOUS
 10
6.841384
 20
46.785551
 11
6.824516
 21
46.586263
  0
LINE
  8
4
  6
CONTINUOUS
 10
6.861312
 20
46.783864
 11
6.844444
 21
46.584577
  0
POLYLINE
  8
4
  6
CONTINUOUS
 66
     1
  0
VERTEX
  8
4
  6
CONTINUOUS
 10
7.809458
 20
46.603253
  0
VERTEX
  8
4
  6
CONTINUOUS
 10
98.742372
 20
38.906502
  0
SEQEND
  8
4
  6
CONTINUOUS
  0
LINE
  8
4
  6
CONTINUOUS
 10
98.816873
 20
39.786688
 11
99.564201
 21
39.723432
  0
LINE
  8
4
  6
CONTINUOUS
 10
99.559457
 20
39.667383
 11
99.568945
 21
39.779482
  0
LINE
  8
4
  6
CONTINUOUS
 10
99.559457
 20
39.667383
 11
100.311529
 21
39.660177
  0
LINE
  8
4
  6
CONTINUOUS
 10
99.568945
 20
39.779482
 11
100.311529
 21
39.660177
  0
LINE
  8
4
  6
CONTINUOUS
 10
99.405247
 20
39.623984
 11
99.424224
 21
39.848182
  0
LINE
  8
4
  6
CONTINUOUS
 10
99.311831
 20
39.631891
 11
99.330808
 21
39.856089
  0
LINE
  8
4
  6
CONTINUOUS
 10
99.218415
 20
39.639798
 11
99.237392
 21
39.863996
  0
LINE
  8
4
  6
CONTINUOUS
 10
7.883959
 20
47.483439
 11
6.887522
 21
47.567780
  0
LINE
  8
4
  6
CONTINUOUS
 10
6.895956
 20
47.667424
 11
6.879088
 21
47.468136
  0
LINE
  8
4
  6
CONTINUOUS
 10
6.915884
 20
47.665737
 11
6.899016
 21
47.466449
  0
LINE
  8
4
  6
CONTINUOUS
 10
6.935813
 20
47.664050
 11
6.918945
 21
47.464763
  0
POLYLINE
  8
4
  6
CONTINUOUS
 66
     1
  0
VERTEX
  8
4
  6
CONTINUOUS
 10
7.883959
 20
47.483439
  0
VERTEX
  8
4
  6
CONTINUOUS
 10
98.816873
 20
39.786688
  0
SEQEND
  8
4
  6
CONTINUOUS
  0
LINE
  8
4
  6
CONTINUOUS
 10
98.891374
 20
40.666874
 11
99.638702
 21
40.603618
  0
LINE
  8
4
  6
CONTINUOUS
 10
99.633957
 20
40.547569
 11
99.643446
 21
40.659668
  0
LINE
  8
4
  6
CONTINUOUS
 10
99.633957
 20
40.547569
 11
100.386029
 21
40.540363
  0
LINE
  8
4
  6
CONTINUOUS
 10
99.643446
 20
40.659668
 11
100.386029
 21
40.540363
  0
LINE
  8
4
  6
CONTINUOUS
 10
99.479748
 20
40.504170
 11
99.498724
 21
40.728368
  0
LINE
  8
4
  6
CONTINUOUS
 10
99.386332
 20
40.512077
 11
99.405308
 21
40.736275
  0
LINE
  8
4
  6
CONTINUOUS
 10
99.292916
 20
40.519984
 11
99.311892
 21
40.744182
  0
LINE
  8
4
  6
CONTINUOUS
 10
7.958459
 20
48.363625
 11
6.962022
 21
48.447966
  0
LINE
  8
4
  6
CONTINUOUS
 10
6.970457
 20
48.547610
 11
6.953588
 21
48.348322
  0
LINE
  8
4
  6
CONTINUOUS
 10
6.990385
 20
48.545923
 11
6.973517
 21
48.346635
  0
LINE
  8
4
  6
CONTINUOUS
 10
7.010314
 20
48.544236
 11
6.993446
 21
48.344949
  0
POLYLINE
  8
4
  6
CONTINUOUS
 66
     1
  0
VERTEX
  8
4
  6
CONTINUOUS
 10
7.958459
 20
48.363625
  0
VERTEX
  8
4
  6
CONTINUOUS
 10
98.891374
 20
40.666874
  0
SEQEND
  8
4
  6
CONTINUOUS
  0
LINE
  8
4
  6
CONTINUOUS
 10
98.965875
 20
41.547060
 11
99.713202
 21
41.483804
  0
LINE
  8
4
  6
CONTINUOUS
 10
99.708458
 20
41.427755
 11
99.717947
 21
41.539854
  0
LINE
  8
4
  6
CONTINUOUS
 10
99.708458
 20
41.427755
 11
100.460530
 21
41.420549
  0
LINE
  8
4
  6
CONTINUOUS
 10
99.717947
 20
41.539854
 11
100.460530
 21
41.420549
  0
LINE
  8
4
  6
CONTINUOUS
 10
99.554249
 20
41.384356
 11
99.573225
 21
41.608554
  0
LINE
  8
4
  6
CONTINUOUS
 10
99.460833
 20
41.392263
 11
99.479809
 21
41.616461
  0
LINE
  8
4
  6
CONTINUOUS
 10
99.367417
 20
41.400170
 11
99.386393
 21
41.624368
  0
LINE
  8
4
  6
CONTINUOUS
 10
8.032960
 20
49.243811
 11
7.036523
 21
49.328152
  0
LINE
  8
4
  6
CONTINUOUS
 10
7.044957
 20
49.427796
 11
7.028089
 21
49.228508
  0
LINE
  8
4
  6
CONTINUOUS
 10
7.064886
 20
49.426109
 11
7.048018
 21
49.226821
  0
LINE
  8
4
  6
CONTINUOUS
 10
7.084815
 20
49.424422
 11
7.067947
 21
49.225135
  0
POLYLINE
  8
4
  6
CONTINUOUS
 66
     1
  0
VERTEX
  8
4
  6
CONTINUOUS
 10
8.032960
 20
49.243811
  0
VERTEX
  8
4
  6
CONTINUOUS
 10
98.965875
 20
41.547060
  0
SEQEND
  8
4
  6
CONTINUOUS
  0
LINE
  8
4
  6
CONTINUOUS
 10
99.040375
 20
42.427246
 11
99.787703
 21
42.363990
  0
LINE
  8
4
  6
CONTINUOUS
 10
99.782959
 20
42.307941
 11
99.792447
 21
42.420040
  0
LINE
  8
4
  6
CONTINUOUS
 10
99.782959
 20
42.307941
 11
100.535031
 21
42.300735
  0
LINE
  8
4
  6
CONTINUOUS
 10
99.792447
 20
42.420040
 11
100.535031
 21
42.300735
  0
LINE
  8
4
  6
CONTINUOUS
 10
99.628749
 20
42.264542
 11
99.647726
 21
42.488740
  0
LINE
  8
4
  6
CONTINUOUS
 10
99.535333
 20
42.272449
 11
99.554310
 21
42.496647
  0
LINE
  8
4
  6
CONTINUOUS
 10
99.441917
 20
42.280356
 11
99.460894
 21
42.504554
  0
LINE
  8
4
  6
CONTINUOUS
 10
8.107461
 20
50.123997
 11
7.111024
 21
50.208338
  0
LINE
  8
4
  6
CONTINUOUS
 10
7.119458
 20
50.307982
 11
7.102590
 21
50.108694
  0
LINE
  8
4
  6
CONTINUOUS
 10
7.139387
 20
50.306295
 11
7.122519
 21
50.107007
  0
LINE
  8
4
  6
CONTINUOUS
 10
7.159316
 20
50.304608
 11
7.142447
 21
50.105321
  0
POLYLINE
  8
4
  6
CONTINUOUS
 66
     1
  0
VERTEX
  8
4
  6
CONTINUOUS
 10
8.107461
 20
50.123997
  0
VERTEX
  8
4
  6
CONTINUOUS
 10
99.040375
 20
42.427246
  0
SEQEND
  8
4
  6
CONTINUOUS
  0
LINE
  8
4
  6
CONTINUOUS
 10
99.114876
 20
43.307432
 11
99.862204
 21
43.244176
  0
LINE
  8
4
  6
CONTINUOUS
 10
99.857460
 20
43.188127
 11
99.866948
 21
43.300226
  0
LINE
  8
4
  6
CONTINUOUS
 10
99.857460
 20
43.188127
 11
100.609532
 21
43.180921
  0
LINE
  8
4
  6
CONTINUOUS
 10
99.866948
 20
43.300226
 11
100.609532
 21
43.180921
  0
LINE
  8
4
  6
CONTINUOUS
 10
99.703250
 20
43.144728
 11
99.722227
 21
43.368926
  0
LINE
  8
4
  6
CONTINUOUS
 10
99.609834
 20
43.152635
 11
99.628811
 21
43.376833
  0
LINE
  8
4
  6
CONTINUOUS
 10
99.516418
 20
43.160542
 11
99.535395
 21
43.384740
  0
LINE
  8
4
  6
CONTINUOUS
 10
8.181962
 20
51.004183
 11
7.185525
 21
51.088524
  0
LINE
  8
4
  6
CONTINUOUS
 10
7.193959
 20
51.188168
 11
7.177091
 21
50.988880
  0
LINE
  8
4
  6
CONTINUOUS
 10
7.213888
 20
51.186481
 11
7.197020
 21
50.987193
  0
LINE
  8
4
  6
CONTINUOUS
 10
7.233816
 20
51.184794
 11
7.216948
 21
50.985507
  0
POLYLINE
  8
4
  6
CONTINUOUS
 66
     1
  0
VERTEX
  8
4
  6
CONTINUOUS
 10
8.181962
 20
51.004183
  0
VERTEX
  8
4
  6
CONTINUOUS
 10
99.114876
 20
43.307432
  0
SEQEND
  8
4
  6
CONTINUOUS
  0
LINE
  8
4
  6
CONTINUOUS
 10
99.189377
 20
44.187618
 11
99.936705
 21
44.124362
  0
LINE
  8
4
  6
CONTINUOUS
 10
99.931961
 20
44.068313
 11
99.941449
 21
44.180412
  0
LINE
  8
4
  6
CONTINUOUS
 10
99.931961
 20
44.068313
 11
100.684032
 21
44.061107
  0
LINE
  8
4
  6
CONTINUOUS
 10
99.941449
 20
44.180412
 11
100.684032
 21
44.061107
  0
LINE
  8
4
  6
CONTINUOUS
 10
99.777751
 20
44.024914
 11
99.796727
 21
44.249112
  0
LINE
  8
4
  6
CONTINUOUS
 10
99.684335
 20
44.032821
 11
99.703312
 21
44.257019
  0
LINE
  8
4
  6
CONTINUOUS
 10
99.590919
 20
44.040728
 11
99.609896
 21
44.264926
  0
LINE
  8
4
  6
CONTINUOUS
 10
8.256463
 20
51.884369
 11
7.260026
 21
51.968710
  0
LINE
  8
4
  6
CONTINUOUS
 10
7.268460
 20
52.068354
 11
7.251592
 21
51.869066
  0
LINE
  8
4
  6
CONTINUOUS
 10
7.288388
 20
52.066667
 11
7.271520
 21
51.867379
  0
LINE
  8
4
  6
CONTINUOUS
 10
7.308317
 20
52.064980
 11
7.291449
 21
51.865693
  0
POLYLINE
  8
4
  6
CONTINUOUS
 66
     1
  0
VERTEX
  8
4
  6
CONTINUOUS
 10
8.256463
 20
51.884369
  0
VERTEX
  8
4
  6
CONTINUOUS
 10
99.189377
 20
44.187618
  0
SEQEND
  8
4
  6
CONTINUOUS
  0
LINE
  8
4
  6
CONTINUOUS
 10
99.300058
 20
45.494853
 11
100.047386
 21
45.431598
  0
LINE
  8
4
  6
CONTINUOUS
 10
100.042642
 20
45.375548
 11
100.052130
 21
45.487647
  0
LINE
  8
4
  6
CONTINUOUS
 10
100.042642
 20
45.375548
 11
100.794714
 21
45.368342
  0
LINE
  8
4
  6
CONTINUOUS
 10
100.052130
 20
45.487647
 11
100.794714
 21
45.368342
  0
LINE
  8
4
  6
CONTINUOUS
 10
99.875976
 20
45.333204
 11
99.894952
 21
45.557402
  0
LINE
  8
4
  6
CONTINUOUS
 10
99.751421
 20
45.343747
 11
99.770398
 21
45.567945
  0
LINE
  8
4
  6
CONTINUOUS
 10
7.729425
 20
53.245587
 11
6.732988
 21
53.329927
  0
LINE
  8
4
  6
CONTINUOUS
 10
6.741422
 20
53.429571
 11
6.724554
 21
53.230284
  0
LINE
  8
4
  6
CONTINUOUS
 10
6.761351
 20
53.427884
 11
6.744483
 21
53.228597
  0
LINE
  8
4
  6
CONTINUOUS
 10
6.781280
 20
53.426198
 11
6.764411
 21
53.226910
  0
POLYLINE
  8
4
  6
CONTINUOUS
 66
     1
  0
VERTEX
  8
4
  6
CONTINUOUS
 10
7.729425
 20
53.245587
  0
VERTEX
  8
4
  6
CONTINUOUS
 10
99.300058
 20
45.494853
  0
SEQEND
  8
4
  6
CONTINUOUS
  0
LINE
  8
4
  6
CONTINUOUS
 10
99.439220
 20
47.138974
 11
100.186548
 21
47.075719
  0
LINE
  8
4
  6
CONTINUOUS
 10
100.181804
 20
47.019669
 11
100.191292
 21
47.131768
  0
LINE
  8
4
  6
CONTINUOUS
 10
100.181804
 20
47.019669
 11
100.933876
 21
47.012463
  0
LINE
  8
4
  6
CONTINUOUS
 10
100.191292
 20
47.131768
 11
100.933876
 21
47.012463
  0
LINE
  8
4
  6
CONTINUOUS
 10
100.015137
 20
46.977325
 11
100.034114
 21
47.201523
  0
LINE
  8
4
  6
CONTINUOUS
 10
99.890583
 20
46.987868
 11
99.909560
 21
47.212066
  0
LINE
  8
4
  6
CONTINUOUS
 10
7.868587
 20
54.889708
 11
6.872150
 21
54.974048
  0
LINE
  8
4
  6
CONTINUOUS
 10
6.880584
 20
55.073692
 11
6.863716
 21
54.874405
  0
LINE
  8
4
  6
CONTINUOUS
 10
6.900513
 20
55.072005
 11
6.883645
 21
54.872718
  0
LINE
  8
4
  6
CONTINUOUS
 10
6.920441
 20
55.070319
 11
6.903573
 21
54.871031
  0
POLYLINE
  8
4
  6
CONTINUOUS
 66
     1
  0
VERTEX
  8
4
  6
CONTINUOUS
 10
7.868587
 20
54.889708
  0
VERTEX
  8
4
  6
CONTINUOUS
 10
99.439220
 20
47.138974
  0
SEQEND
  8
4
  6
CONTINUOUS
  0
LINE
  8
4
  6
CONTINUOUS
 10
99.578382
 20
48.783095
 11
100.325710
 21
48.719840
  0
LINE
  8
4
  6
CONTINUOUS
 10
100.320966
 20
48.663790
 11
100.330454
 21
48.775889
  0
LINE
  8
4
  6
CONTINUOUS
 10
100.320966
 20
48.663790
 11
101.073037
 21
48.656584
  0
LINE
  8
4
  6
CONTINUOUS
 10
100.330454
 20
48.775889
 11
101.073037
 21
48.656584
  0
LINE
  8
4
  6
CONTINUOUS
 10
100.154299
 20
48.621446
 11
100.173276
 21
48.845644
  0
LINE
  8
4
  6
CONTINUOUS
 10
100.029745
 20
48.631989
 11
100.048722
 21
48.856187
  0
LINE
  8
4
  6
CONTINUOUS
 10
8.007749
 20
56.533829
 11
7.011312
 21
56.618170
  0
LINE
  8
4
  6
CONTINUOUS
 10
7.019746
 20
56.717813
 11
7.002878
 21
56.518526
  0
LINE
  8
4
  6
CONTINUOUS
 10
7.039675
 20
56.716126
 11
7.022807
 21
56.516839
  0
LINE
  8
4
  6
CONTINUOUS
 10
7.059603
 20
56.714440
 11
7.042735
 21
56.515152
  0
POLYLINE
  8
4
  6
CONTINUOUS
 66
     1
  0
VERTEX
  8
4
  6
CONTINUOUS
 10
8.007749
 20
56.533829
  0
VERTEX
  8
4
  6
CONTINUOUS
 10
99.578382
 20
48.783095
  0
SEQEND
  8
4
  6
CONTINUOUS
  0
LINE
  8
1
  6
CONTINUOUS
 10
48.818580
 20
70.546930
 11
68.242308
 21
70.546930
  0
LINE
  8
1
  6
CONTINUOUS
 10
48.818580
 20
70.546930
 11
48.818580
 21
69.546930
  0
LINE
  8
1
  6
CONTINUOUS
 10
48.818580
 20
69.546930
 11
65.107860
 21
69.546930
  0
LINE
  8
1
  6
CONTINUOUS
 10
48.818580
 20
69.546930
 11
48.818580
 21
68.546930
  0
LINE
  8
1
  6
CONTINUOUS
 10
51.307696
 20
69.546930
 11
51.307696
 21
68.546930
  0
LINE
  8
1
  6
CONTINUOUS
 10
53.445409
 20
69.546930
 11
53.445409
 21
68.546930
  0
LINE
  8
1
  6
CONTINUOUS
 10
54.820776
 20
69.546930
 11
54.820776
 21
68.546930
  0
LINE
  8
1
  6
CONTINUOUS
 10
58.985289
 20
69.046930
 11
58.985289
 21
68.546930
  0
LINE
  8
1
  6
CONTINUOUS
 10
61.973412
 20
69.546930
 11
61.973412
 21
68.546930
  0
LINE
  8
1
  6
CONTINUOUS
 10
63.018227
 20
69.046930
 11
63.018228
 21
68.546930
  0
LINE
  8
1
  6
CONTINUOUS
 10
64.063044
 20
69.046930
 11
64.063044
 21
68.546930
  0
LINE
  8
1
  6
CONTINUOUS
 10
65.107860
 20
69.546930
 11
65.107860
 21
68.546930
  0
LINE
  8
1
  6
CONTINUOUS
 10
48.818580
 20
68.546930
 11
68.242308
 21
68.546930
  0
LINE
  8
1
  6
CONTINUOUS
 10
54.820776
 20
69.046930
 11
58.985289
 21
69.046930
  0
LINE
  8
1
  6
CONTINUOUS
 10
58.985289
 20
69.046930
 11
61.973412
 21
69.046930
  0
LINE
  8
1
  6
CONTINUOUS
 10
61.973412
 20
69.046930
 11
63.018228
 21
69.046930
  0
LINE
  8
1
  6
CONTINUOUS
 10
63.018228
 20
69.046930
 11
64.063044
 21
69.046930
  0
LINE
  8
1
  6
CONTINUOUS
 10
64.063044
 20
69.046930
 11
68.242308
 21
69.046930
  0
LINE
  8
1
  6
CONTINUOUS
 10
68.242308
 20
68.546930
 11
68.242308
 21
70.546930
  0
LINE
  8
1
  6
CONTINUOUS
 10
66.675084
 20
69.046930
 11
66.675084
 21
68.546930
  0
LINE
  8
1
  6
CONTINUOUS
 10
65.107860
 20
69.546930
 11
68.242308
 21
69.546930
  0
LINE
  8
1
  6
CONTINUOUS
 10
48.818580
 20
68.546930
 11
48.818580
 21
68.046929
  0
LINE
  8
1
  6
CONTINUOUS
 10
48.818580
 20
68.046929
 11
68.242308
 21
68.046929
  0
LINE
  8
1
  6
CONTINUOUS
 10
51.307696
 20
68.546930
 11
51.307696
 21
68.046929
  0
LINE
  8
1
  6
CONTINUOUS
 10
53.445409
 20
68.546930
 11
53.445409
 21
68.046929
  0
LINE
  8
1
  6
CONTINUOUS
 10
54.820776
 20
68.546930
 11
54.820776
 21
68.046929
  0
LINE
  8
1
  6
CONTINUOUS
 10
58.985289
 20
68.546930
 11
58.985289
 21
68.046929
  0
LINE
  8
1
  6
CONTINUOUS
 10
61.973412
 20
68.546930
 11
61.973412
 21
68.046929
  0
LINE
  8
1
  6
CONTINUOUS
 10
63.018228
 20
68.546930
 11
63.018228
 21
68.046929
  0
LINE
  8
1
  6
CONTINUOUS
 10
64.063044
 20
68.546930
 11
64.063044
 21
68.046929
  0
LINE
  8
1
  6
CONTINUOUS
 10
65.107860
 20
68.546930
 11
65.107860
 21
68.046929
  0
LINE
  8
1
  6
CONTINUOUS
 10
65.107860
 20
68.046929
 11
65.107860
 21
68.546930
  0
LINE
  8
1
  6
CONTINUOUS
 10
65.107860
 20
68.546930
 11
65.107860
 21
68.046929
  0
LINE
  8
1
  6
CONTINUOUS
 10
66.675084
 20
68.546930
 11
66.675084
 21
68.046929
  0
LINE
  8
1
  6
CONTINUOUS
 10
68.242308
 20
68.546930
 11
68.242308
 21
68.046929
  0
LINE
  8
1
  6
CONTINUOUS
 10
48.818580
 20
68.046929
 11
48.818580
 21
67.546929
  0
LINE
  8
1
  6
CONTINUOUS
 10
48.818580
 20
67.546929
 11
68.242308
 21
67.546929
  0
LINE
  8
1
  6
CONTINUOUS
 10
51.307696
 20
68.046929
 11
51.307696
 21
67.546929
  0
LINE
  8
1
  6
CONTINUOUS
 10
53.445409
 20
68.046929
 11
53.445409
 21
67.546929
  0
LINE
  8
1
  6
CONTINUOUS
 10
54.820776
 20
68.046929
 11
54.820776
 21
67.546929
  0
LINE
  8
1
  6
CONTINUOUS
 10
58.985289
 20
68.046929
 11
58.985289
 21
67.546929
  0
LINE
  8
1
  6
CONTINUOUS
 10
61.973412
 20
68.046929
 11
61.973412
 21
67.546929
  0
LINE
  8
1
  6
CONTINUOUS
 10
63.018228
 20
68.046929
 11
63.018228
 21
67.546929
  0
LINE
  8
1
  6
CONTINUOUS
 10
64.063044
 20
68.046929
 11
64.063044
 21
67.546929
  0
LINE
  8
1
  6
CONTINUOUS
 10
65.107860
 20
68.046929
 11
65.107860
 21
67.546929
  0
LINE
  8
1
  6
CONTINUOUS
 10
65.107860
 20
67.546929
 11
65.107860
 21
68.046929
  0
LINE
  8
1
  6
CONTINUOUS
 10
65.107860
 20
68.046929
 11
65.107860
 21
67.546929
  0
LINE
  8
1
  6
CONTINUOUS
 10
66.675084
 20
68.046929
 11
66.675084
 21
67.546929
  0
LINE
  8
1
  6
CONTINUOUS
 10
68.242308
 20
68.046929
 11
68.242308
 21
67.546929
  0
LINE
  8
1
  6
CONTINUOUS
 10
48.818580
 20
67.546928
 11
48.818580
 21
67.046928
  0
LINE
  8
1
  6
CONTINUOUS
 10
48.818580
 20
67.046928
 11
68.242308
 21
67.046928
  0
LINE
  8
1
  6
CONTINUOUS
 10
51.307696
 20
67.546928
 11
51.307696
 21
67.046928
  0
LINE
  8
1
  6
CONTINUOUS
 10
53.445409
 20
67.546928
 11
53.445409
 21
67.046928
  0
LINE
  8
1
  6
CONTINUOUS
 10
54.820776
 20
67.546928
 11
54.820776
 21
67.046928
  0
LINE
  8
1
  6
CONTINUOUS
 10
58.985289
 20
67.546928
 11
58.985289
 21
67.046928
  0
LINE
  8
1
  6
CONTINUOUS
 10
61.973412
 20
67.546928
 11
61.973412
 21
67.046928
  0
LINE
  8
1
  6
CONTINUOUS
 10
63.018228
 20
67.546928
 11
63.018228
 21
67.046928
  0
LINE
  8
1
  6
CONTINUOUS
 10
64.063044
 20
67.546928
 11
64.063044
 21
67.046928
  0
LINE
  8
1
  6
CONTINUOUS
 10
65.107860
 20
67.546928
 11
65.107860
 21
67.046928
  0
LINE
  8
1
  6
CONTINUOUS
 10
65.107860
 20
67.046928
 11
65.107860
 21
67.546928
  0
LINE
  8
1
  6
CONTINUOUS
 10
65.107860
 20
67.546929
 11
65.107860
 21
67.046928
  0
LINE
  8
1
  6
CONTINUOUS
 10
66.675084
 20
67.546928
 11
66.675084
 21
67.046928
  0
LINE
  8
1
  6
CONTINUOUS
 10
68.242308
 20
67.546928
 11
68.242308
 21
67.046928
  0
LINE
  8
1
  6
CONTINUOUS
 10
48.818580
 20
67.046927
 11
48.818580
 21
66.546927
  0
LINE
  8
1
  6
CONTINUOUS
 10
48.818580
 20
66.546927
 11
68.242308
 21
66.546927
  0
LINE
  8
1
  6
CONTINUOUS
 10
51.307696
 20
67.046927
 11
51.307696
 21
66.546927
  0
LINE
  8
1
  6
CONTINUOUS
 10
53.445409
 20
67.046927
 11
53.445409
 21
66.546927
  0
LINE
  8
1
  6
CONTINUOUS
 10
54.820776
 20
67.046927
 11
54.820776
 21
66.546927
  0
LINE
  8
1
  6
CONTINUOUS
 10
58.985289
 20
67.046927
 11
58.985289
 21
66.546927
  0
LINE
  8
1
  6
CONTINUOUS
 10
61.973412
 20
67.046927
 11
61.973412
 21
66.546927
  0
LINE
  8
1
  6
CONTINUOUS
 10
63.018228
 20
67.046927
 11
63.018228
 21
66.546927
  0
LINE
  8
1
  6
CONTINUOUS
 10
64.063044
 20
67.046927
 11
64.063044
 21
66.546927
  0
LINE
  8
1
  6
CONTINUOUS
 10
65.107860
 20
67.046927
 11
65.107860
 21
66.546927
  0
LINE
  8
1
  6
CONTINUOUS
 10
65.107860
 20
66.546927
 11
65.107860
 21
67.046927
  0
LINE
  8
1
  6
CONTINUOUS
 10
65.107860
 20
67.046928
 11
65.107860
 21
66.546927
  0
LINE
  8
1
  6
CONTINUOUS
 10
66.675084
 20
67.046927
 11
66.675084
 21
66.546927
  0
LINE
  8
1
  6
CONTINUOUS
 10
68.242308
 20
67.046927
 11
68.242308
 21
66.546927
  0
LINE
  8
1
  6
CONTINUOUS
 10
48.818580
 20
66.546927
 11
48.818580
 21
66.046927
  0
LINE
  8
1
  6
CONTINUOUS
 10
48.818580
 20
66.046927
 11
68.242308
 21
66.046927
  0
LINE
  8
1
  6
CONTINUOUS
 10
51.307696
 20
66.546927
 11
51.307696
 21
66.046927
  0
LINE
  8
1
  6
CONTINUOUS
 10
53.445409
 20
66.546927
 11
53.445409
 21
66.046927
  0
LINE
  8
1
  6
CONTINUOUS
 10
54.820776
 20
66.546927
 11
54.820776
 21
66.046927
  0
LINE
  8
1
  6
CONTINUOUS
 10
58.985289
 20
66.546927
 11
58.985289
 21
66.046927
  0
LINE
  8
1
  6
CONTINUOUS
 10
61.973412
 20
66.546927
 11
61.973412
 21
66.046927
  0
LINE
  8
1
  6
CONTINUOUS
 10
63.018228
 20
66.546927
 11
63.018228
 21
66.046927
  0
LINE
  8
1
  6
CONTINUOUS
 10
64.063044
 20
66.546927
 11
64.063044
 21
66.046927
  0
LINE
  8
1
  6
CONTINUOUS
 10
65.107860
 20
66.546927
 11
65.107860
 21
66.046927
  0
LINE
  8
1
  6
CONTINUOUS
 10
65.107860
 20
66.046927
 11
65.107860
 21
66.546927
  0
LINE
  8
1
  6
CONTINUOUS
 10
65.107860
 20
66.546927
 11
65.107860
 21
66.046926
  0
LINE
  8
1
  6
CONTINUOUS
 10
66.675084
 20
66.546927
 11
66.675084
 21
66.046927
  0
LINE
  8
1
  6
CONTINUOUS
 10
68.242308
 20
66.546927
 11
68.242308
 21
66.046927
  0
LINE
  8
1
  6
CONTINUOUS
 10
48.818580
 20
65.409574
 11
62.101672
 21
65.409574
  0
LINE
  8
1
  6
CONTINUOUS
 10
48.818580
 20
64.046926
 11
62.101672
 21
64.046926
  0
LINE
  8
1
  6
CONTINUOUS
 10
48.818580
 20
63.546926
 11
57.740289
 21
63.546926
  0
LINE
  8
1
  6
CONTINUOUS
 10
57.740289
 20
63.546926
 11
59.928412
 21
63.546926
  0
LINE
  8
1
  6
CONTINUOUS
 10
59.308392
 20
63.546926
 11
60.353208
 21
63.546926
  0
LINE
  8
1
  6
CONTINUOUS
 10
60.353208
 20
63.546926
 11
62.018044
 21
63.546926
  0
LINE
  8
1
  6
CONTINUOUS
 10
62.018044
 20
63.546926
 11
62.101672
 21
63.546926
  0
LINE
  8
1
  6
CONTINUOUS
 10
48.818580
 20
65.409574
 11
48.818580
 21
62.546926
  0
LINE
  8
1
  6
CONTINUOUS
 10
48.818580
 20
62.546926
 11
62.101672
 21
62.546927
  0
LINE
  8
1
  6
CONTINUOUS
 10
50.956292
 20
63.546926
 11
50.956292
 21
62.546926
  0
LINE
  8
1
  6
CONTINUOUS
 10
53.144416
 20
62.546926
 11
53.144416
 21
63.546926
  0
LINE
  8
1
  6
CONTINUOUS
 10
60.012040
 20
63.546926
 11
60.012040
 21
62.546927
  0
LINE
  8
1
  6
CONTINUOUS
 10
61.056857
 20
63.546926
 11
61.056857
 21
62.546927
  0
LINE
  8
1
  6
CONTINUOUS
 10
54.847228
 20
62.546926
 11
54.847228
 21
63.046926
  0
LINE
  8
1
  6
CONTINUOUS
 10
62.101672
 20
62.546927
 11
62.101672
 21
65.409574
  0
LINE
  8
1
  6
CONTINUOUS
 10
53.144416
 20
63.046926
 11
58.967225
 21
63.046926
  0
LINE
  8
1
  6
CONTINUOUS
 10
58.967225
 20
62.546927
 11
58.967225
 21
64.046926
  0
LINE
  8
1
  6
CONTINUOUS
 10
56.907227
 20
62.546926
 11
56.907227
 21
63.046926
  0
LINE
  8
1
  6
CONTINUOUS
 10
48.818580
 20
62.546926
 11
48.818580
 21
62.046925
  0
LINE
  8
1
  6
CONTINUOUS
 10
50.956292
 20
62.546926
 11
50.956292
 21
62.046925
  0
LINE
  8
1
  6
CONTINUOUS
 10
53.144416
 20
62.546926
 11
53.144416
 21
62.046925
  0
LINE
  8
1
  6
CONTINUOUS
 10
48.818580
 20
62.046925
 11
62.101672
 21
62.046925
  0
LINE
  8
1
  6
CONTINUOUS
 10
58.967225
 20
62.546926
 11
58.967225
 21
62.046926
  0
LINE
  8
1
  6
CONTINUOUS
 10
60.012040
 20
62.546926
 11
60.012040
 21
62.046926
  0
LINE
  8
1
  6
CONTINUOUS
 10
61.056857
 20
62.546926
 11
61.056857
 21
62.046926
  0
LINE
  8
1
  6
CONTINUOUS
 10
54.847228
 20
62.546926
 11
54.847228
 21
62.046925
  0
LINE
  8
1
  6
CONTINUOUS
 10
56.907227
 20
62.046925
 11
56.907227
 21
62.546926
  0
LINE
  8
1
  6
CONTINUOUS
 10
58.967225
 20
62.046925
 11
58.967225
 21
62.546926
  0
LINE
  8
1
  6
CONTINUOUS
 10
62.101672
 20
62.546926
 11
62.101672
 21
62.046925
  0
LINE
  8
1
  6
CONTINUOUS
 10
48.818580
 20
62.046925
 11
48.818580
 21
61.546925
  0
LINE
  8
1
  6
CONTINUOUS
 10
50.956292
 20
62.046925
 11
50.956292
 21
61.546925
  0
LINE
  8
1
  6
CONTINUOUS
 10
53.144416
 20
62.046925
 11
53.144416
 21
61.546925
  0
LINE
  8
1
  6
CONTINUOUS
 10
48.818580
 20
61.546925
 11
62.101672
 21
61.546925
  0
LINE
  8
1
  6
CONTINUOUS
 10
58.967225
 20
62.046925
 11
58.967225
 21
61.546925
  0
LINE
  8
1
  6
CONTINUOUS
 10
60.012040
 20
62.046925
 11
60.012040
 21
61.546925
  0
LINE
  8
1
  6
CONTINUOUS
 10
61.056857
 20
62.046925
 11
61.056857
 21
61.546925
  0
LINE
  8
1
  6
CONTINUOUS
 10
54.847228
 20
62.046925
 11
54.847228
 21
61.546925
  0
LINE
  8
1
  6
CONTINUOUS
 10
56.907227
 20
61.546925
 11
56.907227
 21
62.046925
  0
LINE
  8
1
  6
CONTINUOUS
 10
58.967225
 20
61.546925
 11
58.967225
 21
62.046925
  0
LINE
  8
1
  6
CONTINUOUS
 10
62.101672
 20
62.046925
 11
62.101672
 21
61.546925
  0
LINE
  8
2
  6
CONTINUOUS
 10
101.700000
 20
23.900000
 11
101.700000
 21
23.900000
  0
LINE
  8
2
  6
CONTINUOUS
 10
118.000000
 20
23.900000
 11
118.000000
 21
23.900000
  0
LINE
  8
2
  6
CONTINUOUS
 10
118.000000
 20
23.900000
 11
101.700000
 21
23.900000
  0
LINE
  8
2
  6
CONTINUOUS
 10
118.000000
 20
22.200000
 11
101.700000
 21
22.200000
  0
LINE
  8
2
  6
CONTINUOUS
 10
101.700000
 20
23.900000
 11
101.700000
 21
22.200000
  0
LINE
  8
2
  6
CONTINUOUS
 10
118.000000
 20
22.200000
 11
118.000000
 21
23.900000
  0
LINE
  8
1
  6
CONTINUOUS
 10
118.000002
 20
29.700001
 11
119.000002
 21
29.700001
  0
LINE
  8
1
  6
CONTINUOUS
 10
118.000002
 20
59.400002
 11
119.000002
 21
59.400002
  0
LINE
  8
1
  6
CONTINUOUS
 10
0.000000
 20
29.700001
 11
2.500000
 21
29.700001
  0
LINE
  8
1
  6
CONTINUOUS
 10
0.000000
 20
59.400002
 11
2.500000
 21
59.400002
  0
LINE
  8
1
  6
CONTINUOUS
 10
100.500002
 20
82.999998
 11
100.500002
 21
83.999998
  0
LINE
  8
1
  6
CONTINUOUS
 10
82.000002
 20
82.999998
 11
82.000002
 21
83.999998
  0
LINE
  8
1
  6
CONTINUOUS
 10
63.500002
 20
82.999998
 11
63.500002
 21
83.999998
  0
LINE
  8
1
  6
CONTINUOUS
 10
45.000002
 20
82.999998
 11
45.000002
 21
83.999998
  0
LINE
  8
1
  6
CONTINUOUS
 10
33.050001
 20
82.999998
 11
33.050001
 21
83.999998
  0
LINE
  8
1
  6
CONTINUOUS
 10
21.100000
 20
82.999998
 11
21.100000
 21
83.999998
  0
LINE
  8
1
  6
CONTINUOUS
 10
100.500002
 20
0.000000
 11
100.500002
 21
1.000000
  0
LINE
  8
1
  6
CONTINUOUS
 10
82.000002
 20
0.000000
 11
82.000002
 21
1.000000
  0
LINE
  8
1
  6
CONTINUOUS
 10
63.500002
 20
0.000000
 11
63.500002
 21
1.000000
  0
LINE
  8
1
  6
CONTINUOUS
 10
45.000002
 20
0.000000
 11
45.000002
 21
1.000000
  0
LINE
  8
1
  6
CONTINUOUS
 10
33.050001
 20
0.000000
 11
33.050001
 21
1.000000
  0
LINE
  8
1
  6
CONTINUOUS
 10
21.100000
 20
0.000000
 11
21.100000
 21
1.000000
  0
LINE
  8
1
  6
CONTINUOUS
 10
0.000000
 20
0.000000
 11
119.000002
 21
0.000000
  0
LINE
  8
1
  6
CONTINUOUS
 10
119.000002
 20
0.000000
 11
119.000002
 21
83.999998
  0
LINE
  8
1
  6
CONTINUOUS
 10
0.000000
 20
0.000000
 11
0.000000
 21
83.999998
  0
LINE
  8
8
  6
CONTINUOUS
 10
2.500000
 20
1.000000
 11
118.000002
 21
1.000000
  0
LINE
  8
8
  6
CONTINUOUS
 10
118.000002
 20
1.000000
 11
118.000002
 21
82.999998
  0
LINE
  8
1
  6
CONTINUOUS
 10
0.000000
 20
83.999998
 11
119.000002
 21
83.999998
  0
LINE
  8
8
  6
CONTINUOUS
 10
2.500000
 20
82.999998
 11
118.000002
 21
82.999998
  0
LINE
  8
8
  6
CONTINUOUS
 10
2.500000
 20
82.999998
 11
2.500000
 21
1.000000
  0
LINE
  8
2
  6
CONTINUOUS
 10
102.650002
 20
17.625000
 11
102.650002
 21
18.125000
  0
LINE
  8
1
  6
CONTINUOUS
 10
101.700002
 20
18.200000
 11
118.000002
 21
18.200000
  0
LINE
  8
1
  6
CONTINUOUS
 10
101.700002
 20
17.700000
 11
118.000002
 21
17.700000
  0
LINE
  8
1
  6
CONTINUOUS
 10
102.200002
 20
17.700000
 11
118.000002
 21
17.700000
  0
LINE
  8
2
  6
CONTINUOUS
 10
102.650002
 20
17.125000
 11
102.650002
 21
17.625000
  0
LINE
  8
1
  6
CONTINUOUS
 10
102.200002
 20
17.700000
 11
118.000002
 21
17.700000
  0
LINE
  8
1
  6
CONTINUOUS
 10
101.700002
 20
17.200000
 11
118.000002
 21
17.200000
  0
LINE
  8
2
  6
CONTINUOUS
 10
102.650002
 20
16.700000
 11
102.650002
 21
17.200000
  0
LINE
  8
1
  6
CONTINUOUS
 10
116.008223
 20
16.000000
 11
116.008223
 21
22.200000
  0
LINE
  8
1
  6
CONTINUOUS
 10
104.850002
 20
16.000000
 11
104.850002
 21
22.200000
  0
LINE
  8
6
  6
CONTINUOUS
 10
101.700002
 20
16.000000
 11
118.000002
 21
16.000000
  0
LINE
  8
1
  6
CONTINUOUS
 10
102.650002
 20
16.000000
 11
102.650002
 21
16.700000
  0
LINE
  8
1
  6
CONTINUOUS
 10
102.200002
 20
17.200000
 11
118.000002
 21
17.200000
  0
LINE
  8
1
  6
CONTINUOUS
 10
101.700002
 20
16.700000
 11
118.000002
 21
16.700000
  0
LINE
  8
2
  6
CONTINUOUS
 10
102.650002
 20
18.625000
 11
102.650002
 21
22.200000
  0
LINE
  8
6
  6
CONTINUOUS
 10
101.700002
 20
22.200000
 11
118.000002
 21
22.200000
  0
LINE
  8
1
  6
CONTINUOUS
 10
101.700002
 20
18.700000
 11
118.000002
 21
18.700000
  0
LINE
  8
1
  6
CONTINUOUS
 10
102.200002
 20
18.700000
 11
118.000002
 21
18.700000
  0
LINE
  8
2
  6
CONTINUOUS
 10
102.650002
 20
18.125000
 11
102.650002
 21
18.625000
  0
LINE
  8
1
  6
CONTINUOUS
 10
102.200002
 20
18.700000
 11
118.000002
 21
18.700000
  0
LINE
  8
1
  6
CONTINUOUS
 10
102.200002
 20
18.200000
 11
118.000002
 21
18.200000
  0
LINE
  8
1
  6
CONTINUOUS
 10
102.200002
 20
18.200000
 11
118.000002
 21
18.200000
  0
LINE
  8
6
  6
CONTINUOUS
 10
101.700002
 20
6.600000
 11
118.000002
 21
6.600000
  0
LINE
  8
6
  6
CONTINUOUS
 10
101.700002
 20
8.500000
 11
118.000002
 21
8.500000
  0
LINE
  8
6
  6
CONTINUOUS
 10
101.700002
 20
1.000000
 11
101.700002
 21
8.500000
  0
LINE
  8
6
  6
CONTINUOUS
 10
101.700002
 20
16.000000
 11
101.700002
 21
22.200000
  0
LINE
  8
6
  6
CONTINUOUS
 10
101.700002
 20
15.900000
 11
118.000002
 21
15.900000
  0
LINE
  8
6
  6
CONTINUOUS
 10
101.700002
 20
11.400000
 11
101.700002
 21
15.900000
  0
LINE
  8
1
  6
CONTINUOUS
 10
101.700002
 20
14.400000
 11
118.000002
 21
14.400000
  0
LINE
  8
6
  6
CONTINUOUS
 10
101.700002
 20
3.000000
 11
118.000002
 21
3.000000
  0
LINE
  8
6
  6
CONTINUOUS
 10
105.024321
 20
3.000000
 11
105.024321
 21
1.000000
  0
LINE
  8
1
  6
CONTINUOUS
 10
101.700002
 20
12.900000
 11
118.000002
 21
12.900000
  0
POLYLINE
  8
1
  6
CONTINUOUS
 66
     1
  0
VERTEX
  8
1
  6
CONTINUOUS
 10
103.635546
 20
9.498246
  0
VERTEX
  8
1
  6
CONTINUOUS
 10
101.971546
 20
9.498246
  0
VERTEX
  8
1
  6
CONTINUOUS
 10
101.971546
 20
11.162246
  0
VERTEX
  8
1
  6
CONTINUOUS
 10
103.635546
 20
11.162246
  0
VERTEX
  8
1
  6
CONTINUOUS
 10
103.635546
 20
9.498246
  0
SEQEND
  8
1
  6
CONTINUOUS
  0
POLYLINE
  8
13
  6
CONTINUOUS
 66
     1
  0
VERTEX
  8
13
  6
CONTINUOUS
 10
102.095046
 20
10.244446
  0
VERTEX
  8
13
  6
CONTINUOUS
 10
102.095046
 20
9.498246
  0
VERTEX
  8
13
  6
CONTINUOUS
 10
101.971546
 20
9.498246
  0
VERTEX
  8
13
  6
CONTINUOUS
 10
101.971546
 20
11.162246
  0
VERTEX
  8
13
  6
CONTINUOUS
 10
102.095046
 20
11.162246
  0
VERTEX
  8
13
  6
CONTINUOUS
 10
102.095046
 20
10.244446
  0
SEQEND
  8
13
  6
CONTINUOUS
  0
POLYLINE
  8
13
  6
CONTINUOUS
 66
     1
  0
VERTEX
  8
13
  6
CONTINUOUS
 10
102.522746
 20
10.230979
  0
VERTEX
  8
13
  6
CONTINUOUS
 10
102.522746
 20
9.498246
  0
VERTEX
  8
13
  6
CONTINUOUS
 10
102.095046
 20
9.498246
  0
VERTEX
  8
13
  6
CONTINUOUS
 10
102.095046
 20
10.244446
  0
VERTEX
  8
13
  6
CONTINUOUS
 10
102.143544
 20
10.248642
  0
VERTEX
  8
13
  6
CONTINUOUS
 10
102.211078
 20
10.252071
  0
VERTEX
  8
13
  6
CONTINUOUS
 10
102.259959
 20
10.252484
  0
VERTEX
  8
13
  6
CONTINUOUS
 10
102.290321
 20
10.252141
  0
VERTEX
  8
13
  6
CONTINUOUS
 10
102.334203
 20
10.250668
  0
VERTEX
  8
13
  6
CONTINUOUS
 10
102.394518
 20
10.246747
  0
VERTEX
  8
13
  6
CONTINUOUS
 10
102.446340
 20
10.241621
  0
VERTEX
  8
13
  6
CONTINUOUS
 10
102.490083
 20
10.235974
  0
VERTEX
  8
13
  6
CONTINUOUS
 10
102.522746
 20
10.230979
  0
SEQEND
  8
13
  6
CONTINUOUS
  0
POLYLINE
  8
13
  6
CONTINUOUS
 66
     1
  0
VERTEX
  8
13
  6
CONTINUOUS
 10
102.594246
 20
10.217654
  0
VERTEX
  8
13
  6
CONTINUOUS
 10
102.594246
 20
9.498246
  0
VERTEX
  8
13
  6
CONTINUOUS
 10
103.021946
 20
9.498246
  0
VERTEX
  8
13
  6
CONTINUOUS
 10
103.021946
 20
10.064184
  0
VERTEX
  8
13
  6
CONTINUOUS
 10
103.003898
 20
10.073542
  0
VERTEX
  8
13
  6
CONTINUOUS
 10
102.981716
 20
10.084501
  0
VERTEX
  8
13
  6
CONTINUOUS
 10
102.953307
 20
10.098271
  0
VERTEX
  8
13
  6
CONTINUOUS
 10
102.912865
 20
10.116383
  0
VERTEX
  8
13
  6
CONTINUOUS
 10
102.885024
 20
10.128001
  0
VERTEX
  8
13
  6
CONTINUOUS
 10
102.844071
 20
10.144755
  0
VERTEX
  8
13
  6
CONTINUOUS
 10
102.813490
 20
10.155923
  0
VERTEX
  8
13
  6
CONTINUOUS
 10
102.778388
 20
10.168156
  0
VERTEX
  8
13
  6
CONTINUOUS
 10
102.744083
 20
10.178793
  0
VERTEX
  8
13
  6
CONTINUOUS
 10
102.703465
 20
10.191172
  0
VERTEX
  8
13
  6
CONTINUOUS
 10
102.665141
 20
10.201162
  0
VERTEX
  8
13
  6
CONTINUOUS
 10
102.624819
 20
10.210970
  0
VERTEX
  8
13
  6
CONTINUOUS
 10
102.594246
 20
10.217654
  0
SEQEND
  8
13
  6
CONTINUOUS
  0
POLYLINE
  8
13
  6
CONTINUOUS
 66
     1
  0
VERTEX
  8
13
  6
CONTINUOUS
 10
103.093446
 20
10.024343
  0
VERTEX
  8
13
  6
CONTINUOUS
 10
103.093446
 20
9.498246
  0
VERTEX
  8
13
  6
CONTINUOUS
 10
103.521146
 20
9.498246
  0
VERTEX
  8
13
  6
CONTINUOUS
 10
103.521146
 20
9.661030
  0
VERTEX
  8
13
  6
CONTINUOUS
 10
103.507797
 20
9.676793
  0
VERTEX
  8
13
  6
CONTINUOUS
 10
103.495964
 20
9.690528
  0
VERTEX
  8
13
  6
CONTINUOUS
 10
103.473877
 20
9.715277
  0
VERTEX
  8
13
  6
CONTINUOUS
 10
103.454164
 20
9.736530
  0
VERTEX
  8
13
  6
CONTINUOUS
 10
103.434048
 20
9.757502
  0
VERTEX
  8
13
  6
CONTINUOUS
 10
103.410015
 20
9.781535
  0
VERTEX
  8
13
  6
CONTINUOUS
 10
103.399294
 20
9.791943
  0
VERTEX
  8
13
  6
CONTINUOUS
 10
103.388429
 20
9.802406
  0
VERTEX
  8
13
  6
CONTINUOUS
 10
103.359952
 20
9.828752
  0
VERTEX
  8
13
  6
CONTINUOUS
 10
103.325139
 20
9.859181
  0
VERTEX
  8
13
  6
CONTINUOUS
 10
103.286846
 20
9.890826
  0
VERTEX
  8
13
  6
CONTINUOUS
 10
103.251036
 20
9.918745
  0
VERTEX
  8
13
  6
CONTINUOUS
 10
103.200839
 20
9.955427
  0
VERTEX
  8
13
  6
CONTINUOUS
 10
103.134352
 20
9.999676
  0
VERTEX
  8
13
  6
CONTINUOUS
 10
103.093446
 20
10.024343
  0
SEQEND
  8
13
  6
CONTINUOUS
  0
POLYLINE
  8
13
  6
CONTINUOUS
 66
     1
  0
VERTEX
  8
13
  6
CONTINUOUS
 10
102.522746
 20
10.635283
  0
VERTEX
  8
13
  6
CONTINUOUS
 10
102.522746
 20
11.162246
  0
VERTEX
  8
13
  6
CONTINUOUS
 10
102.095046
 20
11.162246
  0
VERTEX
  8
13
  6
CONTINUOUS
 10
102.095046
 20
10.995122
  0
VERTEX
  8
13
  6
CONTINUOUS
 10
102.153689
 20
10.929235
  0
VERTEX
  8
13
  6
CONTINUOUS
 10
102.237359
 20
10.846559
  0
VERTEX
  8
13
  6
CONTINUOUS
 10
102.308389
 20
10.784730
  0
VERTEX
  8
13
  6
CONTINUOUS
 10
102.366624
 20
10.739274
  0
VERTEX
  8
13
  6
CONTINUOUS
 10
102.406322
 20
10.710064
  0
VERTEX
  8
13
  6
CONTINUOUS
 10
102.455827
 20
10.676682
  0
VERTEX
  8
13
  6
CONTINUOUS
 10
102.493954
 20
10.652515
  0
VERTEX
  8
13
  6
CONTINUOUS
 10
102.522746
 20
10.635283
  0
SEQEND
  8
13
  6
CONTINUOUS
  0
POLYLINE
  8
13
  6
CONTINUOUS
 66
     1
  0
VERTEX
  8
13
  6
CONTINUOUS
 10
103.021946
 20
10.443678
  0
VERTEX
  8
13
  6
CONTINUOUS
 10
103.021946
 20
11.162246
  0
VERTEX
  8
13
  6
CONTINUOUS
 10
102.594246
 20
11.162246
  0
VERTEX
  8
13
  6
CONTINUOUS
 10
102.594246
 20
10.595859
  0
VERTEX
  8
13
  6
CONTINUOUS
 10
102.663800
 20
10.561766
  0
VERTEX
  8
13
  6
CONTINUOUS
 10
102.744359
 20
10.527375
  0
VERTEX
  8
13
  6
CONTINUOUS
 10
102.812197
 20
10.501464
  0
VERTEX
  8
13
  6
CONTINUOUS
 10
102.889458
 20
10.476967
  0
VERTEX
  8
13
  6
CONTINUOUS
 10
102.950702
 20
10.460007
  0
VERTEX
  8
13
  6
CONTINUOUS
 10
103.021946
 20
10.443678
  0
SEQEND
  8
13
  6
CONTINUOUS
  0
POLYLINE
  8
13
  6
CONTINUOUS
 66
     1
  0
VERTEX
  8
13
  6
CONTINUOUS
 10
103.093446
 20
10.430307
  0
VERTEX
  8
13
  6
CONTINUOUS
 10
103.093446
 20
11.162246
  0
VERTEX
  8
13
  6
CONTINUOUS
 10
103.521146
 20
11.162246
  0
VERTEX
  8
13
  6
CONTINUOUS
 10
103.521146
 20
10.417580
  0
VERTEX
  8
13
  6
CONTINUOUS
 10
103.476372
 20
10.413637
  0
VERTEX
  8
13
  6
CONTINUOUS
 10
103.416577
 20
10.410480
  0
VERTEX
  8
13
  6
CONTINUOUS
 10
103.366788
 20
10.409453
  0
VERTEX
  8
13
  6
CONTINUOUS
 10
103.336830
 20
10.409453
  0
VERTEX
  8
13
  6
CONTINUOUS
 10
103.286182
 20
10.410821
  0
VERTEX
  8
13
  6
CONTINUOUS
 10
103.241261
 20
10.413321
  0
VERTEX
  8
13
  6
CONTINUOUS
 10
103.205545
 20
10.416539
  0
VERTEX
  8
13
  6
CONTINUOUS
 10
103.155349
 20
10.421044
  0
VERTEX
  8
13
  6
CONTINUOUS
 10
103.093446
 20
10.430307
  0
SEQEND
  8
13
  6
CONTINUOUS
  0
POLYLINE
  8
13
  6
CONTINUOUS
 66
     1
  0
VERTEX
  8
13
  6
CONTINUOUS
 10
102.522746
 20
9.498246
  0
VERTEX
  8
13
  6
CONTINUOUS
 10
102.594246
 20
9.498246
  0
VERTEX
  8
13
  6
CONTINUOUS
 10
102.594246
 20
11.162246
  0
VERTEX
  8
13
  6
CONTINUOUS
 10
102.522746
 20
11.162246
  0
VERTEX
  8
13
  6
CONTINUOUS
 10
102.522746
 20
9.498246
  0
VERTEX
  8
13
  6
CONTINUOUS
 10
102.594246
 20
9.498246
  0
SEQEND
  8
13
  6
CONTINUOUS
  0
POLYLINE
  8
13
  6
CONTINUOUS
 66
     1
  0
VERTEX
  8
13
  6
CONTINUOUS
 10
103.021946
 20
11.162246
  0
VERTEX
  8
13
  6
CONTINUOUS
 10
103.093446
 20
11.162246
  0
VERTEX
  8
13
  6
CONTINUOUS
 10
103.093446
 20
9.498246
  0
VERTEX
  8
13
  6
CONTINUOUS
 10
103.021946
 20
9.498246
  0
VERTEX
  8
13
  6
CONTINUOUS
 10
103.021946
 20
11.162246
  0
SEQEND
  8
13
  6
CONTINUOUS
  0
POLYLINE
  8
13
  6
CONTINUOUS
 66
     1
  0
VERTEX
  8
13
  6
CONTINUOUS
 10
103.521146
 20
9.498246
  0
VERTEX
  8
13
  6
CONTINUOUS
 10
103.635546
 20
9.498246
  0
VERTEX
  8
13
  6
CONTINUOUS
 10
103.635546
 20
11.162246
  0
VERTEX
  8
13
  6
CONTINUOUS
 10
103.521146
 20
11.162246
  0
VERTEX
  8
13
  6
CONTINUOUS
 10
103.521146
 20
9.498246
  0
SEQEND
  8
13
  6
CONTINUOUS
  0
LINE
  8
6
  6
CONTINUOUS
 10
107.924321
 20
3.000000
 11
107.924321
 21
2.000000
  0
LINE
  8
6
  6
CONTINUOUS
 10
101.700002
 20
2.000000
 11
114.124321
 21
2.000000
  0
LINE
  8
6
  6
CONTINUOUS
 10
114.124321
 20
3.000000
 11
114.124321
 21
1.000000
  0
LINE
  8
6
  6
CONTINUOUS
 10
101.700002
 20
8.600000
 11
118.000002
 21
8.600000
  0
LINE
  8
6
  6
CONTINUOUS
 10
101.700002
 20
8.600000
 11
101.700002
 21
11.300000
  0
LINE
  8
6
  6
CONTINUOUS
 10
101.700002
 20
11.300000
 11
118.000002
 21
11.300000
  0
LINE
  8
6
  6
CONTINUOUS
 10
101.700002
 20
11.400000
 11
118.000002
 21
11.400000
  0
LINE
  8
1
  6
CONTINUOUS
 10
101.700002
 20
19.200000
 11
118.000002
 21
19.200000
  0
LINE
  8
1
  6
CONTINUOUS
 10
102.200002
 20
19.200000
 11
118.000002
 21
19.200000
  0
LINE
  8
1
  6
CONTINUOUS
 10
102.200002
 20
19.200000
 11
118.000002
 21
19.200000
  0
LINE
  8
1
  6
CONTINUOUS
 10
101.700002
 20
19.700000
 11
118.000002
 21
19.700000
  0
LINE
  8
1
  6
CONTINUOUS
 10
102.200002
 20
19.700000
 11
118.000002
 21
19.700000
  0
LINE
  8
1
  6
CONTINUOUS
 10
102.200002
 20
19.700000
 11
118.000002
 21
19.700000
  0
LINE
  8
1
  6
CONTINUOUS
 10
101.700002
 20
20.200000
 11
118.000002
 21
20.200000
  0
LINE
  8
1
  6
CONTINUOUS
 10
102.200002
 20
20.200000
 11
118.000002
 21
20.200000
  0
LINE
  8
1
  6
CONTINUOUS
 10
102.200002
 20
20.200000
 11
118.000002
 21
20.200000
  0
LINE
  8
1
  6
CONTINUOUS
 10
101.700002
 20
20.700000
 11
118.000002
 21
20.700000
  0
LINE
  8
1
  6
CONTINUOUS
 10
102.200002
 20
20.700000
 11
118.000002
 21
20.700000
  0
LINE
  8
1
  6
CONTINUOUS
 10
102.200002
 20
20.700000
 11
118.000002
 21
20.700000
  0
LINE
  8
1
  6
CONTINUOUS
 10
101.700002
 20
21.200000
 11
118.000002
 21
21.200000
  0
LINE
  8
1
  6
CONTINUOUS
 10
102.200002
 20
21.200000
 11
118.000002
 21
21.200000
  0
LINE
  8
1
  6
CONTINUOUS
 10
102.200002
 20
21.200000
 11
118.000002
 21
21.200000
  0
LINE
  8
1
  6
CONTINUOUS
 10
101.700002
 20
21.700000
 11
118.000002
 21
21.700000
  0
LINE
  8
6
  6
CONTINUOUS
 10
110.708935
 20
11.300000
 11
110.708935
 21
8.600000
  0
TEXT
  8
1
  6
CONTINUOUS
 10
53.554556
 20
32.878038
 40
0.250000
 50
90.000000
  1
L1
  7
TQS_CALIBRI
  0
TEXT
  8
1
  6
CONTINUOUS
 10
79.145044
 20
20.225469
 40
0.250000
 50
90.000000
  1
P125
  7
TQS_CALIBRI
  0
TEXT
  8
1
  6
CONTINUOUS
 10
80.061019
 20
31.046429
 40
0.250000
 50
90.000000
  1
P126
  7
TQS_CALIBRI
  0
TEXT
  8
1
  6
CONTINUOUS
 10
80.937447
 20
41.400179
 40
0.250000
 50
90.000000
  1
P127
  7
TQS_CALIBRI
  0
TEXT
  8
1
  6
CONTINUOUS
 10
62.537769
 20
21.631242
 40
0.250000
 50
90.000000
  1
P119
  7
TQS_CALIBRI
  0
TEXT
  8
1
  6
CONTINUOUS
 10
63.626845
 20
32.521181
 40
0.250000
 50
90.000000
  1
P120
  7
TQS_CALIBRI
  0
TEXT
  8
1
  6
CONTINUOUS
 10
64.496245
 20
42.791895
 40
0.250000
 50
90.000000
  1
P121
  7
TQS_CALIBRI
  0
TEXT
  8
1
  6
CONTINUOUS
 10
45.902381
 20
22.676756
 40
0.250000
 50
90.000000
  1
P111
  7
TQS_CALIBRI
  0
TEXT
  8
1
  6
CONTINUOUS
 10
46.902695
 20
34.494153
 40
0.250000
 50
90.000000
  1
P113
  7
TQS_CALIBRI
  0
TEXT
  8
1
  6
CONTINUOUS
 10
47.779123
 20
44.847903
 40
0.250000
 50
90.000000
  1
P114
  7
TQS_CALIBRI
  0
TEXT
  8
1
  6
CONTINUOUS
 10
16.925317
 20
25.129582
 40
0.250000
 50
90.000000
  1
P99
  7
TQS_CALIBRI
  0
TEXT
  8
1
  6
CONTINUOUS
 10
17.925631
 20
36.946979
 40
0.250000
 50
90.000000
  1
P100
  7
TQS_CALIBRI
  0
TEXT
  8
1
  6
CONTINUOUS
 10
96.019065
 20
18.992925
 40
0.250000
 50
90.000000
  1
P131
  7
TQS_CALIBRI
  0
TEXT
  8
1
  6
CONTINUOUS
 10
96.890500
 20
29.288712
 40
0.250000
 50
90.000000
  1
P132
  7
TQS_CALIBRI
  0
TEXT
  8
1
  6
CONTINUOUS
 10
97.761998
 20
39.585227
 40
0.250000
 50
90.000000
  1
P133
  7
TQS_CALIBRI
  0
TEXT
  8
1
  6
CONTINUOUS
 10
13.760476
 20
13.040574
 40
0.250000
 50
90.000000
  1
P98
  7
TQS_CALIBRI
  0
TEXT
  8
1
  6
CONTINUOUS
 10
98.679460
 20
50.463828
 40
0.250000
 50
90.000000
  1
P134
  7
TQS_CALIBRI
  0
TEXT
  8
1
  6
CONTINUOUS
 10
88.848097
 20
51.239834
 40
0.250000
 50
90.000000
  1
P129
  7
TQS_CALIBRI
  0
TEXT
  8
1
  6
CONTINUOUS
 10
78.053357
 20
52.153449
 40
0.250000
 50
90.000000
  1
P124
  7
TQS_CALIBRI
  0
TEXT
  8
1
  6
CONTINUOUS
 10
68.919346
 20
52.926508
 40
0.250000
 50
90.000000
  1
P122
  7
TQS_CALIBRI
  0
TEXT
  8
1
  6
CONTINUOUS
 10
52.312054
 20
54.332075
 40
0.250000
 50
90.000000
  1
P116
  7
TQS_CALIBRI
  0
TEXT
  8
1
  6
CONTINUOUS
 10
45.669137
 20
54.894294
 40
0.250000
 50
90.000000
  1
P112
  7
TQS_CALIBRI
  0
TEXT
  8
1
  6
CONTINUOUS
 10
28.001885
 20
56.389579
 40
0.250000
 50
90.000000
  1
P104
  7
TQS_CALIBRI
  0
TEXT
  8
1
  6
CONTINUOUS
 10
18.417191
 20
57.200779
 40
0.250000
 50
90.000000
  1
P101
  7
TQS_CALIBRI
  0
TEXT
  8
1
  6
CONTINUOUS
 10
9.615334
 20
58.001935
 40
0.250000
 50
90.000000
  1
P97
  7
TQS_CALIBRI
  0
TEXT
  8
1
  6
CONTINUOUS
 10
8.249959
 20
23.701195
 40
0.250000
 50
90.000000
  1
P93
  7
TQS_CALIBRI
  0
TEXT
  8
1
  6
CONTINUOUS
 10
8.039871
 20
35.622314
 40
0.250000
 50
90.000000
  1
P94
  7
TQS_CALIBRI
  0
TEXT
  8
1
  6
CONTINUOUS
 10
6.083798
 20
43.912934
 40
0.250000
 50
90.000000
  1
P95
  7
TQS_CALIBRI
  0
TEXT
  8
1
  6
CONTINUOUS
 10
5.912339
 20
56.224619
 40
0.250000
 50
90.000000
  1
P96
  7
TQS_CALIBRI
  0
TEXT
  8
1
  6
CONTINUOUS
 10
60.990603
 20
53.653789
 40
0.250000
 50
90.000000
  1
P117
  7
TQS_CALIBRI
  0
TEXT
  8
1
  6
CONTINUOUS
 10
21.480301
 20
12.188398
 40
0.250000
 50
90.000000
  1
P103
  7
TQS_CALIBRI
  0
TEXT
  8
1
  6
CONTINUOUS
 10
72.227132
 20
9.910868
 40
0.250000
 50
90.000000
  1
P123
  7
TQS_CALIBRI
  0
TEXT
  8
1
  6
CONTINUOUS
 10
82.191508
 20
9.067535
 40
0.250000
 50
90.000000
  1
P128
  7
TQS_CALIBRI
  0
TEXT
  8
1
  6
CONTINUOUS
 10
95.087676
 20
7.975773
 40
0.250000
 50
90.000000
  1
P130
  7
TQS_CALIBRI
  0
TEXT
  8
1
  6
CONTINUOUS
 10
37.468040
 20
55.644488
 40
0.250000
 50
90.000000
  1
P109
  7
TQS_CALIBRI
  0
TEXT
  8
1
  6
CONTINUOUS
 10
51.814503
 20
12.168831
 40
0.250000
 50
90.000000
  1
P115
  7
TQS_CALIBRI
  0
TEXT
  8
1
  6
CONTINUOUS
 10
32.519426
 20
23.698955
 40
0.250000
 50
90.000000
  1
P106
  7
TQS_CALIBRI
  0
TEXT
  8
1
  6
CONTINUOUS
 10
33.519589
 20
35.516364
 40
0.250000
 50
90.000000
  1
P107
  7
TQS_CALIBRI
  0
TEXT
  8
1
  6
CONTINUOUS
 10
34.152205
 20
42.991100
 40
0.250000
 50
90.000000
  1
P108
  7
TQS_CALIBRI
  0
TEXT
  8
1
  6
CONTINUOUS
 10
18.759892
 20
46.802533
 40
0.250000
 50
90.000000
  1
P102
  7
TQS_CALIBRI
  0
TEXT
  8
1
  6
CONTINUOUS
 10
42.065595
 20
12.464271
 40
0.250000
 50
90.000000
  1
P303
  7
TQS_CALIBRI
  0
TEXT
  8
1
  6
CONTINUOUS
 10
7.288815
 20
36.242863
 40
0.250000
 50
90.000000
  1
P302
  7
TQS_CALIBRI
  0
TEXT
  8
1
  6
CONTINUOUS
 10
61.679335
 20
11.305841
 40
0.250000
 50
90.000000
  1
P118
  7
TQS_CALIBRI
  0
TEXT
  8
1
  6
CONTINUOUS
 10
31.809317
 20
13.834266
 40
0.250000
 50
90.000000
  1
P105
  7
TQS_CALIBRI
  0
TEXT
  8
1
  6
CONTINUOUS
 10
6.262981
 20
27.164213
 40
0.250000
 50
90.000000
  1
P301
  7
TQS_CALIBRI
  0
TEXT
  8
1
  6
CONTINUOUS
 10
5.685453
 20
16.687155
 40
0.250000
 50
90.000000
  1
P92
  7
TQS_CALIBRI
  0
TEXT
  8
1
  6
CONTINUOUS
 10
40.682877
 20
13.063126
 40
0.250000
 50
90.000000
  1
P110
  7
TQS_CALIBRI
  0
TEXT
  8
4
  6
CONTINUOUS
 10
51.713141
 20
17.193255
 40
0.250000
 50
175.161906
  1
C34
  7
TQS_CALIBRI
  0
TEXT
  8
4
  6
CONTINUOUS
 10
51.786236
 20
18.056833
 40
0.250000
 50
175.161906
  1
C35
  7
TQS_CALIBRI
  0
TEXT
  8
4
  6
CONTINUOUS
 10
51.859331
 20
18.920412
 40
0.250000
 50
175.161906
  1
C36
  7
TQS_CALIBRI
  0
TEXT
  8
4
  6
CONTINUOUS
 10
51.932426
 20
19.783991
 40
0.250000
 50
175.161906
  1
C37
  7
TQS_CALIBRI
  0
TEXT
  8
4
  6
CONTINUOUS
 10
52.005521
 20
20.647570
 40
0.250000
 50
175.161906
  1
C38
  7
TQS_CALIBRI
  0
TEXT
  8
4
  6
CONTINUOUS
 10
52.078616
 20
21.511148
 40
0.250000
 50
175.161906
  1
C39
  7
TQS_CALIBRI
  0
TEXT
  8
4
  6
CONTINUOUS
 10
52.151711
 20
22.374727
 40
0.250000
 50
175.161906
  1
C40
  7
TQS_CALIBRI
  0
TEXT
  8
4
  6
CONTINUOUS
 10
52.224806
 20
23.238306
 40
0.250000
 50
175.161906
  1
C41
  7
TQS_CALIBRI
  0
TEXT
  8
4
  6
CONTINUOUS
 10
52.297901
 20
24.101885
 40
0.250000
 50
175.161906
  1
C42
  7
TQS_CALIBRI
  0
TEXT
  8
4
  6
CONTINUOUS
 10
52.370996
 20
24.965463
 40
0.250000
 50
175.161906
  1
C43
  7
TQS_CALIBRI
  0
TEXT
  8
4
  6
CONTINUOUS
 10
52.444091
 20
25.829042
 40
0.250000
 50
175.161906
  1
C44
  7
TQS_CALIBRI
  0
TEXT
  8
4
  6
CONTINUOUS
 10
52.517186
 20
26.692621
 40
0.250000
 50
175.161906
  1
C45
  7
TQS_CALIBRI
  0
TEXT
  8
4
  6
CONTINUOUS
 10
51.640350
 20
12.710474
 40
0.250000
 50
175.161909
  1
C31
  7
TQS_CALIBRI
  0
TEXT
  8
4
  6
CONTINUOUS
 10
51.772483
 20
14.271559
 40
0.250000
 50
175.161909
  1
C32
  7
TQS_CALIBRI
  0
TEXT
  8
4
  6
CONTINUOUS
 10
51.904616
 20
15.832643
 40
0.250000
 50
175.161909
  1
C33
  7
TQS_CALIBRI
  0
TEXT
  8
4
  6
CONTINUOUS
 10
51.906319
 20
27.777634
 40
0.250000
 50
175.161901
  1
C46
  7
TQS_CALIBRI
  0
TEXT
  8
4
  6
CONTINUOUS
 10
51.973792
 20
28.574783
 40
0.250000
 50
175.161901
  1
C47
  7
TQS_CALIBRI
  0
TEXT
  8
4
  6
CONTINUOUS
 10
52.041264
 20
29.371933
 40
0.250000
 50
175.161901
  1
C48
  7
TQS_CALIBRI
  0
TEXT
  8
4
  6
CONTINUOUS
 10
52.108736
 20
30.169082
 40
0.250000
 50
175.161901
  1
C49
  7
TQS_CALIBRI
  0
TEXT
  8
4
  6
CONTINUOUS
 10
52.176209
 20
30.966232
 40
0.250000
 50
175.161901
  1
C50
  7
TQS_CALIBRI
  0
TEXT
  8
4
  6
CONTINUOUS
 10
52.243681
 20
31.763382
 40
0.250000
 50
175.161901
  1
C51
  7
TQS_CALIBRI
  0
TEXT
  8
4
  6
CONTINUOUS
 10
52.311154
 20
32.560531
 40
0.250000
 50
175.161901
  1
C52
  7
TQS_CALIBRI
  0
TEXT
  8
4
  6
CONTINUOUS
 10
52.378626
 20
33.357681
 40
0.250000
 50
175.161901
  1
C53
  7
TQS_CALIBRI
  0
TEXT
  8
4
  6
CONTINUOUS
 10
52.446098
 20
34.154830
 40
0.250000
 50
175.161901
  1
C54
  7
TQS_CALIBRI
  0
TEXT
  8
4
  6
CONTINUOUS
 10
52.513571
 20
34.951980
 40
0.250000
 50
175.161901
  1
C55
  7
TQS_CALIBRI
  0
TEXT
  8
4
  6
CONTINUOUS
 10
52.581043
 20
35.749130
 40
0.250000
 50
175.161901
  1
C56
  7
TQS_CALIBRI
  0
TEXT
  8
4
  6
CONTINUOUS
 10
52.648515
 20
36.546279
 40
0.250000
 50
175.161901
  1
C57
  7
TQS_CALIBRI
  0
TEXT
  8
4
  6
CONTINUOUS
 10
52.715988
 20
37.343429
 40
0.250000
 50
175.161901
  1
C58
  7
TQS_CALIBRI
  0
TEXT
  8
4
  6
CONTINUOUS
 10
52.358403
 20
38.337355
 40
0.250000
 50
175.161897
  1
C59
  7
TQS_CALIBRI
  0
TEXT
  8
4
  6
CONTINUOUS
 10
52.432904
 20
39.217541
 40
0.250000
 50
175.161897
  1
C60
  7
TQS_CALIBRI
  0
TEXT
  8
4
  6
CONTINUOUS
 10
52.507405
 20
40.097727
 40
0.250000
 50
175.161897
  1
C61
  7
TQS_CALIBRI
  0
TEXT
  8
4
  6
CONTINUOUS
 10
52.581906
 20
40.977913
 40
0.250000
 50
175.161897
  1
C62
  7
TQS_CALIBRI
  0
TEXT
  8
4
  6
CONTINUOUS
 10
52.656406
 20
41.858099
 40
0.250000
 50
175.161897
  1
C63
  7
TQS_CALIBRI
  0
TEXT
  8
4
  6
CONTINUOUS
 10
52.730907
 20
42.738285
 40
0.250000
 50
175.161897
  1
C64
  7
TQS_CALIBRI
  0
TEXT
  8
4
  6
CONTINUOUS
 10
52.805408
 20
43.618471
 40
0.250000
 50
175.161897
  1
C65
  7
TQS_CALIBRI
  0
TEXT
  8
4
  6
CONTINUOUS
 10
52.879909
 20
44.498657
 40
0.250000
 50
175.161897
  1
C66
  7
TQS_CALIBRI
  0
TEXT
  8
4
  6
CONTINUOUS
 10
52.954409
 20
45.378843
 40
0.250000
 50
175.161897
  1
C67
  7
TQS_CALIBRI
  0
TEXT
  8
4
  6
CONTINUOUS
 10
53.028910
 20
46.259029
 40
0.250000
 50
175.161897
  1
C68
  7
TQS_CALIBRI
  0
TEXT
  8
4
  6
CONTINUOUS
 10
53.103411
 20
47.139215
 40
0.250000
 50
175.161897
  1
C69
  7
TQS_CALIBRI
  0
TEXT
  8
4
  6
CONTINUOUS
 10
53.177912
 20
48.019401
 40
0.250000
 50
175.161897
  1
C70
  7
TQS_CALIBRI
  0
TEXT
  8
4
  6
CONTINUOUS
 10
52.969734
 20
49.353627
 40
0.250000
 50
175.161895
  1
C71
  7
TQS_CALIBRI
  0
TEXT
  8
4
  6
CONTINUOUS
 10
53.108895
 20
50.997748
 40
0.250000
 50
175.161895
  1
C72
  7
TQS_CALIBRI
  0
TEXT
  8
4
  6
CONTINUOUS
 10
53.248057
 20
52.641869
 40
0.250000
 50
175.161895
  1
C73
  7
TQS_CALIBRI
  0
TEXT
  8
1
  6
CONTINUOUS
 10
49.547482
 20
68.896930
 40
0.220000
  1
CABO
  7
TQS_CALIBRI
  0
TEXT
  8
1
  6
CONTINUOUS
 10
56.611963
 20
69.186930
 40
0.220000
  1
COMPRIMENTO
  7
TQS_CALIBRI
  0
TEXT
  8
1
  6
CONTINUOUS
 10
59.606269
 20
68.686930
 40
0.220000
  1
TOTAL
  7
TQS_CALIBRI
  0
TEXT
  8
1
  6
CONTINUOUS
 10
62.436623
 20
68.686930
 40
0.220000
  1
A
  7
TQS_CALIBRI
  0
TEXT
  8
1
  6
CONTINUOUS
 10
63.481439
 20
68.686930
 40
0.220000
  1
P
  7
TQS_CALIBRI
  0
TEXT
  8
1
  6
CONTINUOUS
 10
64.526255
 20
68.686930
 40
0.220000
  1
I
  7
TQS_CALIBRI
  0
TEXT
  8
1
  6
CONTINUOUS
 10
62.453936
 20
69.186930
 40
0.220000
  1
ANCORAGENS
  7
TQS_CALIBRI
  0
TEXT
  8
1
  6
CONTINUOUS
 10
54.006443
 20
68.896930
 40
0.220000
  1
Q
  7
TQS_CALIBRI
  0
TEXT
  8
1
  6
CONTINUOUS
 10
50.706104
 20
69.846930
 40
0.400000
  1
PROTENSÃO: AÇO
  7
TQS_CALIBRI
  0
TEXT
  8
1
  6
CONTINUOUS
 10
56.024833
 20
68.686930
 40
0.220000
  1
UNITÁRIO
  7
TQS_CALIBRI
  0
TEXT
  8
1
  6
CONTINUOUS
 10
65.481318
 20
68.686930
 40
0.220000
  1
INI
  7
TQS_CALIBRI
  0
TEXT
  8
1
  6
CONTINUOUS
 10
67.048542
 20
68.686930
 40
0.220000
  1
FIN
  7
TQS_CALIBRI
  0
TEXT
  8
1
  6
CONTINUOUS
 10
51.935694
 20
68.899149
 40
0.220000
  1
%%c
  7
TQS_CALIBRI
  0
TEXT
  8
1
  6
CONTINUOUS
 10
65.575084
 20
69.186930
 40
0.220000
  1
ALONG
  7
TQS_CALIBRI
  0
TEXT
  8
1
  6
CONTINUOUS
 10
57.034334
 20
69.846930
 40
0.400000
  1
CP190 RB 12.7 - 12.7
  7
TQS_CALIBRI
  0
TEXT
  8
1
  6
CONTINUOUS
 10
52.220842
 20
68.899149
 40
0.220000
  1
(mm)
  7
TQS_CALIBRI
  0
TEXT
  8
1
  6
CONTINUOUS
 10
59.272039
 20
69.186930
 40
0.220000
  1
(m)
  7
TQS_CALIBRI
  0
TEXT
  8
1
  6
CONTINUOUS
 10
66.762580
 20
69.186930
 40
0.220000
  1
(mm)
  7
TQS_CALIBRI
  0
TEXT
  8
1
  6
CONTINUOUS
 10
49.192904
 20
68.186930
 40
0.220000
  1
C31 A C33
  7
TQS_CALIBRI
  0
TEXT
  8
1
  6
CONTINUOUS
 10
51.546385
 20
68.186930
 40
0.220000
  1
2 %%c 12.7
  7
TQS_CALIBRI
  0
TEXT
  8
1
  6
CONTINUOUS
 10
53.760782
 20
68.186930
 40
0.220000
  1
3
  7
TQS_CALIBRI
  0
TEXT
  8
1
  6
CONTINUOUS
 10
55.997365
 20
68.186930
 40
0.220000
  1
54.2
  7
TQS_CALIBRI
  0
TEXT
  8
1
  6
CONTINUOUS
 10
59.274198
 20
68.186930
 40
0.220000
  1
325.3
  7
TQS_CALIBRI
  0
TEXT
  8
1
  6
CONTINUOUS
 10
62.252170
 20
68.186930
 40
0.220000
  1
6
  7
TQS_CALIBRI
  0
TEXT
  8
1
  6
CONTINUOUS
 10
63.296986
 20
68.186930
 40
0.220000
  1
6
  7
TQS_CALIBRI
  0
TEXT
  8
1
  6
CONTINUOUS
 10
65.333809
 20
68.186930
 40
0.220000
  1
0
  7
TQS_CALIBRI
  0
TEXT
  8
1
  6
CONTINUOUS
 10
66.901033
 20
68.186930
 40
0.220000
  1
358
  7
TQS_CALIBRI
  0
TEXT
  8
1
  6
CONTINUOUS
 10
49.192904
 20
67.686929
 40
0.220000
  1
C34 A C45
  7
TQS_CALIBRI
  0
TEXT
  8
1
  6
CONTINUOUS
 10
51.546385
 20
67.686929
 40
0.220000
  1
3 %%c 12.7
  7
TQS_CALIBRI
  0
TEXT
  8
1
  6
CONTINUOUS
 10
53.760782
 20
67.686929
 40
0.220000
  1
12
  7
TQS_CALIBRI
  0
TEXT
  8
1
  6
CONTINUOUS
 10
55.997365
 20
67.686929
 40
0.220000
  1
54.6
  7
TQS_CALIBRI
  0
TEXT
  8
1
  6
CONTINUOUS
 10
59.274198
 20
67.686929
 40
0.220000
  1
1965.1
  7
TQS_CALIBRI
  0
TEXT
  8
1
  6
CONTINUOUS
 10
62.252170
 20
67.686929
 40
0.220000
  1
36
  7
TQS_CALIBRI
  0
TEXT
  8
1
  6
CONTINUOUS
 10
63.296986
 20
67.686929
 40
0.220000
  1
36
  7
TQS_CALIBRI
  0
TEXT
  8
1
  6
CONTINUOUS
 10
65.333809
 20
67.686929
 40
0.220000
  1
0
  7
TQS_CALIBRI
  0
TEXT
  8
1
  6
CONTINUOUS
 10
66.901033
 20
67.686929
 40
0.220000
  1
353
  7
TQS_CALIBRI
  0
TEXT
  8
1
  6
CONTINUOUS
 10
49.192904
 20
67.186928
 40
0.220000
  1
C46 A C58
  7
TQS_CALIBRI
  0
TEXT
  8
1
  6
CONTINUOUS
 10
51.546385
 20
67.186928
 40
0.220000
  1
   "
  7
TQS_CALIBRI
  0
TEXT
  8
1
  6
CONTINUOUS
 10
53.760782
 20
67.186928
 40
0.220000
  1
13
  7
TQS_CALIBRI
  0
TEXT
  8
1
  6
CONTINUOUS
 10
55.997365
 20
67.186928
 40
0.220000
  1
55.4
  7
TQS_CALIBRI
  0
TEXT
  8
1
  6
CONTINUOUS
 10
59.274198
 20
67.186928
 40
0.220000
  1
2161.6
  7
TQS_CALIBRI
  0
TEXT
  8
1
  6
CONTINUOUS
 10
62.252170
 20
67.186928
 40
0.220000
  1
39
  7
TQS_CALIBRI
  0
TEXT
  8
1
  6
CONTINUOUS
 10
63.296986
 20
67.186928
 40
0.220000
  1
39
  7
TQS_CALIBRI
  0
TEXT
  8
1
  6
CONTINUOUS
 10
65.333809
 20
67.186928
 40
0.220000
  1
0
  7
TQS_CALIBRI
  0
TEXT
  8
1
  6
CONTINUOUS
 10
66.901033
 20
67.186928
 40
0.220000
  1
358
  7
TQS_CALIBRI
  0
TEXT
  8
1
  6
CONTINUOUS
 10
49.192904
 20
66.686927
 40
0.220000
  1
C59 A C70
  7
TQS_CALIBRI
  0
TEXT
  8
1
  6
CONTINUOUS
 10
51.546385
 20
66.686927
 40
0.220000
  1
   "
  7
TQS_CALIBRI
  0
TEXT
  8
1
  6
CONTINUOUS
 10
53.760782
 20
66.686927
 40
0.220000
  1
12
  7
TQS_CALIBRI
  0
TEXT
  8
1
  6
CONTINUOUS
 10
55.997365
 20
66.686927
 40
0.220000
  1
56
  7
TQS_CALIBRI
  0
TEXT
  8
1
  6
CONTINUOUS
 10
59.274198
 20
66.686927
 40
0.220000
  1
2014.4
  7
TQS_CALIBRI
  0
TEXT
  8
1
  6
CONTINUOUS
 10
62.252170
 20
66.686927
 40
0.220000
  1
36
  7
TQS_CALIBRI
  0
TEXT
  8
1
  6
CONTINUOUS
 10
63.296986
 20
66.686927
 40
0.220000
  1
36
  7
TQS_CALIBRI
  0
TEXT
  8
1
  6
CONTINUOUS
 10
65.333809
 20
66.686927
 40
0.220000
  1
0
  7
TQS_CALIBRI
  0
TEXT
  8
1
  6
CONTINUOUS
 10
66.901033
 20
66.686927
 40
0.220000
  1
360
  7
TQS_CALIBRI
  0
TEXT
  8
1
  6
CONTINUOUS
 10
49.192904
 20
66.186927
 40
0.220000
  1
C71 A C73
  7
TQS_CALIBRI
  0
TEXT
  8
1
  6
CONTINUOUS
 10
51.546385
 20
66.186927
 40
0.220000
  1
2 %%c 12.7
  7
TQS_CALIBRI
  0
TEXT
  8
1
  6
CONTINUOUS
 10
53.760782
 20
66.186927
 40
0.220000
  1
3
  7
TQS_CALIBRI
  0
TEXT
  8
1
  6
CONTINUOUS
 10
55.997365
 20
66.186927
 40
0.220000
  1
56.3
  7
TQS_CALIBRI
  0
TEXT
  8
1
  6
CONTINUOUS
 10
59.274198
 20
66.186927
 40
0.220000
  1
338
  7
TQS_CALIBRI
  0
TEXT
  8
1
  6
CONTINUOUS
 10
62.252170
 20
66.186927
 40
0.220000
  1
6
  7
TQS_CALIBRI
  0
TEXT
  8
1
  6
CONTINUOUS
 10
63.296986
 20
66.186927
 40
0.220000
  1
6
  7
TQS_CALIBRI
  0
TEXT
  8
1
  6
CONTINUOUS
 10
65.333809
 20
66.186927
 40
0.220000
  1
0
  7
TQS_CALIBRI
  0
TEXT
  8
1
  6
CONTINUOUS
 10
66.901033
 20
66.186927
 40
0.220000
  1
371
  7
TQS_CALIBRI
  0
TEXT
  8
1
  6
CONTINUOUS
 10
49.679045
 20
63.186926
 40
0.220000
  1
%%c
  7
TQS_CALIBRI
  0
TEXT
  8
1
  6
CONTINUOUS
 10
53.252583
 20
63.686926
 40
0.220000
  1
CABO
  7
TQS_CALIBRI
  0
TEXT
  8
1
  6
CONTINUOUS
 10
59.437143
 20
62.936927
 40
0.220000
  1
A
  7
TQS_CALIBRI
  0
TEXT
  8
1
  6
CONTINUOUS
 10
60.481958
 20
62.936927
 40
0.220000
  1
P
  7
TQS_CALIBRI
  0
TEXT
  8
1
  6
CONTINUOUS
 10
61.526775
 20
62.936927
 40
0.220000
  1
I
  7
TQS_CALIBRI
  0
TEXT
  8
1
  6
CONTINUOUS
 10
55.748342
 20
63.186926
 40
0.220000
  1
PESO
  7
TQS_CALIBRI
  0
TEXT
  8
1
  6
CONTINUOUS
 10
59.507322
 20
63.686926
 40
0.220000
  1
ANCORAGENS
  7
TQS_CALIBRI
  0
TEXT
  8
1
  6
CONTINUOUS
 10
51.586102
 20
64.770259
 40
0.400000
  1
RESUMO DE PROTENSÃO
  7
TQS_CALIBRI
  0
TEXT
  8
1
  6
CONTINUOUS
 10
51.124239
 20
64.207559
 40
0.300000
  1
Monocordoalhas não aderentes
  7
TQS_CALIBRI
  0
TEXT
  8
1
  6
CONTINUOUS
 10
51.515340
 20
63.186926
 40
0.220000
  1
COMPR
  7
TQS_CALIBRI
  0
TEXT
  8
1
  6
CONTINUOUS
 10
53.365128
 20
62.686927
 40
0.220000
  1
kgf/m
  7
TQS_CALIBRI
  0
TEXT
  8
1
  6
CONTINUOUS
 10
55.516905
 20
62.686927
 40
0.220000
  1
kgf
  7
TQS_CALIBRI
  0
TEXT
  8
1
  6
CONTINUOUS
 10
57.331297
 20
62.686927
 40
0.220000
  1
kgf+4%
  7
TQS_CALIBRI
  0
TEXT
  8
1
  6
CONTINUOUS
 10
51.519886
 20
62.686927
 40
0.220000
  1
m
  7
TQS_CALIBRI
  0
TEXT
  8
1
  6
CONTINUOUS
 10
49.657425
 20
62.686927
 40
0.220000
  1
mm
  7
TQS_CALIBRI
  0
TEXT
  8
1
  6
CONTINUOUS
 10
51.245202
 20
62.186926
 40
0.220000
  1
663
  7
TQS_CALIBRI
  0
TEXT
  8
1
  6
CONTINUOUS
 10
60.290799
 20
62.186926
 40
0.220000
  1
12
  7
TQS_CALIBRI
  0
TEXT
  8
1
  6
CONTINUOUS
 10
59.245982
 20
62.186926
 40
0.220000
  1
12
  7
TQS_CALIBRI
  0
TEXT
  8
1
  6
CONTINUOUS
 10
53.365128
 20
62.186926
 40
0.220000
  1
0.886
  7
TQS_CALIBRI
  0
TEXT
  8
1
  6
CONTINUOUS
 10
54.954457
 20
62.186926
 40
0.220000
  1
588
  7
TQS_CALIBRI
  0
TEXT
  8
1
  6
CONTINUOUS
 10
57.014455
 20
62.186926
 40
0.220000
  1
611
  7
TQS_CALIBRI
  0
TEXT
  8
1
  6
CONTINUOUS
 10
49.057269
 20
62.186926
 40
0.220000
  1
2 %%c 12.7
  7
TQS_CALIBRI
  0
TEXT
  8
1
  6
CONTINUOUS
 10
51.245202
 20
61.686925
 40
0.220000
  1
6141
  7
TQS_CALIBRI
  0
TEXT
  8
1
  6
CONTINUOUS
 10
60.290799
 20
61.686925
 40
0.220000
  1
111
  7
TQS_CALIBRI
  0
TEXT
  8
1
  6
CONTINUOUS
 10
59.245982
 20
61.686925
 40
0.220000
  1
111
  7
TQS_CALIBRI
  0
TEXT
  8
1
  6
CONTINUOUS
 10
53.365128
 20
61.686925
 40
0.220000
  1
0.886
  7
TQS_CALIBRI
  0
TEXT
  8
1
  6
CONTINUOUS
 10
54.954457
 20
61.686925
 40
0.220000
  1
5441
  7
TQS_CALIBRI
  0
TEXT
  8
1
  6
CONTINUOUS
 10
57.014455
 20
61.686925
 40
0.220000
  1
5659
  7
TQS_CALIBRI
  0
TEXT
  8
1
  6
CONTINUOUS
 10
49.057269
 20
61.686925
 40
0.220000
  1
3 %%c 12.7
  7
TQS_CALIBRI
  0
TEXT
  8
1
  6
CONTINUOUS
 10
101.932386
 20
23.396411
 40
0.350000
  1
NOTAS:
  7
TQS_CALIBRI
  0
TEXT
  8
2
  6
CONTINUOUS
 10
101.965840
 20
22.812661
 40
0.240000
  1
1) CONFERIR INFORMAÇÕES DA TABELA ACIMA (TABELA DE FERRERAGEM) NA OBRA
  7
TQS_CALIBRI
  0
TEXT
  8
2
  6
CONTINUOUS
 10
101.965840
 20
22.343353
 40
0.240000
  1
ANTES DA COMPRA DAS ARMADURAS.
  7
TQS_CALIBRI
  0
TEXT
  8
1
  6
CONTINUOUS
 10
102.073109
 20
8.835799
 40
0.455000
  1
ENGENHARIA
  7
TQS_CALIBRI
  0
TEXT
  8
1
  6
CONTINUOUS
 10
101.876737
 20
16.222571
 40
0.250000
  1
REV
  7
TQS_CALIBRI
  0
TEXT
  8
1
  6
CONTINUOUS
 10
103.356169
 20
16.222571
 40
0.250000
  1
DATA
  7
TQS_CALIBRI
  0
TEXT
  8
1
  6
CONTINUOUS
 10
105.030516
 20
16.222571
 40
0.250000
  1
ASSUNTO
  7
TQS_CALIBRI
  0
TEXT
  8
1
  6
CONTINUOUS
 10
101.832253
 20
14.047181
 40
0.250000
  1
PROPRIETÁRIO - 
  7
TQS_CALIBRI
  0
TEXT
  8
1
  6
CONTINUOUS
 10
108.042444
 20
2.579059
 40
0.250000
  1
ENGENHEIRO:
  7
TQS_CALIBRI
  0
TEXT
  8
1
  6
CONTINUOUS
 10
108.046365
 20
2.149652
 40
0.250000
  1
CREA REG.:
  7
TQS_CALIBRI
  0
TEXT
  8
1
  6
CONTINUOUS
 10
110.430567
 20
2.160333
 40
0.250000
  1
020930945-8
  7
TQS_CALIBRI
  0
TEXT
  8
1
  6
CONTINUOUS
 10
103.739739
 20
9.759850
 40
1.000000
  1
VGF
  7
TQS_CALIBRI
  0
TEXT
  8
1
  6
CONTINUOUS
 10
101.832253
 20
12.147181
 40
0.250000
  1
PROJETO              Eng. Civil - CREA:020930945-8
  7
TQS_CALIBRI
  0
TEXT
  8
1
  6
CONTINUOUS
 10
101.800510
 20
2.752624
 40
0.150000
  1
DATA:
  7
TQS_CALIBRI
  0
TEXT
  8
1
  6
CONTINUOUS
 10
101.788178
 20
1.752624
 40
0.150000
  1
FASE:
  7
TQS_CALIBRI
  0
TEXT
  8
1
  6
CONTINUOUS
 10
105.124829
 20
2.752624
 40
0.150000
  1
ESCALA:
  7
TQS_CALIBRI
  0
TEXT
  8
1
  6
CONTINUOUS
 10
105.112497
 20
1.752624
 40
0.150000
  1
PLANTA:
  7
TQS_CALIBRI
  0
TEXT
  8
1
  6
CONTINUOUS
 10
101.800510
 20
6.352624
 40
0.150000
  1
TÍTULO:
  7
TQS_CALIBRI
  0
TEXT
  8
1
  6
CONTINUOUS
 10
101.787482
 20
5.577767
 40
0.150000
  1
ELEMENTOS DA PRANCHA:
  7
TQS_CALIBRI
  0
TEXT
  8
1
  6
CONTINUOUS
 10
101.800510
 20
8.252624
 40
0.150000
  1
EMPREENDIMENTO/LOCAL:
  7
TQS_CALIBRI
  0
TEXT
  8
1
  6
CONTINUOUS
 10
106.761120
 20
11.025301
 40
0.150000
  1
CONTATOS:
  7
TQS_CALIBRI
  0
TEXT
  8
1
  6
CONTINUOUS
 10
114.224829
 20
2.752624
 40
0.150000
  1
PLANTA-REVISÃO:
  7
TQS_CALIBRI
  0
TEXT
  8
1
  6
CONTINUOUS
 10
102.041441
 20
16.843956
 40
0.200000
  1
00
  7
TQS_CALIBRI
  0
TEXT
  8
1
  6
CONTINUOUS
 10
102.041441
 20
17.343956
 40
0.200000
  1
01
  7
TQS_CALIBRI
  0
TEXT
  8
1
  6
CONTINUOUS
 10
102.041441
 20
17.843956
 40
0.200000
  1
02
  7
TQS_CALIBRI
  0
TEXT
  8
1
  6
CONTINUOUS
 10
102.041441
 20
18.343956
 40
0.200000
  1
03
  7
TQS_CALIBRI
  0
TEXT
  8
1
  6
CONTINUOUS
 10
102.041441
 20
18.843956
 40
0.200000
  1
04
  7
TQS_CALIBRI
  0
TEXT
  8
1
  6
CONTINUOUS
 10
102.041441
 20
19.343956
 40
0.200000
  1
05
  7
TQS_CALIBRI
  0
TEXT
  8
1
  6
CONTINUOUS
 10
102.041441
 20
19.843956
 40
0.200000
  1
06
  7
TQS_CALIBRI
  0
TEXT
  8
1
  6
CONTINUOUS
 10
102.041441
 20
20.343956
 40
0.200000
  1
07
  7
TQS_CALIBRI
  0
TEXT
  8
1
  6
CONTINUOUS
 10
102.041441
 20
20.843956
 40
0.200000
  1
08
  7
TQS_CALIBRI
  0
TEXT
  8
1
  6
CONTINUOUS
 10
102.041441
 20
21.343956
 40
0.200000
  1
09
  7
TQS_CALIBRI
  0
TEXT
  8
1
  6
CONTINUOUS
 10
102.041441
 20
21.843956
 40
0.200000
  1
10
  7
TQS_CALIBRI
  0
TEXT
  8
1
  6
CONTINUOUS
 10
116.437973
 20
16.222571
 40
0.250000
  1
AUTOR
  7
TQS_CALIBRI
  0
TEXT
  8
1
  6
CONTINUOUS
 10
106.749019
 20
10.335784
 40
0.195000
  1
Tel: 99928-2128
  7
TQS_CALIBRI
  0
TEXT
  8
1
  6
CONTINUOUS
 10
106.749019
 20
10.012284
 40
0.195000
  1
franciscogonca@hotmail.com 
  7
TQS_CALIBRI
  0
TEXT
  8
1
  6
CONTINUOUS
 10
106.749019
 20
9.680784
 40
0.195000
  1
Tel: 99981-6458
  7
TQS_CALIBRI
  0
TEXT
  8
1
  6
CONTINUOUS
 10
106.749019
 20
9.357284
 40
0.195000
  1
tiago@vgfengenharia.com.br 
  7
TQS_CALIBRI
  0
TEXT
  8
1
  6
CONTINUOUS
 10
106.749019
 20
9.025784
 40
0.195000
  1
Tel: 99912-8379
  7
TQS_CALIBRI
  0
TEXT
  8
1
  6
CONTINUOUS
 10
110.809443
 20
11.052624
 40
0.150000
  1
CLIENTE:
  7
TQS_CALIBRI
  0
TEXT
  8
1
  6
CONTINUOUS
 10
116.009770
 20
1.647683
 40
0.500000
  1
-R
  7
TQS_CALIBRI
  0
TEXT
  8
1
  6
CONTINUOUS
 10
101.832253
 20
12.547181
 40
0.250000
  1
RESPONSÁVEL -  Diego de Vasconcelos Gonçalves Ferreira
  7
TQS_CALIBRI
  0
TEXT
  8
1
  6
CONTINUOUS
 10
110.422141
 20
2.578345
 40
0.250000
  1
Diego Vasconcelos
  7
TQS_CALIBRI
  0
TEXT
  8
1
  6
CONTINUOUS
 10
106.749019
 20
10.667284
 40
0.195000
  1
diego@vgfengenharia.com.br 
  7
TQS_CALIBRI
  0
TEXT
  8
1
  6
CONTINUOUS
 10
104.982892
 20
16.853163
 40
0.200000
  1
Emissão inicial.
  7
TQS_CALIBRI
  0
TEXT
  8
1
  6
CONTINUOUS
 10
101.795719
 20
7.825700
 40
0.250000
  1
Assembléia Legislativa de Alagoas
  7
TQS_CALIBRI
  0
TEXT
  8
1
  6
CONTINUOUS
 10
104.517953
 20
14.045361
 40
0.250000
  1
ALA
  7
TQS_CALIBRI
  0
TEXT
  8
1
  6
CONTINUOUS
 10
101.789281
 20
2.263237
 40
0.250000
  1
26/02/2024
  7
TQS_CALIBRI
  0
TEXT
  8
1
  6
CONTINUOUS
 10
102.992347
 20
16.854551
 40
0.200000
  1
26/02/24
  7
TQS_CALIBRI
  0
TEXT
  8
1
  6
CONTINUOUS
 10
101.787954
 20
7.415393
 40
0.200000
  1
RUA SÁ E ALBUQUERQUE, NÚMERO 807, JARAGUÁ - MACEIÓ-AL
  7
TQS_CALIBRI
  0
TEXT
  8
1
  6
CONTINUOUS
 10
101.789859
 20
1.251887
 40
0.250000
  1
PE
  7
TQS_CALIBRI
  0
TEXT
  8
1
  6
CONTINUOUS
 10
105.114178
 20
1.251887
 40
0.250000
  1
CLA-EEM-EST-PE-0350-ARM-R00
  7
TQS_CALIBRI
  0
TEXT
  8
1
  6
CONTINUOUS
 10
116.547332
 20
16.842370
 40
0.200000
  1
DIEGO
  7
TQS_CALIBRI
  0
TEXT
  8
1
  6
CONTINUOUS
 10
114.396264
 20
1.644018
 40
0.500000
  1
0350
  7
TQS_CALIBRI
  0
TEXT
  8
1
  6
CONTINUOUS
 10
116.689770
 20
1.647683
 40
0.500000
  1
00
  7
TQS_CALIBRI
  0
TEXT
  8
1
  6
CONTINUOUS
 10
110.802729
 20
10.513659
 40
0.400000
  1
ALA
  7
TQS_CALIBRI
  0
TEXT
  8
1
  6
CONTINUOUS
 10
101.762319
 20
5.951739
 40
0.250000
  1
ARM. PROTENSÃO VERTICAL (02-1Pavto) - 01 - J
  7
TQS_CALIBRI
  0
ENDSEC
  0
EOF
