  0
SECTION
  2
HEADER
  9
$ACADVER
  1
AC1002
  9
$USERI1
 70
0
  9
$INSBASE
 10
0.000000
 20
0.000000
  9
$EXTMIN
 10
0.000000
 20
0.000000
  9
$EXTMAX
 10
7.761771
 20
4.436620
  9
$LIMMIN
 10
0.000000
 20
0.000000
  9
$LIMMAX
 10
12.000000
 20
9.000000
  9
$VIEWCTR
 10
78.887138
 20
59.361758
  9
$VIEWSIZE
 40
127.522840
  9
$TEXTSIZE
 40
0.100000
  9
$TRACEWID
 40
0.010000
  9
$LTSCALE
 40
1.000000
  0
ENDSEC
  0
SECTION
  2
TABLES
  0
TABLE
  2
LTYPE
 70
     3
  0
LTYPE
  2
CONTINUOUS
 70
    64
  3
Solid line
 72
    65
 73
     0
 40
0.000000
  0
LTYPE
  2
ESTILO_TQS_0001
 70
    64
  3
-  -  -  -  -  -
 72
    65
 73
     2
 40
1.000000
 49
0.700000
 49
-0.300000
  0
LTYPE
  2
ESTILO_TQS_0002
 70
    64
  3
. . . . . . . .
 72
    65
 73
     2
 40
0.400000
 49
0.100000
 49
-0.300000
  0
LTYPE
  2
ESTILO_TQS_0003
 70
    64
  3
- . - . - . - .
 72
    65
 73
     4
 40
0.910000
 49
0.500000
 49
-0.200000
 49
0.010000
 49
-0.200000
  0
LTYPE
  2
ESTILO_TQS_0004
 70
    64
  3
- .. - .. - ..
 72
    65
 73
     6
 40
1.120000
 49
0.500000
 49
-0.200000
 49
0.010000
 49
-0.200000
 49
0.010000
 49
-0.200000
  0
LTYPE
  2
CONTINUOUS
 70
    64
  3
- - - - - - - -
 72
    65
 73
     2
 40
0.400000
 49
0.300000
 49
-0.100000
  0
ENDTAB
  0
TABLE
  2
LAYER
 70
    89
  0
LAYER
  2
0
 70
     0
 62
     7
  6
CONTINUOUS
  0
LAYER
  2
1
 70
     0
 62
     1
  6
CONTINUOUS
  0
LAYER
  2
2
 70
     0
 62
     2
  6
CONTINUOUS
  0
LAYER
  2
3
 70
     0
 62
     3
  6
CONTINUOUS
  0
LAYER
  2
4
 70
     0
 62
     4
  6
CONTINUOUS
  0
LAYER
  2
5
 70
     0
 62
     5
  6
CONTINUOUS
  0
LAYER
  2
6
 70
     0
 62
     6
  6
CONTINUOUS
  0
LAYER
  2
7
 70
     0
 62
     7
  6
CONTINUOUS
  0
LAYER
  2
8
 70
     0
 62
     8
  6
CONTINUOUS
  0
LAYER
  2
9
 70
     0
 62
     9
  6
CONTINUOUS
  0
LAYER
  2
10
 70
     0
 62
    10
  6
CONTINUOUS
  0
LAYER
  2
11
 70
     0
 62
    11
  6
CONTINUOUS
  0
LAYER
  2
12
 70
     0
 62
    12
  6
CONTINUOUS
  0
LAYER
  2
13
 70
     0
 62
    13
  6
CONTINUOUS
  0
LAYER
  2
14
 70
     0
 62
    14
  6
CONTINUOUS
  0
LAYER
  2
15
 70
     0
 62
    15
  6
CONTINUOUS
  0
LAYER
  2
16
 70
     0
 62
     7
  6
CONTINUOUS
  0
LAYER
  2
17
 70
     0
 62
     2
  6
CONTINUOUS
  0
LAYER
  2
18
 70
     0
 62
     4
  6
CONTINUOUS
  0
LAYER
  2
19
 70
     0
 62
     5
  6
CONTINUOUS
  0
LAYER
  2
20
 70
     0
 62
     4
  6
CONTINUOUS
  0
LAYER
  2
21
 70
     0
 62
     2
  6
CONTINUOUS
  0
LAYER
  2
22
 70
     0
 62
     1
  6
CONTINUOUS
  0
LAYER
  2
23
 70
     0
 62
     7
  6
CONTINUOUS
  0
LAYER
  2
24
 70
     0
 62
     6
  6
CONTINUOUS
  0
LAYER
  2
25
 70
     0
 62
     1
  6
CONTINUOUS
  0
LAYER
  2
26
 70
     0
 62
     3
  6
CONTINUOUS
  0
LAYER
  2
27
 70
     0
 62
     4
  6
CONTINUOUS
  0
LAYER
  2
28
 70
     0
 62
     4
  6
CONTINUOUS
  0
LAYER
  2
30
 70
     0
 62
     4
  6
CONTINUOUS
  0
LAYER
  2
100
 70
     0
 62
     1
  6
CONTINUOUS
  0
LAYER
  2
101
 70
     0
 62
     9
  6
CONTINUOUS
  0
LAYER
  2
102
 70
     0
 62
     7
  6
CONTINUOUS
  0
LAYER
  2
103
 70
     0
 62
     2
  6
CONTINUOUS
  0
LAYER
  2
104
 70
     0
 62
    11
  6
CONTINUOUS
  0
LAYER
  2
105
 70
     0
 62
     3
  6
CONTINUOUS
  0
LAYER
  2
106
 70
     0
 62
     5
  6
CONTINUOUS
  0
LAYER
  2
107
 70
     0
 62
     3
  6
CONTINUOUS
  0
LAYER
  2
108
 70
     0
 62
     5
  6
CONTINUOUS
  0
LAYER
  2
109
 70
     0
 62
     3
  6
CONTINUOUS
  0
LAYER
  2
197
 70
     0
 62
     3
  6
CONTINUOUS
  0
LAYER
  2
198
 70
     0
 62
     2
  6
CONTINUOUS
  0
LAYER
  2
199
 70
     0
 62
     6
  6
CONTINUOUS
  0
LAYER
  2
200
 70
     0
 62
     7
  6
ESTILO_TQS_0002
  0
LAYER
  2
201
 70
     0
 62
     7
  6
ESTILO_TQS_0001
  0
LAYER
  2
202
 70
     0
 62
     7
  6
CONTINUOUS
  0
LAYER
  2
203
 70
     0
 62
     7
  6
ESTILO_TQS_0001
  0
LAYER
  2
204
 70
     0
 62
     7
  6
ESTILO_TQS_0003
  0
LAYER
  2
205
 70
     0
 62
     5
  6
ESTILO_TQS_0004
  0
LAYER
  2
206
 70
     0
 62
    15
  6
CONTINUOUS
  0
LAYER
  2
207
 70
     0
 62
     2
  6
CONTINUOUS
  0
LAYER
  2
208
 70
     0
 62
     5
  6
CONTINUOUS
  0
LAYER
  2
210
 70
     0
 62
    15
  6
ESTILO_TQS_0002
  0
LAYER
  2
211
 70
     0
 62
     7
  6
ESTILO_TQS_0001
  0
LAYER
  2
214
 70
     0
 62
    15
  6
CONTINUOUS
  0
LAYER
  2
215
 70
     0
 62
     2
  6
CONTINUOUS
  0
LAYER
  2
216
 70
     0
 62
     3
  6
CONTINUOUS
  0
LAYER
  2
217
 70
     0
 62
     3
  6
CONTINUOUS
  0
LAYER
  2
218
 70
     0
 62
     2
  6
CONTINUOUS
  0
LAYER
  2
219
 70
     0
 62
    15
  6
CONTINUOUS
  0
LAYER
  2
220
 70
     0
 62
    10
  6
CONTINUOUS
  0
LAYER
  2
221
 70
     0
 62
    11
  6
CONTINUOUS
  0
LAYER
  2
222
 70
     0
 62
    12
  6
CONTINUOUS
  0
LAYER
  2
223
 70
     0
 62
     6
  6
CONTINUOUS
  0
LAYER
  2
224
 70
     0
 62
     1
  6
CONTINUOUS
  0
LAYER
  2
225
 70
     0
 62
    15
  6
CONTINUOUS
  0
LAYER
  2
226
 70
     0
 62
     2
  6
CONTINUOUS
  0
LAYER
  2
227
 70
     0
 62
    10
  6
CONTINUOUS
  0
LAYER
  2
228
 70
     0
 62
    11
  6
CONTINUOUS
  0
LAYER
  2
229
 70
     0
 62
    12
  6
CONTINUOUS
  0
LAYER
  2
230
 70
     0
 62
     6
  6
CONTINUOUS
  0
LAYER
  2
231
 70
     0
 62
     3
  6
CONTINUOUS
  0
LAYER
  2
232
 70
     0
 62
    12
  6
CONTINUOUS
  0
LAYER
  2
233
 70
     0
 62
     4
  6
CONTINUOUS
  0
LAYER
  2
234
 70
     0
 62
    13
  6
CONTINUOUS
  0
LAYER
  2
235
 70
     0
 62
     5
  6
CONTINUOUS
  0
LAYER
  2
236
 70
     0
 62
     2
  6
CONTINUOUS
  0
LAYER
  2
237
 70
     0
 62
     6
  6
CONTINUOUS
  0
LAYER
  2
238
 70
     0
 62
    12
  6
CONTINUOUS
  0
LAYER
  2
239
 70
     0
 62
    11
  6
CONTINUOUS
  0
LAYER
  2
240
 70
     0
 62
    11
  6
CONTINUOUS
  0
LAYER
  2
241
 70
     0
 62
    12
  6
CONTINUOUS
  0
ENDTAB
  0
TABLE
  2
STYLE
 70
     1
  0
STYLE
  2
STANDARD
 70
    64
 40
0.000000
 41
1.000000
 50
0.000000
 71
     0
 42
0.200000
  3
ROMANS.SHX
  4

  0
STYLE
  2
TQS_CALIBRI
 70
     0
 40
0.000000
 41
1.000000
 50
0.000000
 71
     0
 42
0.200000
  3
calibri.ttf
  0
STYLE
  2
TQS_CALIBRI_U
 70
     0
 40
0.000000
 41
1.000000
 50
0.000000
 71
     0
 42
0.200000
  3
calibri.ttf
  0
STYLE
  2
TQS_CALIBRI_I
 70
     0
 40
0.000000
 41
1.000000
 50
0.000000
 71
     0
 42
0.200000
  3
calibri.ttf
  0
STYLE
  2
TQS_CALIBRI_I_U
 70
     0
 40
0.000000
 41
1.000000
 50
0.000000
 71
     0
 42
0.200000
  3
calibri.ttf
  0
STYLE
  2
TQS_CALIBRI_B
 70
     0
 40
0.000000
 41
1.000000
 50
0.000000
 71
     0
 42
0.200000
  3
calibri.ttf
  0
STYLE
  2
TQS_CALIBRI_B_U
 70
     0
 40
0.000000
 41
1.000000
 50
0.000000
 71
     0
 42
0.200000
  3
calibri.ttf
  0
STYLE
  2
TQS_CALIBRI_B_I
 70
     0
 40
0.000000
 41
1.000000
 50
0.000000
 71
     0
 42
0.200000
  3
calibri.ttf
  0
STYLE
  2
TQS_CALIBRI_B_I_U
 70
     0
 40
0.000000
 41
1.000000
 50
0.000000
 71
     0
 42
0.200000
  3
calibri.ttf
  0
ENDTAB
  0
TABLE
  2
VIEW
 70
     0
  0
ENDTAB
  0
ENDSEC
  0
SECTION
  2
BLOCKS
  0
BLOCK
  8
0
  2
_PLWTQS
 70
    64
 10
0.000000
 20
0.000000
  0
TEXT
  8
0
  6
CONTINUOUS
 10
0.000000
 20
0.000000
 40
0.200000
  1
$PLWDWGGlBMVwAAAAAAAChABAAAAMHC82deG7a4TWoBHUHqWtdHFAVJz704wJwub3QUFGbTF2Ei4I2g82lnpNj0B6Jme1p/J/CNpvbehxdtTTiFyzx6p2zWUkTjiAVsewaOCgH5VTZF9J7jxDlCyR2XMAUouo78ATQbxVdNiqNF5Zvn3EA=
  7
TQS_CALIBRI
  0
TEXT
  8
0
  6
CONTINUOUS
 10
0.000000
 20
-0.250000
 40
0.200000
  1
$PLWDWGPiKhFzFgClE3seaJTjYKBAhIWABp5MgLDw1iTRlEdW6p3HH9MxDO3U3OPclJobdvCZo4ROwixcqNmuQw5a7PCxXTBB5DbGcMeLrJC+IBQRQrad7sKjL4z6rkwAUCFzKIjBCKc6PRIn61un/HCdVEkM32FHYYDjPc7HGGYRzGg+4=
  7
TQS_CALIBRI
  0
TEXT
  8
0
  6
CONTINUOUS
 10
0.000000
 20
-0.500000
 40
0.200000
  1
$PLWDWGmDl1g9AjyAxENXsTJsybzZdSihU8HuOFKy+kxmTGqRiF6UQjIUyR7PNFfyvjJSlmhtN8kQ5oMcbBy52FaonWWY2MBclQnjmcG+UxK41atFWT/vT3xf2hzXPw6YRywgfkLkctqapahr5N4pk11tUCl8jYsMX/pc2lRhxOhZBhu74=
  7
TQS_CALIBRI
  0
TEXT
  8
0
  6
CONTINUOUS
 10
0.000000
 20
-0.750000
 40
0.200000
  1
$PLWDWGoDk4fbbZwaI03F1spWo7T1TDet9RVtqhwyu+zeRrzIAfqlzG6EdlUKNClBgPgspkVkJrJWyIFg/mZrnxjrs7MtXa5Lght5JIHw/al81SsE9h122gx7ox8g8Dy3URifHaM3zUIxBopFT48P9n7u/xXpOx0aXe0IIRKoyDsS3edAc=
  7
TQS_CALIBRI
  0
TEXT
  8
0
  6
CONTINUOUS
 10
0.000000
 20
-1.000000
 40
0.200000
  1
$PLWDWGFtyaUtiBICwR9gGZfrMuS/mTIwU5q6vG1d7HwOGf2HpsV9crLRF7h66Og+pxhbqVDdeUUbUYKev/LLEMx7nJom98/g+XAE3qsEkiJoJlmUbVnCCMELG8iiE3GCT4zyRAO7/LPYstI3qO3rmFCQkV6XTB41uuKaSQXnFipOZVKcI=
  7
TQS_CALIBRI
  0
TEXT
  8
0
  6
CONTINUOUS
 10
0.000000
 20
-1.250000
 40
0.200000
  1
$PLWDWGiNy8lzsMmSA6xcuVpiSqeyMj0Bl1YmBegMcaiScKEFLE7huL0zk4tDFZucm898SmewJASuk5VTohdXa0KPKZX+U9yGqLVJkVBl9AG/cxlfQYrQysmbf2kHnnMlPUpwJDakVOEH4hk6k2H8K30SKD0nT+aTj/ysHJma5zkEhiI4M=
  7
TQS_CALIBRI
  0
TEXT
  8
0
  6
CONTINUOUS
 10
0.000000
 20
-1.500000
 40
0.200000
  1
$PLWDWG0Epb/5WU4aoTpllULnVmffNgXYdfuh6NqC+jWryy0QcE0BdABoXFNvmFjKCNNDL3eE/+xZXpUmVbgiCMor10IOjZyasC7vNJnWFmBoZAqisQNpIA+w5ZLGyyB/bZNnyW1NnZuXx3rCpAuKuuoz8Dp3BwV56iGA4e3auCyMY1MU0=
  7
TQS_CALIBRI
  0
TEXT
  8
0
  6
CONTINUOUS
 10
0.000000
 20
-1.750000
 40
0.200000
  1
$PLWDWG5bmeUtB7Qh6KhBXFWytcWkKX2XSo55vMs3XO8r2dyf0/Jvb/oadUrJGXHIJCJP+jmsHNUkysCTcAAAAAP4vv/38qE0/MwyFCR5ShCZrBzVJMrAk3AAAAAA==
  7
TQS_CALIBRI
  0
ENDBLK
  8
0
  0
ENDSEC
  0
SECTION
  2
ENTITIES
  0
SOLID
  8
13
  6
CONTINUOUS
 10
102.095046
 20
10.244446
 11
102.095046
 21
9.498246
 12
101.971546
 22
9.498246
 13
101.971546
 23
9.498246
  0
SOLID
  8
13
  6
CONTINUOUS
 10
102.095046
 20
10.244446
 11
101.971546
 21
9.498246
 12
101.971546
 22
11.162246
 13
101.971546
 23
11.162246
  0
SOLID
  8
13
  6
CONTINUOUS
 10
102.095046
 20
10.244446
 11
101.971546
 21
11.162246
 12
102.095046
 22
11.162246
 13
102.095046
 23
11.162246
  0
SOLID
  8
13
  6
CONTINUOUS
 10
102.095046
 20
10.244446
 11
102.095046
 21
11.162246
 12
102.095046
 22
10.244446
 13
102.095046
 23
10.244446
  0
SOLID
  8
13
  6
CONTINUOUS
 10
102.522746
 20
10.230979
 11
102.522746
 21
9.498246
 12
102.095046
 22
9.498246
 13
102.095046
 23
9.498246
  0
SOLID
  8
13
  6
CONTINUOUS
 10
102.522746
 20
10.230979
 11
102.095046
 21
9.498246
 12
102.095046
 22
10.244446
 13
102.095046
 23
10.244446
  0
SOLID
  8
13
  6
CONTINUOUS
 10
102.522746
 20
10.230979
 11
102.095046
 21
10.244446
 12
102.143544
 22
10.248642
 13
102.143544
 23
10.248642
  0
SOLID
  8
13
  6
CONTINUOUS
 10
102.522746
 20
10.230979
 11
102.143544
 21
10.248642
 12
102.211078
 22
10.252071
 13
102.211078
 23
10.252071
  0
SOLID
  8
13
  6
CONTINUOUS
 10
102.522746
 20
10.230979
 11
102.211078
 21
10.252071
 12
102.259959
 22
10.252484
 13
102.259959
 23
10.252484
  0
SOLID
  8
13
  6
CONTINUOUS
 10
102.522746
 20
10.230979
 11
102.259959
 21
10.252484
 12
102.290321
 22
10.252141
 13
102.290321
 23
10.252141
  0
SOLID
  8
13
  6
CONTINUOUS
 10
102.522746
 20
10.230979
 11
102.290321
 21
10.252141
 12
102.334203
 22
10.250668
 13
102.334203
 23
10.250668
  0
SOLID
  8
13
  6
CONTINUOUS
 10
102.522746
 20
10.230979
 11
102.334203
 21
10.250668
 12
102.394518
 22
10.246747
 13
102.394518
 23
10.246747
  0
SOLID
  8
13
  6
CONTINUOUS
 10
102.522746
 20
10.230979
 11
102.394518
 21
10.246747
 12
102.446340
 22
10.241621
 13
102.446340
 23
10.241621
  0
SOLID
  8
13
  6
CONTINUOUS
 10
102.522746
 20
10.230979
 11
102.446340
 21
10.241621
 12
102.490083
 22
10.235974
 13
102.490083
 23
10.235974
  0
SOLID
  8
13
  6
CONTINUOUS
 10
102.522746
 20
10.230979
 11
102.490083
 21
10.235974
 12
102.522746
 22
10.230979
 13
102.522746
 23
10.230979
  0
SOLID
  8
13
  6
CONTINUOUS
 10
102.594246
 20
10.217654
 11
102.594246
 21
9.498246
 12
103.021946
 22
9.498246
 13
103.021946
 23
9.498246
  0
SOLID
  8
13
  6
CONTINUOUS
 10
102.594246
 20
10.217654
 11
103.021946
 21
9.498246
 12
103.021946
 22
10.064184
 13
103.021946
 23
10.064184
  0
SOLID
  8
13
  6
CONTINUOUS
 10
102.594246
 20
10.217654
 11
103.021946
 21
10.064184
 12
103.003898
 22
10.073542
 13
103.003898
 23
10.073542
  0
SOLID
  8
13
  6
CONTINUOUS
 10
102.594246
 20
10.217654
 11
103.003898
 21
10.073542
 12
102.981716
 22
10.084501
 13
102.981716
 23
10.084501
  0
SOLID
  8
13
  6
CONTINUOUS
 10
102.594246
 20
10.217654
 11
102.981716
 21
10.084501
 12
102.953307
 22
10.098271
 13
102.953307
 23
10.098271
  0
SOLID
  8
13
  6
CONTINUOUS
 10
102.594246
 20
10.217654
 11
102.953307
 21
10.098271
 12
102.912865
 22
10.116383
 13
102.912865
 23
10.116383
  0
SOLID
  8
13
  6
CONTINUOUS
 10
102.594246
 20
10.217654
 11
102.912865
 21
10.116383
 12
102.885024
 22
10.128001
 13
102.885024
 23
10.128001
  0
SOLID
  8
13
  6
CONTINUOUS
 10
102.594246
 20
10.217654
 11
102.885024
 21
10.128001
 12
102.844071
 22
10.144755
 13
102.844071
 23
10.144755
  0
SOLID
  8
13
  6
CONTINUOUS
 10
102.594246
 20
10.217654
 11
102.844071
 21
10.144755
 12
102.813490
 22
10.155923
 13
102.813490
 23
10.155923
  0
SOLID
  8
13
  6
CONTINUOUS
 10
102.594246
 20
10.217654
 11
102.813490
 21
10.155923
 12
102.778388
 22
10.168156
 13
102.778388
 23
10.168156
  0
SOLID
  8
13
  6
CONTINUOUS
 10
102.594246
 20
10.217654
 11
102.778388
 21
10.168156
 12
102.744083
 22
10.178793
 13
102.744083
 23
10.178793
  0
SOLID
  8
13
  6
CONTINUOUS
 10
102.594246
 20
10.217654
 11
102.744083
 21
10.178793
 12
102.703465
 22
10.191172
 13
102.703465
 23
10.191172
  0
SOLID
  8
13
  6
CONTINUOUS
 10
102.594246
 20
10.217654
 11
102.703465
 21
10.191172
 12
102.665141
 22
10.201162
 13
102.665141
 23
10.201162
  0
SOLID
  8
13
  6
CONTINUOUS
 10
102.594246
 20
10.217654
 11
102.665141
 21
10.201162
 12
102.624819
 22
10.210970
 13
102.624819
 23
10.210970
  0
SOLID
  8
13
  6
CONTINUOUS
 10
102.594246
 20
10.217654
 11
102.624819
 21
10.210970
 12
102.594246
 22
10.217654
 13
102.594246
 23
10.217654
  0
SOLID
  8
13
  6
CONTINUOUS
 10
103.093446
 20
10.024343
 11
103.093446
 21
9.498246
 12
103.521146
 22
9.498246
 13
103.521146
 23
9.498246
  0
SOLID
  8
13
  6
CONTINUOUS
 10
103.093446
 20
10.024343
 11
103.521146
 21
9.498246
 12
103.521146
 22
9.661030
 13
103.521146
 23
9.661030
  0
SOLID
  8
13
  6
CONTINUOUS
 10
103.093446
 20
10.024343
 11
103.521146
 21
9.661030
 12
103.507797
 22
9.676793
 13
103.507797
 23
9.676793
  0
SOLID
  8
13
  6
CONTINUOUS
 10
103.093446
 20
10.024343
 11
103.507797
 21
9.676793
 12
103.495964
 22
9.690528
 13
103.495964
 23
9.690528
  0
SOLID
  8
13
  6
CONTINUOUS
 10
103.093446
 20
10.024343
 11
103.495964
 21
9.690528
 12
103.473877
 22
9.715277
 13
103.473877
 23
9.715277
  0
SOLID
  8
13
  6
CONTINUOUS
 10
103.093446
 20
10.024343
 11
103.473877
 21
9.715277
 12
103.454164
 22
9.736530
 13
103.454164
 23
9.736530
  0
SOLID
  8
13
  6
CONTINUOUS
 10
103.093446
 20
10.024343
 11
103.454164
 21
9.736530
 12
103.434048
 22
9.757502
 13
103.434048
 23
9.757502
  0
SOLID
  8
13
  6
CONTINUOUS
 10
103.093446
 20
10.024343
 11
103.434048
 21
9.757502
 12
103.410015
 22
9.781535
 13
103.410015
 23
9.781535
  0
SOLID
  8
13
  6
CONTINUOUS
 10
103.093446
 20
10.024343
 11
103.410015
 21
9.781535
 12
103.399294
 22
9.791943
 13
103.399294
 23
9.791943
  0
SOLID
  8
13
  6
CONTINUOUS
 10
103.093446
 20
10.024343
 11
103.399294
 21
9.791943
 12
103.388429
 22
9.802406
 13
103.388429
 23
9.802406
  0
SOLID
  8
13
  6
CONTINUOUS
 10
103.093446
 20
10.024343
 11
103.388429
 21
9.802406
 12
103.359952
 22
9.828752
 13
103.359952
 23
9.828752
  0
SOLID
  8
13
  6
CONTINUOUS
 10
103.093446
 20
10.024343
 11
103.359952
 21
9.828752
 12
103.325139
 22
9.859181
 13
103.325139
 23
9.859181
  0
SOLID
  8
13
  6
CONTINUOUS
 10
103.093446
 20
10.024343
 11
103.325139
 21
9.859181
 12
103.286846
 22
9.890826
 13
103.286846
 23
9.890826
  0
SOLID
  8
13
  6
CONTINUOUS
 10
103.093446
 20
10.024343
 11
103.286846
 21
9.890826
 12
103.251036
 22
9.918745
 13
103.251036
 23
9.918745
  0
SOLID
  8
13
  6
CONTINUOUS
 10
103.093446
 20
10.024343
 11
103.251036
 21
9.918745
 12
103.200839
 22
9.955427
 13
103.200839
 23
9.955427
  0
SOLID
  8
13
  6
CONTINUOUS
 10
103.093446
 20
10.024343
 11
103.200839
 21
9.955427
 12
103.134352
 22
9.999676
 13
103.134352
 23
9.999676
  0
SOLID
  8
13
  6
CONTINUOUS
 10
103.093446
 20
10.024343
 11
103.134352
 21
9.999676
 12
103.093446
 22
10.024343
 13
103.093446
 23
10.024343
  0
SOLID
  8
13
  6
CONTINUOUS
 10
102.522746
 20
10.635283
 11
102.522746
 21
11.162246
 12
102.095046
 22
11.162246
 13
102.095046
 23
11.162246
  0
SOLID
  8
13
  6
CONTINUOUS
 10
102.522746
 20
10.635283
 11
102.095046
 21
11.162246
 12
102.095046
 22
10.995122
 13
102.095046
 23
10.995122
  0
SOLID
  8
13
  6
CONTINUOUS
 10
102.522746
 20
10.635283
 11
102.095046
 21
10.995122
 12
102.153689
 22
10.929235
 13
102.153689
 23
10.929235
  0
SOLID
  8
13
  6
CONTINUOUS
 10
102.522746
 20
10.635283
 11
102.153689
 21
10.929235
 12
102.237359
 22
10.846559
 13
102.237359
 23
10.846559
  0
SOLID
  8
13
  6
CONTINUOUS
 10
102.522746
 20
10.635283
 11
102.237359
 21
10.846559
 12
102.308389
 22
10.784730
 13
102.308389
 23
10.784730
  0
SOLID
  8
13
  6
CONTINUOUS
 10
102.522746
 20
10.635283
 11
102.308389
 21
10.784730
 12
102.366624
 22
10.739274
 13
102.366624
 23
10.739274
  0
SOLID
  8
13
  6
CONTINUOUS
 10
102.522746
 20
10.635283
 11
102.366624
 21
10.739274
 12
102.406322
 22
10.710064
 13
102.406322
 23
10.710064
  0
SOLID
  8
13
  6
CONTINUOUS
 10
102.522746
 20
10.635283
 11
102.406322
 21
10.710064
 12
102.455827
 22
10.676682
 13
102.455827
 23
10.676682
  0
SOLID
  8
13
  6
CONTINUOUS
 10
102.522746
 20
10.635283
 11
102.455827
 21
10.676682
 12
102.493954
 22
10.652515
 13
102.493954
 23
10.652515
  0
SOLID
  8
13
  6
CONTINUOUS
 10
102.522746
 20
10.635283
 11
102.493954
 21
10.652515
 12
102.522746
 22
10.635283
 13
102.522746
 23
10.635283
  0
SOLID
  8
13
  6
CONTINUOUS
 10
103.021946
 20
10.443678
 11
103.021946
 21
11.162246
 12
102.594246
 22
11.162246
 13
102.594246
 23
11.162246
  0
SOLID
  8
13
  6
CONTINUOUS
 10
103.021946
 20
10.443678
 11
102.594246
 21
11.162246
 12
102.594246
 22
10.595859
 13
102.594246
 23
10.595859
  0
SOLID
  8
13
  6
CONTINUOUS
 10
103.021946
 20
10.443678
 11
102.594246
 21
10.595859
 12
102.663800
 22
10.561766
 13
102.663800
 23
10.561766
  0
SOLID
  8
13
  6
CONTINUOUS
 10
103.021946
 20
10.443678
 11
102.663800
 21
10.561766
 12
102.744359
 22
10.527375
 13
102.744359
 23
10.527375
  0
SOLID
  8
13
  6
CONTINUOUS
 10
103.021946
 20
10.443678
 11
102.744359
 21
10.527375
 12
102.812197
 22
10.501464
 13
102.812197
 23
10.501464
  0
SOLID
  8
13
  6
CONTINUOUS
 10
103.021946
 20
10.443678
 11
102.812197
 21
10.501464
 12
102.889458
 22
10.476967
 13
102.889458
 23
10.476967
  0
SOLID
  8
13
  6
CONTINUOUS
 10
103.021946
 20
10.443678
 11
102.889458
 21
10.476967
 12
102.950702
 22
10.460007
 13
102.950702
 23
10.460007
  0
SOLID
  8
13
  6
CONTINUOUS
 10
103.021946
 20
10.443678
 11
102.950702
 21
10.460007
 12
103.021946
 22
10.443678
 13
103.021946
 23
10.443678
  0
SOLID
  8
13
  6
CONTINUOUS
 10
103.093446
 20
10.430307
 11
103.093446
 21
11.162246
 12
103.521146
 22
11.162246
 13
103.521146
 23
11.162246
  0
SOLID
  8
13
  6
CONTINUOUS
 10
103.093446
 20
10.430307
 11
103.521146
 21
11.162246
 12
103.521146
 22
10.417580
 13
103.521146
 23
10.417580
  0
SOLID
  8
13
  6
CONTINUOUS
 10
103.093446
 20
10.430307
 11
103.521146
 21
10.417580
 12
103.476372
 22
10.413637
 13
103.476372
 23
10.413637
  0
SOLID
  8
13
  6
CONTINUOUS
 10
103.093446
 20
10.430307
 11
103.476372
 21
10.413637
 12
103.416577
 22
10.410480
 13
103.416577
 23
10.410480
  0
SOLID
  8
13
  6
CONTINUOUS
 10
103.093446
 20
10.430307
 11
103.416577
 21
10.410480
 12
103.366788
 22
10.409453
 13
103.366788
 23
10.409453
  0
SOLID
  8
13
  6
CONTINUOUS
 10
103.093446
 20
10.430307
 11
103.366788
 21
10.409453
 12
103.336830
 22
10.409453
 13
103.336830
 23
10.409453
  0
SOLID
  8
13
  6
CONTINUOUS
 10
103.093446
 20
10.430307
 11
103.336830
 21
10.409453
 12
103.286182
 22
10.410821
 13
103.286182
 23
10.410821
  0
SOLID
  8
13
  6
CONTINUOUS
 10
103.093446
 20
10.430307
 11
103.286182
 21
10.410821
 12
103.241261
 22
10.413321
 13
103.241261
 23
10.413321
  0
SOLID
  8
13
  6
CONTINUOUS
 10
103.093446
 20
10.430307
 11
103.241261
 21
10.413321
 12
103.205545
 22
10.416539
 13
103.205545
 23
10.416539
  0
SOLID
  8
13
  6
CONTINUOUS
 10
103.093446
 20
10.430307
 11
103.205545
 21
10.416539
 12
103.155349
 22
10.421044
 13
103.155349
 23
10.421044
  0
SOLID
  8
13
  6
CONTINUOUS
 10
103.093446
 20
10.430307
 11
103.155349
 21
10.421044
 12
103.093446
 22
10.430307
 13
103.093446
 23
10.430307
  0
SOLID
  8
13
  6
CONTINUOUS
 10
102.594246
 20
9.498246
 11
102.594246
 21
11.162246
 12
102.522746
 22
11.162246
 13
102.522746
 23
11.162246
  0
SOLID
  8
13
  6
CONTINUOUS
 10
102.594246
 20
9.498246
 11
102.522746
 21
11.162246
 12
102.522746
 22
9.498246
 13
102.522746
 23
9.498246
  0
SOLID
  8
13
  6
CONTINUOUS
 10
102.594246
 20
9.498246
 11
102.522746
 21
9.498246
 12
102.522746
 22
9.498246
 13
102.522746
 23
9.498246
  0
SOLID
  8
13
  6
CONTINUOUS
 10
103.021946
 20
11.162246
 11
103.093446
 21
11.162246
 12
103.093446
 22
9.498246
 13
103.093446
 23
9.498246
  0
SOLID
  8
13
  6
CONTINUOUS
 10
103.021946
 20
11.162246
 11
103.093446
 21
9.498246
 12
103.021946
 22
9.498246
 13
103.021946
 23
9.498246
  0
SOLID
  8
13
  6
CONTINUOUS
 10
103.021946
 20
11.162246
 11
103.021946
 21
9.498246
 12
103.021946
 22
11.162246
 13
103.021946
 23
11.162246
  0
SOLID
  8
13
  6
CONTINUOUS
 10
103.521146
 20
9.498246
 11
103.635546
 21
9.498246
 12
103.635546
 22
11.162246
 13
103.635546
 23
11.162246
  0
SOLID
  8
13
  6
CONTINUOUS
 10
103.521146
 20
9.498246
 11
103.635546
 21
11.162246
 12
103.521146
 22
11.162246
 13
103.521146
 23
11.162246
  0
SOLID
  8
13
  6
CONTINUOUS
 10
103.521146
 20
9.498246
 11
103.521146
 21
11.162246
 12
103.521146
 22
9.498246
 13
103.521146
 23
9.498246
  0
POLYLINE
  8
1
  6
CONTINUOUS
 66
     1
  0
VERTEX
  8
1
  6
CONTINUOUS
 10
48.770438
 20
46.678316
  0
VERTEX
  8
1
  6
CONTINUOUS
 10
48.770438
 20
42.842133
  0
SEQEND
  8
1
  6
CONTINUOUS
  0
POLYLINE
  8
1
  6
CONTINUOUS
 66
     1
  0
VERTEX
  8
1
  6
CONTINUOUS
 10
49.170438
 20
42.358823
  0
VERTEX
  8
1
  6
CONTINUOUS
 10
49.170438
 20
46.538316
  0
SEQEND
  8
1
  6
CONTINUOUS
  0
POLYLINE
  8
1
  6
CONTINUOUS
 66
     1
  0
VERTEX
  8
1
  6
CONTINUOUS
 10
48.770438
 20
50.828313
  0
VERTEX
  8
1
  6
CONTINUOUS
 10
48.770438
 20
46.678316
  0
SEQEND
  8
1
  6
CONTINUOUS
  0
POLYLINE
  8
1
  6
CONTINUOUS
 66
     1
  0
VERTEX
  8
1
  6
CONTINUOUS
 10
49.170438
 20
46.818316
  0
VERTEX
  8
1
  6
CONTINUOUS
 10
49.170438
 20
50.828313
  0
SEQEND
  8
1
  6
CONTINUOUS
  0
POLYLINE
  8
1
  6
CONTINUOUS
 66
     1
  0
VERTEX
  8
1
  6
CONTINUOUS
 10
48.770438
 20
54.138745
  0
VERTEX
  8
1
  6
CONTINUOUS
 10
48.770438
 20
51.228313
  0
SEQEND
  8
1
  6
CONTINUOUS
  0
POLYLINE
  8
1
  6
CONTINUOUS
 66
     1
  0
VERTEX
  8
1
  6
CONTINUOUS
 10
49.170438
 20
51.228313
  0
VERTEX
  8
1
  6
CONTINUOUS
 10
49.170438
 20
53.938745
  0
SEQEND
  8
1
  6
CONTINUOUS
  0
POLYLINE
  8
1
  6
CONTINUOUS
 66
     1
  0
VERTEX
  8
1
  6
CONTINUOUS
 10
48.770438
 20
56.351590
  0
VERTEX
  8
1
  6
CONTINUOUS
 10
48.770438
 20
54.138745
  0
SEQEND
  8
1
  6
CONTINUOUS
  0
POLYLINE
  8
1
  6
CONTINUOUS
 66
     1
  0
VERTEX
  8
1
  6
CONTINUOUS
 10
49.170438
 20
54.338745
  0
VERTEX
  8
1
  6
CONTINUOUS
 10
49.170438
 20
56.669042
  0
SEQEND
  8
1
  6
CONTINUOUS
  0
POLYLINE
  8
1
  6
CONTINUOUS
 66
     1
  0
VERTEX
  8
1
  6
CONTINUOUS
 10
49.170438
 20
46.538316
  0
VERTEX
  8
1
  6
CONTINUOUS
 10
53.070433
 20
46.538316
  0
SEQEND
  8
1
  6
CONTINUOUS
  0
POLYLINE
  8
1
  6
CONTINUOUS
 66
     1
  0
VERTEX
  8
1
  6
CONTINUOUS
 10
53.070433
 20
46.818316
  0
VERTEX
  8
1
  6
CONTINUOUS
 10
49.170438
 20
46.818316
  0
SEQEND
  8
1
  6
CONTINUOUS
  0
POLYLINE
  8
1
  6
CONTINUOUS
 66
     1
  0
VERTEX
  8
1
  6
CONTINUOUS
 10
53.070433
 20
46.538316
  0
VERTEX
  8
1
  6
CONTINUOUS
 10
53.070433
 20
42.525196
  0
SEQEND
  8
1
  6
CONTINUOUS
  0
POLYLINE
  8
1
  6
CONTINUOUS
 66
     1
  0
VERTEX
  8
1
  6
CONTINUOUS
 10
53.470433
 20
42.525200
  0
VERTEX
  8
1
  6
CONTINUOUS
 10
53.470433
 20
46.678316
  0
SEQEND
  8
1
  6
CONTINUOUS
  0
POLYLINE
  8
1
  6
CONTINUOUS
 66
     1
  0
VERTEX
  8
1
  6
CONTINUOUS
 10
53.070433
 20
50.828313
  0
VERTEX
  8
1
  6
CONTINUOUS
 10
53.070433
 20
46.818316
  0
SEQEND
  8
1
  6
CONTINUOUS
  0
POLYLINE
  8
1
  6
CONTINUOUS
 66
     1
  0
VERTEX
  8
1
  6
CONTINUOUS
 10
53.470433
 20
46.678316
  0
VERTEX
  8
1
  6
CONTINUOUS
 10
53.470433
 20
50.828313
  0
SEQEND
  8
1
  6
CONTINUOUS
  0
POLYLINE
  8
1
  6
CONTINUOUS
 66
     1
  0
VERTEX
  8
1
  6
CONTINUOUS
 10
53.470438
 20
50.828317
  0
VERTEX
  8
1
  6
CONTINUOUS
 10
55.687207
 20
50.828317
  0
SEQEND
  8
1
  6
CONTINUOUS
  0
POLYLINE
  8
1
  6
CONTINUOUS
 66
     1
  0
VERTEX
  8
1
  6
CONTINUOUS
 10
55.407207
 20
51.228317
  0
VERTEX
  8
1
  6
CONTINUOUS
 10
53.470438
 20
51.228317
  0
SEQEND
  8
1
  6
CONTINUOUS
  0
POLYLINE
  8
1
  6
CONTINUOUS
 66
     1
  0
VERTEX
  8
1
  6
CONTINUOUS
 10
68.619980
 20
42.125200
  0
VERTEX
  8
1
  6
CONTINUOUS
 10
74.310305
 20
42.125200
  0
SEQEND
  8
1
  6
CONTINUOUS
  0
POLYLINE
  8
1
  6
CONTINUOUS
 66
     1
  0
VERTEX
  8
1
  6
CONTINUOUS
 10
74.310305
 20
42.525200
  0
VERTEX
  8
1
  6
CONTINUOUS
 10
68.222932
 20
42.525200
  0
SEQEND
  8
1
  6
CONTINUOUS
  0
POLYLINE
  8
1
  6
CONTINUOUS
 66
     1
  0
VERTEX
  8
1
  6
CONTINUOUS
 10
67.770310
 20
42.125200
  0
VERTEX
  8
1
  6
CONTINUOUS
 10
67.978038
 20
42.125200
  0
SEQEND
  8
1
  6
CONTINUOUS
  0
POLYLINE
  8
1
  6
CONTINUOUS
 66
     1
  0
VERTEX
  8
1
  6
CONTINUOUS
 10
68.222932
 20
42.525200
  0
VERTEX
  8
1
  6
CONTINUOUS
 10
67.770310
 20
42.525200
  0
SEQEND
  8
1
  6
CONTINUOUS
  0
POLYLINE
  8
1
  6
CONTINUOUS
 66
     1
  0
VERTEX
  8
1
  6
CONTINUOUS
 10
54.633626
 20
42.125200
  0
VERTEX
  8
1
  6
CONTINUOUS
 10
63.170310
 20
42.125200
  0
SEQEND
  8
1
  6
CONTINUOUS
  0
POLYLINE
  8
1
  6
CONTINUOUS
 66
     1
  0
VERTEX
  8
1
  6
CONTINUOUS
 10
63.170310
 20
42.525200
  0
VERTEX
  8
1
  6
CONTINUOUS
 10
54.308077
 20
42.525200
  0
SEQEND
  8
1
  6
CONTINUOUS
  0
POLYLINE
  8
1
  6
CONTINUOUS
 66
     1
  0
VERTEX
  8
1
  6
CONTINUOUS
 10
53.470438
 20
42.125200
  0
VERTEX
  8
1
  6
CONTINUOUS
 10
54.029502
 20
42.125200
  0
SEQEND
  8
1
  6
CONTINUOUS
  0
POLYLINE
  8
1
  6
CONTINUOUS
 66
     1
  0
VERTEX
  8
1
  6
CONTINUOUS
 10
54.308077
 20
42.525200
  0
VERTEX
  8
1
  6
CONTINUOUS
 10
53.470438
 20
42.525200
  0
SEQEND
  8
1
  6
CONTINUOUS
  0
POLYLINE
  8
1
  6
CONTINUOUS
 66
     1
  0
VERTEX
  8
1
  6
CONTINUOUS
 10
67.370310
 20
46.025196
  0
VERTEX
  8
1
  6
CONTINUOUS
 10
67.370310
 20
42.525196
  0
SEQEND
  8
1
  6
CONTINUOUS
  0
POLYLINE
  8
1
  6
CONTINUOUS
 66
     1
  0
VERTEX
  8
1
  6
CONTINUOUS
 10
67.770310
 20
42.525200
  0
VERTEX
  8
1
  6
CONTINUOUS
 10
67.770310
 20
46.025196
  0
SEQEND
  8
1
  6
CONTINUOUS
  0
POLYLINE
  8
1
  6
CONTINUOUS
 66
     1
  0
VERTEX
  8
1
  6
CONTINUOUS
 10
67.370310
 20
50.015200
  0
VERTEX
  8
1
  6
CONTINUOUS
 10
67.370310
 20
46.825589
  0
SEQEND
  8
1
  6
CONTINUOUS
  0
POLYLINE
  8
1
  6
CONTINUOUS
 66
     1
  0
VERTEX
  8
1
  6
CONTINUOUS
 10
67.770310
 20
46.825196
  0
VERTEX
  8
1
  6
CONTINUOUS
 10
67.770310
 20
50.015200
  0
SEQEND
  8
1
  6
CONTINUOUS
  0
POLYLINE
  8
1
  6
CONTINUOUS
 66
     1
  0
VERTEX
  8
1
  6
CONTINUOUS
 10
63.570305
 20
46.425589
  0
VERTEX
  8
1
  6
CONTINUOUS
 10
67.370305
 20
46.425589
  0
SEQEND
  8
1
  6
CONTINUOUS
  0
POLYLINE
  8
1
  6
CONTINUOUS
 66
     1
  0
VERTEX
  8
1
  6
CONTINUOUS
 10
67.370305
 20
46.825589
  0
VERTEX
  8
1
  6
CONTINUOUS
 10
63.570310
 20
46.825589
  0
SEQEND
  8
1
  6
CONTINUOUS
  0
POLYLINE
  8
1
  6
CONTINUOUS
 66
     1
  0
VERTEX
  8
1
  6
CONTINUOUS
 10
63.170310
 20
46.025196
  0
VERTEX
  8
1
  6
CONTINUOUS
 10
63.170310
 20
42.525200
  0
SEQEND
  8
1
  6
CONTINUOUS
  0
POLYLINE
  8
1
  6
CONTINUOUS
 66
     1
  0
VERTEX
  8
1
  6
CONTINUOUS
 10
63.570310
 20
42.525196
  0
VERTEX
  8
1
  6
CONTINUOUS
 10
63.570310
 20
46.025196
  0
SEQEND
  8
1
  6
CONTINUOUS
  0
POLYLINE
  8
1
  6
CONTINUOUS
 66
     1
  0
VERTEX
  8
1
  6
CONTINUOUS
 10
63.170310
 20
50.015200
  0
VERTEX
  8
1
  6
CONTINUOUS
 10
63.170310
 20
46.825196
  0
SEQEND
  8
1
  6
CONTINUOUS
  0
POLYLINE
  8
1
  6
CONTINUOUS
 66
     1
  0
VERTEX
  8
1
  6
CONTINUOUS
 10
63.570310
 20
46.825589
  0
VERTEX
  8
1
  6
CONTINUOUS
 10
63.570310
 20
50.015200
  0
SEQEND
  8
1
  6
CONTINUOUS
  0
POLYLINE
  8
1
  6
CONTINUOUS
 66
     1
  0
VERTEX
  8
1
  6
CONTINUOUS
 10
86.800305
 20
50.015200
  0
VERTEX
  8
1
  6
CONTINUOUS
 10
87.900305
 20
50.015200
  0
SEQEND
  8
1
  6
CONTINUOUS
  0
POLYLINE
  8
1
  6
CONTINUOUS
 66
     1
  0
VERTEX
  8
1
  6
CONTINUOUS
 10
87.500305
 20
50.415200
  0
VERTEX
  8
1
  6
CONTINUOUS
 10
86.800305
 20
50.415200
  0
SEQEND
  8
1
  6
CONTINUOUS
  0
POLYLINE
  8
1
  6
CONTINUOUS
 66
     1
  0
VERTEX
  8
1
  6
CONTINUOUS
 10
85.000300
 20
50.015200
  0
VERTEX
  8
1
  6
CONTINUOUS
 10
86.000305
 20
50.015200
  0
SEQEND
  8
1
  6
CONTINUOUS
  0
POLYLINE
  8
1
  6
CONTINUOUS
 66
     1
  0
VERTEX
  8
1
  6
CONTINUOUS
 10
86.000305
 20
50.415200
  0
VERTEX
  8
1
  6
CONTINUOUS
 10
85.000300
 20
50.415200
  0
SEQEND
  8
1
  6
CONTINUOUS
  0
POLYLINE
  8
1
  6
CONTINUOUS
 66
     1
  0
VERTEX
  8
1
  6
CONTINUOUS
 10
75.110310
 20
50.015200
  0
VERTEX
  8
1
  6
CONTINUOUS
 10
84.200300
 20
50.015200
  0
SEQEND
  8
1
  6
CONTINUOUS
  0
POLYLINE
  8
1
  6
CONTINUOUS
 66
     1
  0
VERTEX
  8
1
  6
CONTINUOUS
 10
84.200300
 20
50.415200
  0
VERTEX
  8
1
  6
CONTINUOUS
 10
75.110310
 20
50.415200
  0
SEQEND
  8
1
  6
CONTINUOUS
  0
POLYLINE
  8
1
  6
CONTINUOUS
 66
     1
  0
VERTEX
  8
1
  6
CONTINUOUS
 10
69.540310
 20
50.015200
  0
VERTEX
  8
1
  6
CONTINUOUS
 10
74.310310
 20
50.015200
  0
SEQEND
  8
1
  6
CONTINUOUS
  0
POLYLINE
  8
1
  6
CONTINUOUS
 66
     1
  0
VERTEX
  8
1
  6
CONTINUOUS
 10
74.310310
 20
50.415200
  0
VERTEX
  8
1
  6
CONTINUOUS
 10
69.540310
 20
50.415200
  0
SEQEND
  8
1
  6
CONTINUOUS
  0
POLYLINE
  8
1
  6
CONTINUOUS
 66
     1
  0
VERTEX
  8
1
  6
CONTINUOUS
 10
67.770310
 20
50.015200
  0
VERTEX
  8
1
  6
CONTINUOUS
 10
68.740310
 20
50.015200
  0
SEQEND
  8
1
  6
CONTINUOUS
  0
POLYLINE
  8
1
  6
CONTINUOUS
 66
     1
  0
VERTEX
  8
1
  6
CONTINUOUS
 10
68.740310
 20
50.415200
  0
VERTEX
  8
1
  6
CONTINUOUS
 10
67.570310
 20
50.415200
  0
SEQEND
  8
1
  6
CONTINUOUS
  0
POLYLINE
  8
1
  6
CONTINUOUS
 66
     1
  0
VERTEX
  8
1
  6
CONTINUOUS
 10
63.970310
 20
50.015200
  0
VERTEX
  8
1
  6
CONTINUOUS
 10
67.370310
 20
50.015200
  0
SEQEND
  8
1
  6
CONTINUOUS
  0
POLYLINE
  8
1
  6
CONTINUOUS
 66
     1
  0
VERTEX
  8
1
  6
CONTINUOUS
 10
67.570310
 20
50.415200
  0
VERTEX
  8
1
  6
CONTINUOUS
 10
63.970310
 20
50.415200
  0
SEQEND
  8
1
  6
CONTINUOUS
  0
POLYLINE
  8
1
  6
CONTINUOUS
 66
     1
  0
VERTEX
  8
1
  6
CONTINUOUS
 10
74.710310
 20
42.125196
  0
VERTEX
  8
1
  6
CONTINUOUS
 10
74.710310
 20
39.197458
  0
SEQEND
  8
1
  6
CONTINUOUS
  0
POLYLINE
  8
1
  6
CONTINUOUS
 66
     1
  0
VERTEX
  8
1
  6
CONTINUOUS
 10
75.110310
 20
39.597458
  0
VERTEX
  8
1
  6
CONTINUOUS
 10
75.110310
 20
42.125196
  0
SEQEND
  8
1
  6
CONTINUOUS
  0
POLYLINE
  8
1
  6
CONTINUOUS
 66
     1
  0
VERTEX
  8
1
  6
CONTINUOUS
 10
74.710310
 20
50.015200
  0
VERTEX
  8
1
  6
CONTINUOUS
 10
74.710310
 20
42.525196
  0
SEQEND
  8
1
  6
CONTINUOUS
  0
POLYLINE
  8
1
  6
CONTINUOUS
 66
     1
  0
VERTEX
  8
1
  6
CONTINUOUS
 10
75.110310
 20
42.525196
  0
VERTEX
  8
1
  6
CONTINUOUS
 10
75.110310
 20
50.015200
  0
SEQEND
  8
1
  6
CONTINUOUS
  0
POLYLINE
  8
1
  6
CONTINUOUS
 66
     1
  0
VERTEX
  8
1
  6
CONTINUOUS
 10
43.970440
 20
42.135872
  0
VERTEX
  8
1
  6
CONTINUOUS
 10
49.170438
 20
42.358823
  0
SEQEND
  8
1
  6
CONTINUOUS
  0
POLYLINE
  8
1
  6
CONTINUOUS
 66
     1
  0
VERTEX
  8
1
  6
CONTINUOUS
 10
48.770438
 20
42.842133
  0
VERTEX
  8
1
  6
CONTINUOUS
 10
43.949102
 20
42.635417
  0
SEQEND
  8
1
  6
CONTINUOUS
  0
POLYLINE
  8
1
  6
CONTINUOUS
 66
     1
  0
VERTEX
  8
1
  6
CONTINUOUS
 10
35.291801
 20
41.763774
  0
VERTEX
  8
1
  6
CONTINUOUS
 10
43.570808
 20
42.118738
  0
SEQEND
  8
1
  6
CONTINUOUS
  0
POLYLINE
  8
1
  6
CONTINUOUS
 66
     1
  0
VERTEX
  8
1
  6
CONTINUOUS
 10
43.549469
 20
42.618282
  0
VERTEX
  8
1
  6
CONTINUOUS
 10
35.270462
 20
42.263318
  0
SEQEND
  8
1
  6
CONTINUOUS
  0
POLYLINE
  8
1
  6
CONTINUOUS
 66
     1
  0
VERTEX
  8
1
  6
CONTINUOUS
 10
26.455726
 20
41.384926
  0
VERTEX
  8
1
  6
CONTINUOUS
 10
34.692352
 20
41.738073
  0
SEQEND
  8
1
  6
CONTINUOUS
  0
POLYLINE
  8
1
  6
CONTINUOUS
 66
     1
  0
VERTEX
  8
1
  6
CONTINUOUS
 10
34.671013
 20
42.237617
  0
VERTEX
  8
1
  6
CONTINUOUS
 10
26.434387
 20
41.884470
  0
SEQEND
  8
1
  6
CONTINUOUS
  0
POLYLINE
  8
1
  6
CONTINUOUS
 66
     1
  0
VERTEX
  8
1
  6
CONTINUOUS
 10
16.764562
 20
40.970975
  0
VERTEX
  8
1
  6
CONTINUOUS
 10
25.456638
 20
41.342221
  0
SEQEND
  8
1
  6
CONTINUOUS
  0
POLYLINE
  8
1
  6
CONTINUOUS
 66
     1
  0
VERTEX
  8
1
  6
CONTINUOUS
 10
25.435299
 20
41.841765
  0
VERTEX
  8
1
  6
CONTINUOUS
 10
16.743224
 20
41.470519
  0
SEQEND
  8
1
  6
CONTINUOUS
  0
POLYLINE
  8
1
  6
CONTINUOUS
 66
     1
  0
VERTEX
  8
1
  6
CONTINUOUS
 10
7.059639
 20
40.556470
  0
VERTEX
  8
1
  6
CONTINUOUS
 10
16.165109
 20
40.945372
  0
SEQEND
  8
1
  6
CONTINUOUS
  0
POLYLINE
  8
1
  6
CONTINUOUS
 66
     1
  0
VERTEX
  8
1
  6
CONTINUOUS
 10
16.143770
 20
41.444916
  0
VERTEX
  8
1
  6
CONTINUOUS
 10
7.038300
 20
41.056014
  0
SEQEND
  8
1
  6
CONTINUOUS
  0
POLYLINE
  8
1
  6
CONTINUOUS
 66
     1
  0
VERTEX
  8
1
  6
CONTINUOUS
 10
48.791856
 20
42.342592
  0
VERTEX
  8
1
  6
CONTINUOUS
 10
48.770438
 20
42.842133
  0
SEQEND
  8
1
  6
CONTINUOUS
  0
POLYLINE
  8
1
  6
CONTINUOUS
 66
     1
  0
VERTEX
  8
1
  6
CONTINUOUS
 10
5.335768
 20
50.974735
  0
VERTEX
  8
1
  6
CONTINUOUS
 10
6.546931
 20
40.765949
  0
SEQEND
  8
1
  6
CONTINUOUS
  0
POLYLINE
  8
1
  6
CONTINUOUS
 66
     1
  0
VERTEX
  8
1
  6
CONTINUOUS
 10
7.016126
 20
41.055154
  0
VERTEX
  8
1
  6
CONTINUOUS
 10
5.832364
 20
51.032983
  0
SEQEND
  8
1
  6
CONTINUOUS
  0
POLYLINE
  8
1
  6
CONTINUOUS
 66
     1
  0
VERTEX
  8
1
  6
CONTINUOUS
 10
4.620901
 20
57.000277
  0
VERTEX
  8
1
  6
CONTINUOUS
 10
5.276861
 20
51.471253
  0
SEQEND
  8
1
  6
CONTINUOUS
  0
POLYLINE
  8
1
  6
CONTINUOUS
 66
     1
  0
VERTEX
  8
1
  6
CONTINUOUS
 10
5.773457
 20
51.529502
  0
VERTEX
  8
1
  6
CONTINUOUS
 10
5.121455
 20
57.025168
  0
SEQEND
  8
1
  6
CONTINUOUS
  0
POLYLINE
  8
1
  6
CONTINUOUS
 66
     1
  0
VERTEX
  8
1
  6
CONTINUOUS
 10
40.196181
 20
58.563160
  0
VERTEX
  8
1
  6
CONTINUOUS
 10
44.342589
 20
58.740344
  0
SEQEND
  8
1
  6
CONTINUOUS
  0
POLYLINE
  8
1
  6
CONTINUOUS
 66
     1
  0
VERTEX
  8
1
  6
CONTINUOUS
 10
44.321139
 20
59.239884
  0
VERTEX
  8
1
  6
CONTINUOUS
 10
40.174842
 20
59.062704
  0
SEQEND
  8
1
  6
CONTINUOUS
  0
POLYLINE
  8
1
  6
CONTINUOUS
 66
     1
  0
VERTEX
  8
1
  6
CONTINUOUS
 10
25.948217
 20
57.954316
  0
VERTEX
  8
1
  6
CONTINUOUS
 10
39.596728
 20
58.537544
  0
SEQEND
  8
1
  6
CONTINUOUS
  0
POLYLINE
  8
1
  6
CONTINUOUS
 66
     1
  0
VERTEX
  8
1
  6
CONTINUOUS
 10
39.575389
 20
59.037088
  0
VERTEX
  8
1
  6
CONTINUOUS
 10
25.926878
 20
58.453860
  0
SEQEND
  8
1
  6
CONTINUOUS
  0
POLYLINE
  8
1
  6
CONTINUOUS
 66
     1
  0
VERTEX
  8
1
  6
CONTINUOUS
 10
15.557685
 20
57.510632
  0
VERTEX
  8
1
  6
CONTINUOUS
 10
24.949128
 20
57.911639
  0
SEQEND
  8
1
  6
CONTINUOUS
  0
POLYLINE
  8
1
  6
CONTINUOUS
 66
     1
  0
VERTEX
  8
1
  6
CONTINUOUS
 10
24.927789
 20
58.411183
  0
VERTEX
  8
1
  6
CONTINUOUS
 10
15.536346
 20
58.010176
  0
SEQEND
  8
1
  6
CONTINUOUS
  0
POLYLINE
  8
1
  6
CONTINUOUS
 66
     1
  0
VERTEX
  8
1
  6
CONTINUOUS
 10
5.120244
 20
57.026346
  0
VERTEX
  8
1
  6
CONTINUOUS
 10
14.958280
 20
57.483893
  0
SEQEND
  8
1
  6
CONTINUOUS
  0
POLYLINE
  8
1
  6
CONTINUOUS
 66
     1
  0
VERTEX
  8
1
  6
CONTINUOUS
 10
14.936941
 20
57.983441
  0
VERTEX
  8
1
  6
CONTINUOUS
 10
5.098905
 20
57.525894
  0
SEQEND
  8
1
  6
CONTINUOUS
  0
POLYLINE
  8
1
  6
CONTINUOUS
 66
     1
  0
VERTEX
  8
1
  6
CONTINUOUS
 10
44.453121
 20
56.166206
  0
VERTEX
  8
1
  6
CONTINUOUS
 10
48.770438
 20
56.351590
  0
SEQEND
  8
1
  6
CONTINUOUS
  0
POLYLINE
  8
1
  6
CONTINUOUS
 66
     1
  0
VERTEX
  8
1
  6
CONTINUOUS
 10
49.170438
 20
56.669042
  0
VERTEX
  8
1
  6
CONTINUOUS
 10
44.719994
 20
56.477942
  0
SEQEND
  8
1
  6
CONTINUOUS
  0
POLYLINE
  8
1
  6
CONTINUOUS
 66
     1
  0
VERTEX
  8
1
  6
CONTINUOUS
 10
48.757568
 20
56.651313
  0
VERTEX
  8
1
  6
CONTINUOUS
 10
48.770438
 20
56.351590
  0
SEQEND
  8
1
  6
CONTINUOUS
  0
POLYLINE
  8
1
  6
CONTINUOUS
 66
     1
  0
VERTEX
  8
1
  6
CONTINUOUS
 10
44.342589
 20
58.740344
  0
VERTEX
  8
1
  6
CONTINUOUS
 10
44.453121
 20
56.166206
  0
SEQEND
  8
1
  6
CONTINUOUS
  0
POLYLINE
  8
1
  6
CONTINUOUS
 66
     1
  0
VERTEX
  8
1
  6
CONTINUOUS
 10
44.719994
 20
56.477942
  0
VERTEX
  8
1
  6
CONTINUOUS
 10
44.611608
 20
59.002097
  0
SEQEND
  8
1
  6
CONTINUOUS
  0
POLYLINE
  8
1
  6
CONTINUOUS
 66
     1
  0
VERTEX
  8
1
  6
CONTINUOUS
 10
44.304390
 20
59.629952
  0
VERTEX
  8
1
  6
CONTINUOUS
 10
44.321139
 20
59.239884
  0
SEQEND
  8
1
  6
CONTINUOUS
  0
POLYLINE
  8
1
  6
CONTINUOUS
 66
     1
  0
VERTEX
  8
1
  6
CONTINUOUS
 10
44.611608
 20
59.002097
  0
VERTEX
  8
1
  6
CONTINUOUS
 10
44.601278
 20
59.242658
  0
SEQEND
  8
1
  6
CONTINUOUS
  0
POLYLINE
  8
1
  6
CONTINUOUS
 66
     1
  0
VERTEX
  8
1
  6
CONTINUOUS
 10
89.890674
 20
20.473805
  0
VERTEX
  8
1
  6
CONTINUOUS
 10
89.890674
 20
15.551653
  0
SEQEND
  8
1
  6
CONTINUOUS
  0
POLYLINE
  8
1
  6
CONTINUOUS
 66
     1
  0
VERTEX
  8
1
  6
CONTINUOUS
 10
90.690674
 20
15.428037
  0
VERTEX
  8
1
  6
CONTINUOUS
 10
90.690674
 20
20.946946
  0
SEQEND
  8
1
  6
CONTINUOUS
  0
POLYLINE
  8
1
  6
CONTINUOUS
 66
     1
  0
VERTEX
  8
1
  6
CONTINUOUS
 10
89.890674
 20
36.111117
  0
VERTEX
  8
1
  6
CONTINUOUS
 10
89.890674
 20
21.115754
  0
SEQEND
  8
1
  6
CONTINUOUS
  0
POLYLINE
  8
1
  6
CONTINUOUS
 66
     1
  0
VERTEX
  8
1
  6
CONTINUOUS
 10
90.690674
 20
20.946946
  0
VERTEX
  8
1
  6
CONTINUOUS
 10
90.690674
 20
36.218524
  0
SEQEND
  8
1
  6
CONTINUOUS
  0
POLYLINE
  8
1
  6
CONTINUOUS
 66
     1
  0
VERTEX
  8
1
  6
CONTINUOUS
 10
89.890674
 20
39.197458
  0
VERTEX
  8
1
  6
CONTINUOUS
 10
89.890674
 20
37.335394
  0
SEQEND
  8
1
  6
CONTINUOUS
  0
POLYLINE
  8
1
  6
CONTINUOUS
 66
     1
  0
VERTEX
  8
1
  6
CONTINUOUS
 10
90.690674
 20
37.227987
  0
VERTEX
  8
1
  6
CONTINUOUS
 10
90.690674
 20
39.597458
  0
SEQEND
  8
1
  6
CONTINUOUS
  0
POLYLINE
  8
1
  6
CONTINUOUS
 66
     1
  0
VERTEX
  8
1
  6
CONTINUOUS
 10
88.370116
 20
14.545202
  0
VERTEX
  8
1
  6
CONTINUOUS
 10
90.690674
 20
15.428037
  0
SEQEND
  8
1
  6
CONTINUOUS
  0
POLYLINE
  8
1
  6
CONTINUOUS
 66
     1
  0
VERTEX
  8
1
  6
CONTINUOUS
 10
89.890674
 20
15.551653
  0
VERTEX
  8
1
  6
CONTINUOUS
 10
88.227877
 20
14.919057
  0
SEQEND
  8
1
  6
CONTINUOUS
  0
POLYLINE
  8
1
  6
CONTINUOUS
 66
     1
  0
VERTEX
  8
1
  6
CONTINUOUS
 10
80.001223
 20
11.361331
  0
VERTEX
  8
1
  6
CONTINUOUS
 10
87.996257
 20
14.402970
  0
SEQEND
  8
1
  6
CONTINUOUS
  0
POLYLINE
  8
1
  6
CONTINUOUS
 66
     1
  0
VERTEX
  8
1
  6
CONTINUOUS
 10
87.854018
 20
14.776826
  0
VERTEX
  8
1
  6
CONTINUOUS
 10
80.139394
 20
11.841867
  0
SEQEND
  8
1
  6
CONTINUOUS
  0
POLYLINE
  8
1
  6
CONTINUOUS
 66
     1
  0
VERTEX
  8
1
  6
CONTINUOUS
 10
58.598534
 20
3.218870
  0
VERTEX
  8
1
  6
CONTINUOUS
 10
80.001223
 20
11.361331
  0
SEQEND
  8
1
  6
CONTINUOUS
  0
POLYLINE
  8
1
  6
CONTINUOUS
 66
     1
  0
VERTEX
  8
1
  6
CONTINUOUS
 10
79.578606
 20
11.628520
  0
VERTEX
  8
1
  6
CONTINUOUS
 10
59.128710
 20
3.848540
  0
SEQEND
  8
1
  6
CONTINUOUS
  0
POLYLINE
  8
1
  6
CONTINUOUS
 66
     1
  0
VERTEX
  8
1
  6
CONTINUOUS
 10
74.710310
 20
39.197458
  0
VERTEX
  8
1
  6
CONTINUOUS
 10
89.890674
 20
39.197458
  0
SEQEND
  8
1
  6
CONTINUOUS
  0
POLYLINE
  8
1
  6
CONTINUOUS
 66
     1
  0
VERTEX
  8
1
  6
CONTINUOUS
 10
90.690674
 20
39.597458
  0
VERTEX
  8
1
  6
CONTINUOUS
 10
75.110310
 20
39.597458
  0
SEQEND
  8
1
  6
CONTINUOUS
  0
POLYLINE
  8
1
  6
CONTINUOUS
 66
     1
  0
VERTEX
  8
1
  6
CONTINUOUS
 10
78.503699
 20
16.142021
  0
VERTEX
  8
1
  6
CONTINUOUS
 10
89.890674
 20
20.473805
  0
SEQEND
  8
1
  6
CONTINUOUS
  0
POLYLINE
  8
1
  6
CONTINUOUS
 66
     1
  0
VERTEX
  8
1
  6
CONTINUOUS
 10
89.890674
 20
21.115754
  0
VERTEX
  8
1
  6
CONTINUOUS
 10
78.290351
 20
16.702808
  0
SEQEND
  8
1
  6
CONTINUOUS
  0
POLYLINE
  8
1
  6
CONTINUOUS
 66
     1
  0
VERTEX
  8
1
  6
CONTINUOUS
 10
58.575311
 20
8.560949
  0
VERTEX
  8
1
  6
CONTINUOUS
 10
77.942879
 20
15.928676
  0
SEQEND
  8
1
  6
CONTINUOUS
  0
POLYLINE
  8
1
  6
CONTINUOUS
 66
     1
  0
VERTEX
  8
1
  6
CONTINUOUS
 10
77.729558
 20
16.489474
  0
VERTEX
  8
1
  6
CONTINUOUS
 10
58.503136
 20
9.175440
  0
SEQEND
  8
1
  6
CONTINUOUS
  0
POLYLINE
  8
1
  6
CONTINUOUS
 66
     1
  0
VERTEX
  8
1
  6
CONTINUOUS
 10
89.890674
 20
21.115754
  0
VERTEX
  8
1
  6
CONTINUOUS
 10
89.890674
 20
20.473805
  0
SEQEND
  8
1
  6
CONTINUOUS
  0
POLYLINE
  8
1
  6
CONTINUOUS
 66
     1
  0
VERTEX
  8
1
  6
CONTINUOUS
 10
57.984434
 20
8.448066
  0
VERTEX
  8
1
  6
CONTINUOUS
 10
58.598534
 20
3.218870
  0
SEQEND
  8
1
  6
CONTINUOUS
  0
POLYLINE
  8
1
  6
CONTINUOUS
 66
     1
  0
VERTEX
  8
1
  6
CONTINUOUS
 10
59.128710
 20
3.848540
  0
VERTEX
  8
1
  6
CONTINUOUS
 10
58.580338
 20
8.518058
  0
SEQEND
  8
1
  6
CONTINUOUS
  0
POLYLINE
  8
1
  6
CONTINUOUS
 66
     1
  0
VERTEX
  8
1
  6
CONTINUOUS
 10
56.181919
 20
23.796890
  0
VERTEX
  8
1
  6
CONTINUOUS
 10
57.867799
 20
9.441241
  0
SEQEND
  8
1
  6
CONTINUOUS
  0
POLYLINE
  8
1
  6
CONTINUOUS
 66
     1
  0
VERTEX
  8
1
  6
CONTINUOUS
 10
58.463702
 20
9.511233
  0
VERTEX
  8
1
  6
CONTINUOUS
 10
56.777822
 20
23.866882
  0
SEQEND
  8
1
  6
CONTINUOUS
  0
POLYLINE
  8
1
  6
CONTINUOUS
 66
     1
  0
VERTEX
  8
1
  6
CONTINUOUS
 10
54.029502
 20
42.125200
  0
VERTEX
  8
1
  6
CONTINUOUS
 10
56.065284
 20
24.790065
  0
SEQEND
  8
1
  6
CONTINUOUS
  0
POLYLINE
  8
1
  6
CONTINUOUS
 66
     1
  0
VERTEX
  8
1
  6
CONTINUOUS
 10
56.661187
 20
24.860057
  0
VERTEX
  8
1
  6
CONTINUOUS
 10
54.633626
 20
42.125200
  0
SEQEND
  8
1
  6
CONTINUOUS
  0
POLYLINE
  8
1
  6
CONTINUOUS
 66
     1
  0
VERTEX
  8
1
  6
CONTINUOUS
 10
77.942879
 20
15.928676
  0
VERTEX
  8
1
  6
CONTINUOUS
 10
79.578606
 20
11.628520
  0
SEQEND
  8
1
  6
CONTINUOUS
  0
POLYLINE
  8
1
  6
CONTINUOUS
 66
     1
  0
VERTEX
  8
1
  6
CONTINUOUS
 10
80.139394
 20
11.841867
  0
VERTEX
  8
1
  6
CONTINUOUS
 10
78.503666
 20
16.142024
  0
SEQEND
  8
1
  6
CONTINUOUS
  0
POLYLINE
  8
1
  6
CONTINUOUS
 66
     1
  0
VERTEX
  8
1
  6
CONTINUOUS
 10
73.001083
 20
28.920141
  0
VERTEX
  8
1
  6
CONTINUOUS
 10
77.729558
 20
16.489474
  0
SEQEND
  8
1
  6
CONTINUOUS
  0
POLYLINE
  8
1
  6
CONTINUOUS
 66
     1
  0
VERTEX
  8
1
  6
CONTINUOUS
 10
78.290346
 20
16.702822
  0
VERTEX
  8
1
  6
CONTINUOUS
 10
73.561870
 20
29.133489
  0
SEQEND
  8
1
  6
CONTINUOUS
  0
POLYLINE
  8
1
  6
CONTINUOUS
 66
     1
  0
VERTEX
  8
1
  6
CONTINUOUS
 10
67.978038
 20
42.125200
  0
VERTEX
  8
1
  6
CONTINUOUS
 10
72.787762
 20
29.480939
  0
SEQEND
  8
1
  6
CONTINUOUS
  0
POLYLINE
  8
1
  6
CONTINUOUS
 66
     1
  0
VERTEX
  8
1
  6
CONTINUOUS
 10
73.348550
 20
29.694287
  0
VERTEX
  8
1
  6
CONTINUOUS
 10
68.619980
 20
42.125200
  0
SEQEND
  8
1
  6
CONTINUOUS
  0
POLYLINE
  8
1
  6
CONTINUOUS
 66
     1
  0
VERTEX
  8
1
  6
CONTINUOUS
 10
80.139394
 20
11.841867
  0
VERTEX
  8
1
  6
CONTINUOUS
 10
79.578606
 20
11.628520
  0
SEQEND
  8
1
  6
CONTINUOUS
  0
POLYLINE
  8
1
  6
CONTINUOUS
 66
     1
  0
VERTEX
  8
1
  6
CONTINUOUS
 10
68.619980
 20
42.125200
  0
VERTEX
  8
1
  6
CONTINUOUS
 10
67.978038
 20
42.125200
  0
SEQEND
  8
1
  6
CONTINUOUS
  0
POLYLINE
  8
1
  6
CONTINUOUS
 66
     1
  0
VERTEX
  8
1
  6
CONTINUOUS
 10
87.500305
 20
58.392564
  0
VERTEX
  8
1
  6
CONTINUOUS
 10
87.500305
 20
50.415200
  0
SEQEND
  8
1
  6
CONTINUOUS
  0
POLYLINE
  8
1
  6
CONTINUOUS
 66
     1
  0
VERTEX
  8
1
  6
CONTINUOUS
 10
87.900305
 20
50.015200
  0
VERTEX
  8
1
  6
CONTINUOUS
 10
87.900305
 20
58.358701
  0
SEQEND
  8
1
  6
CONTINUOUS
  0
POLYLINE
  8
1
  6
CONTINUOUS
 66
     1
  0
VERTEX
  8
1
  6
CONTINUOUS
 10
74.666115
 20
53.425195
  0
VERTEX
  8
1
  6
CONTINUOUS
 10
84.100305
 20
53.425195
  0
SEQEND
  8
1
  6
CONTINUOUS
  0
POLYLINE
  8
1
  6
CONTINUOUS
 66
     1
  0
VERTEX
  8
1
  6
CONTINUOUS
 10
84.100305
 20
53.825195
  0
VERTEX
  8
1
  6
CONTINUOUS
 10
74.666115
 20
53.825195
  0
SEQEND
  8
1
  6
CONTINUOUS
  0
POLYLINE
  8
1
  6
CONTINUOUS
 66
     1
  0
VERTEX
  8
1
  6
CONTINUOUS
 10
66.366177
 20
53.425195
  0
VERTEX
  8
1
  6
CONTINUOUS
 10
74.266115
 20
53.425195
  0
SEQEND
  8
1
  6
CONTINUOUS
  0
POLYLINE
  8
1
  6
CONTINUOUS
 66
     1
  0
VERTEX
  8
1
  6
CONTINUOUS
 10
74.266115
 20
53.825195
  0
VERTEX
  8
1
  6
CONTINUOUS
 10
66.366177
 20
53.825195
  0
SEQEND
  8
1
  6
CONTINUOUS
  0
POLYLINE
  8
1
  6
CONTINUOUS
 66
     1
  0
VERTEX
  8
1
  6
CONTINUOUS
 10
63.070305
 20
53.425195
  0
VERTEX
  8
1
  6
CONTINUOUS
 10
65.966177
 20
53.425195
  0
SEQEND
  8
1
  6
CONTINUOUS
  0
POLYLINE
  8
1
  6
CONTINUOUS
 66
     1
  0
VERTEX
  8
1
  6
CONTINUOUS
 10
65.966177
 20
53.825195
  0
VERTEX
  8
1
  6
CONTINUOUS
 10
63.470305
 20
53.825195
  0
SEQEND
  8
1
  6
CONTINUOUS
  0
POLYLINE
  8
1
  6
CONTINUOUS
 66
     1
  0
VERTEX
  8
1
  6
CONTINUOUS
 10
58.871271
 20
53.938745
  0
VERTEX
  8
1
  6
CONTINUOUS
 10
63.070305
 20
53.938745
  0
SEQEND
  8
1
  6
CONTINUOUS
  0
POLYLINE
  8
1
  6
CONTINUOUS
 66
     1
  0
VERTEX
  8
1
  6
CONTINUOUS
 10
63.470305
 20
54.338745
  0
VERTEX
  8
1
  6
CONTINUOUS
 10
58.871271
 20
54.338745
  0
SEQEND
  8
1
  6
CONTINUOUS
  0
POLYLINE
  8
1
  6
CONTINUOUS
 66
     1
  0
VERTEX
  8
1
  6
CONTINUOUS
 10
55.687207
 20
53.938745
  0
VERTEX
  8
1
  6
CONTINUOUS
 10
58.471271
 20
53.938745
  0
SEQEND
  8
1
  6
CONTINUOUS
  0
POLYLINE
  8
1
  6
CONTINUOUS
 66
     1
  0
VERTEX
  8
1
  6
CONTINUOUS
 10
58.471271
 20
54.338745
  0
VERTEX
  8
1
  6
CONTINUOUS
 10
55.547207
 20
54.338745
  0
SEQEND
  8
1
  6
CONTINUOUS
  0
POLYLINE
  8
1
  6
CONTINUOUS
 66
     1
  0
VERTEX
  8
1
  6
CONTINUOUS
 10
49.170438
 20
53.938745
  0
VERTEX
  8
1
  6
CONTINUOUS
 10
55.407207
 20
53.938745
  0
SEQEND
  8
1
  6
CONTINUOUS
  0
POLYLINE
  8
1
  6
CONTINUOUS
 66
     1
  0
VERTEX
  8
1
  6
CONTINUOUS
 10
55.547207
 20
54.338745
  0
VERTEX
  8
1
  6
CONTINUOUS
 10
49.170438
 20
54.338745
  0
SEQEND
  8
1
  6
CONTINUOUS
  0
POLYLINE
  8
1
  6
CONTINUOUS
 66
     1
  0
VERTEX
  8
1
  6
CONTINUOUS
 10
63.070305
 20
53.938745
  0
VERTEX
  8
1
  6
CONTINUOUS
 10
63.070305
 20
53.425195
  0
SEQEND
  8
1
  6
CONTINUOUS
  0
POLYLINE
  8
1
  6
CONTINUOUS
 66
     1
  0
VERTEX
  8
1
  6
CONTINUOUS
 10
63.470305
 20
53.825195
  0
VERTEX
  8
1
  6
CONTINUOUS
 10
63.470305
 20
54.338745
  0
SEQEND
  8
1
  6
CONTINUOUS
  0
POLYLINE
  8
1
  6
CONTINUOUS
 66
     1
  0
VERTEX
  8
1
  6
CONTINUOUS
 10
84.100305
 20
58.683043
  0
VERTEX
  8
1
  6
CONTINUOUS
 10
84.100305
 20
53.825195
  0
SEQEND
  8
1
  6
CONTINUOUS
  0
POLYLINE
  8
1
  6
CONTINUOUS
 66
     1
  0
VERTEX
  8
1
  6
CONTINUOUS
 10
84.500305
 20
53.825195
  0
VERTEX
  8
1
  6
CONTINUOUS
 10
84.500305
 20
58.649186
  0
SEQEND
  8
1
  6
CONTINUOUS
  0
POLYLINE
  8
1
  6
CONTINUOUS
 66
     1
  0
VERTEX
  8
1
  6
CONTINUOUS
 10
58.472956
 20
59.854484
  0
VERTEX
  8
1
  6
CONTINUOUS
 10
58.472956
 20
54.798745
  0
SEQEND
  8
1
  6
CONTINUOUS
  0
POLYLINE
  8
1
  6
ESTILO_TQS_0001
 66
     1
  0
VERTEX
  8
1
  6
ESTILO_TQS_0001
 10
58.872956
 20
54.798745
  0
VERTEX
  8
1
  6
ESTILO_TQS_0001
 10
58.872956
 20
60.063500
  0
SEQEND
  8
1
  6
ESTILO_TQS_0001
  0
POLYLINE
  8
1
  6
CONTINUOUS
 66
     1
  0
VERTEX
  8
1
  6
CONTINUOUS
 10
58.472956
 20
60.850005
  0
VERTEX
  8
1
  6
CONTINUOUS
 10
58.472956
 20
60.254873
  0
SEQEND
  8
1
  6
CONTINUOUS
  0
POLYLINE
  8
1
  6
ESTILO_TQS_0001
 66
     1
  0
VERTEX
  8
1
  6
ESTILO_TQS_0001
 10
58.872956
 20
60.063500
  0
VERTEX
  8
1
  6
ESTILO_TQS_0001
 10
58.872956
 20
60.816149
  0
SEQEND
  8
1
  6
ESTILO_TQS_0001
  0
POLYLINE
  8
1
  6
CONTINUOUS
 66
     1
  0
VERTEX
  8
1
  6
CONTINUOUS
 10
87.900305
 20
58.358701
  0
VERTEX
  8
1
  6
CONTINUOUS
 10
95.373069
 20
57.726060
  0
SEQEND
  8
1
  6
CONTINUOUS
  0
POLYLINE
  8
1
  6
CONTINUOUS
 66
     1
  0
VERTEX
  8
1
  6
CONTINUOUS
 10
95.423672
 20
58.323923
  0
VERTEX
  8
1
  6
CONTINUOUS
 10
87.725612
 20
58.975636
  0
SEQEND
  8
1
  6
CONTINUOUS
  0
POLYLINE
  8
1
  6
CONTINUOUS
 66
     1
  0
VERTEX
  8
1
  6
CONTINUOUS
 10
84.649094
 20
58.633946
  0
VERTEX
  8
1
  6
CONTINUOUS
 10
87.500305
 20
58.392564
  0
SEQEND
  8
1
  6
CONTINUOUS
  0
POLYLINE
  8
1
  6
CONTINUOUS
 66
     1
  0
VERTEX
  8
1
  6
CONTINUOUS
 10
87.725612
 20
58.975636
  0
VERTEX
  8
1
  6
CONTINUOUS
 10
84.699698
 20
59.231809
  0
SEQEND
  8
1
  6
CONTINUOUS
  0
POLYLINE
  8
1
  6
CONTINUOUS
 66
     1
  0
VERTEX
  8
1
  6
CONTINUOUS
 10
74.666115
 20
59.479100
  0
VERTEX
  8
1
  6
CONTINUOUS
 10
84.051233
 20
58.684561
  0
SEQEND
  8
1
  6
CONTINUOUS
  0
POLYLINE
  8
1
  6
CONTINUOUS
 66
     1
  0
VERTEX
  8
1
  6
CONTINUOUS
 10
84.101836
 20
59.282423
  0
VERTEX
  8
1
  6
CONTINUOUS
 10
74.491422
 20
60.096036
  0
SEQEND
  8
1
  6
CONTINUOUS
  0
POLYLINE
  8
1
  6
CONTINUOUS
 66
     1
  0
VERTEX
  8
1
  6
CONTINUOUS
 10
73.451473
 20
59.581931
  0
VERTEX
  8
1
  6
CONTINUOUS
 10
74.266115
 20
59.512964
  0
SEQEND
  8
1
  6
CONTINUOUS
  0
POLYLINE
  8
1
  6
CONTINUOUS
 66
     1
  0
VERTEX
  8
1
  6
CONTINUOUS
 10
74.491422
 20
60.096036
  0
VERTEX
  8
1
  6
CONTINUOUS
 10
73.502076
 20
60.179793
  0
SEQEND
  8
1
  6
CONTINUOUS
  0
POLYLINE
  8
1
  6
CONTINUOUS
 66
     1
  0
VERTEX
  8
1
  6
CONTINUOUS
 10
66.366177
 20
60.181769
  0
VERTEX
  8
1
  6
CONTINUOUS
 10
72.853612
 20
59.632546
  0
SEQEND
  8
1
  6
CONTINUOUS
  0
POLYLINE
  8
1
  6
CONTINUOUS
 66
     1
  0
VERTEX
  8
1
  6
CONTINUOUS
 10
72.904215
 20
60.230408
  0
VERTEX
  8
1
  6
CONTINUOUS
 10
66.191485
 20
60.798704
  0
SEQEND
  8
1
  6
CONTINUOUS
  0
POLYLINE
  8
1
  6
CONTINUOUS
 66
     1
  0
VERTEX
  8
1
  6
CONTINUOUS
 10
64.433731
 20
60.345369
  0
VERTEX
  8
1
  6
CONTINUOUS
 10
65.966177
 20
60.215632
  0
SEQEND
  8
1
  6
CONTINUOUS
  0
POLYLINE
  8
1
  6
CONTINUOUS
 66
     1
  0
VERTEX
  8
1
  6
CONTINUOUS
 10
66.191485
 20
60.798704
  0
VERTEX
  8
1
  6
CONTINUOUS
 10
64.484334
 20
60.943231
  0
SEQEND
  8
1
  6
CONTINUOUS
  0
POLYLINE
  8
1
  6
CONTINUOUS
 66
     1
  0
VERTEX
  8
1
  6
CONTINUOUS
 10
59.070817
 20
60.799390
  0
VERTEX
  8
1
  6
CONTINUOUS
 10
63.835870
 20
60.395983
  0
SEQEND
  8
1
  6
CONTINUOUS
  0
POLYLINE
  8
1
  6
CONTINUOUS
 66
     1
  0
VERTEX
  8
1
  6
CONTINUOUS
 10
63.886473
 20
60.993845
  0
VERTEX
  8
1
  6
CONTINUOUS
 10
59.121420
 20
61.397252
  0
SEQEND
  8
1
  6
CONTINUOUS
  0
POLYLINE
  8
1
  6
CONTINUOUS
 66
     1
  0
VERTEX
  8
1
  6
CONTINUOUS
 10
74.266115
 20
59.512964
  0
VERTEX
  8
1
  6
CONTINUOUS
 10
74.266115
 20
53.825195
  0
SEQEND
  8
1
  6
CONTINUOUS
  0
POLYLINE
  8
1
  6
CONTINUOUS
 66
     1
  0
VERTEX
  8
1
  6
CONTINUOUS
 10
74.666115
 20
53.825195
  0
VERTEX
  8
1
  6
CONTINUOUS
 10
74.666115
 20
59.479100
  0
SEQEND
  8
1
  6
CONTINUOUS
  0
POLYLINE
  8
1
  6
CONTINUOUS
 66
     1
  0
VERTEX
  8
1
  6
CONTINUOUS
 10
65.966177
 20
60.215632
  0
VERTEX
  8
1
  6
CONTINUOUS
 10
65.966177
 20
53.825195
  0
SEQEND
  8
1
  6
CONTINUOUS
  0
POLYLINE
  8
1
  6
CONTINUOUS
 66
     1
  0
VERTEX
  8
1
  6
CONTINUOUS
 10
66.366177
 20
53.825195
  0
VERTEX
  8
1
  6
CONTINUOUS
 10
66.366177
 20
60.181769
  0
SEQEND
  8
1
  6
CONTINUOUS
  0
POLYLINE
  8
1
  6
CONTINUOUS
 66
     1
  0
VERTEX
  8
1
  6
CONTINUOUS
 10
55.407207
 20
53.938745
  0
VERTEX
  8
1
  6
CONTINUOUS
 10
55.407207
 20
51.228317
  0
SEQEND
  8
1
  6
CONTINUOUS
  0
POLYLINE
  8
1
  6
CONTINUOUS
 66
     1
  0
VERTEX
  8
1
  6
CONTINUOUS
 10
55.687207
 20
50.828317
  0
VERTEX
  8
1
  6
CONTINUOUS
 10
55.687207
 20
53.938745
  0
SEQEND
  8
1
  6
CONTINUOUS
  0
POLYLINE
  8
1
  6
CONTINUOUS
 66
     1
  0
VERTEX
  8
1
  6
CONTINUOUS
 10
44.601278
 20
59.242658
  0
VERTEX
  8
1
  6
CONTINUOUS
 10
58.472956
 20
59.854484
  0
SEQEND
  8
1
  6
CONTINUOUS
  0
POLYLINE
  8
1
  6
CONTINUOUS
 66
     1
  0
VERTEX
  8
1
  6
CONTINUOUS
 10
58.472956
 20
60.254873
  0
VERTEX
  8
1
  6
CONTINUOUS
 10
44.304390
 20
59.629952
  0
SEQEND
  8
1
  6
CONTINUOUS
  0
POLYLINE
  8
1
  6
CONTINUOUS
 66
     1
  0
VERTEX
  8
1
  6
CONTINUOUS
 10
58.472956
 20
60.254873
  0
VERTEX
  8
1
  6
CONTINUOUS
 10
58.472956
 20
59.854484
  0
SEQEND
  8
1
  6
CONTINUOUS
  0
LINE
  8
1
  6
CONTINUOUS
 10
96.459921
 20
58.235829
 11
96.420064
 21
58.239204
  0
LINE
  8
1
  6
CONTINUOUS
 10
96.420064
 20
58.239204
 11
96.423413
 21
58.278761
  0
LINE
  8
1
  6
CONTINUOUS
 10
55.397173
 20
56.947760
 11
55.397215
 21
59.726823
  0
LINE
  8
1
  6
CONTINUOUS
 10
58.472956
 20
56.947686
 11
55.397173
 21
56.947686
  0
LINE
  8
1
  6
CONTINUOUS
 10
70.170310
 20
44.925195
 11
70.170310
 21
46.605195
  0
LINE
  8
1
  6
CONTINUOUS
 10
70.170310
 20
46.605195
 11
67.770310
 21
46.605195
  0
LINE
  8
1
  6
CONTINUOUS
 10
70.170310
 20
44.925195
 11
72.410305
 21
44.925195
  0
LINE
  8
1
  6
CONTINUOUS
 10
72.410305
 20
44.925195
 11
72.410305
 21
47.727311
  0
LINE
  8
1
  6
CONTINUOUS
 10
72.410305
 20
47.727311
 11
71.850309
 21
47.727311
  0
LINE
  8
1
  6
CONTINUOUS
 10
71.850309
 20
47.727311
 11
71.850309
 21
50.015200
  0
LINE
  8
1
  6
CONTINUOUS
 10
74.710305
 20
42.325196
 11
74.710305
 21
42.325196
  0
POLYLINE
  8
1
  6
CONTINUOUS
 66
     1
  0
VERTEX
  8
1
  6
CONTINUOUS
 10
75.110305
 20
42.125196
  0
VERTEX
  8
1
  6
CONTINUOUS
 10
75.110305
 20
42.525196
  0
VERTEX
  8
1
  6
CONTINUOUS
 10
74.310305
 20
42.525196
  0
VERTEX
  8
1
  6
CONTINUOUS
 10
74.310305
 20
42.125196
  0
VERTEX
  8
1
  6
CONTINUOUS
 10
75.110305
 20
42.125196
  0
SEQEND
  8
1
  6
CONTINUOUS
  0
LINE
  8
1
  6
CONTINUOUS
 10
90.210300
 20
36.723256
 11
90.210300
 21
36.723256
  0
CIRCLE
  8
1
  6
CONTINUOUS
 10
90.210300
 20
36.723256
 40
0.700000
  0
LINE
  8
1
  6
CONTINUOUS
 10
51.120438
 20
42.325196
 11
51.120438
 21
42.325196
  0
POLYLINE
  8
1
  6
CONTINUOUS
 66
     1
  0
VERTEX
  8
1
  6
CONTINUOUS
 10
53.470438
 20
42.125196
  0
VERTEX
  8
1
  6
CONTINUOUS
 10
53.470438
 20
42.525196
  0
VERTEX
  8
1
  6
CONTINUOUS
 10
48.770438
 20
42.525196
  0
VERTEX
  8
1
  6
CONTINUOUS
 10
48.770438
 20
42.125196
  0
VERTEX
  8
1
  6
CONTINUOUS
 10
53.470438
 20
42.125196
  0
SEQEND
  8
1
  6
CONTINUOUS
  0
LINE
  8
1
  6
CONTINUOUS
 10
51.120438
 20
51.028313
 11
51.120438
 21
51.028313
  0
POLYLINE
  8
1
  6
CONTINUOUS
 66
     1
  0
VERTEX
  8
1
  6
CONTINUOUS
 10
53.470438
 20
50.828313
  0
VERTEX
  8
1
  6
CONTINUOUS
 10
53.470438
 20
51.228313
  0
VERTEX
  8
1
  6
CONTINUOUS
 10
48.770438
 20
51.228313
  0
VERTEX
  8
1
  6
CONTINUOUS
 10
48.770438
 20
50.828313
  0
VERTEX
  8
1
  6
CONTINUOUS
 10
53.470438
 20
50.828313
  0
SEQEND
  8
1
  6
CONTINUOUS
  0
LINE
  8
1
  6
CONTINUOUS
 10
6.799194
 20
40.795659
 11
6.799194
 21
40.795659
  0
POLYLINE
  8
1
  6
CONTINUOUS
 66
     1
  0
VERTEX
  8
1
  6
CONTINUOUS
 10
7.038296
 20
41.056101
  0
VERTEX
  8
1
  6
CONTINUOUS
 10
6.538752
 20
41.034762
  0
VERTEX
  8
1
  6
CONTINUOUS
 10
6.560091
 20
40.535217
  0
VERTEX
  8
1
  6
CONTINUOUS
 10
7.059635
 20
40.556556
  0
VERTEX
  8
1
  6
CONTINUOUS
 10
7.038296
 20
41.056101
  0
SEQEND
  8
1
  6
CONTINUOUS
  0
LINE
  8
1
  6
CONTINUOUS
 10
4.859855
 20
57.264221
 11
4.859855
 21
57.264221
  0
POLYLINE
  8
1
  6
CONTINUOUS
 66
     1
  0
VERTEX
  8
1
  6
CONTINUOUS
 10
5.098957
 20
57.524663
  0
VERTEX
  8
1
  6
CONTINUOUS
 10
4.599413
 20
57.503324
  0
VERTEX
  8
1
  6
CONTINUOUS
 10
4.620752
 20
57.003779
  0
VERTEX
  8
1
  6
CONTINUOUS
 10
5.120296
 20
57.025118
  0
VERTEX
  8
1
  6
CONTINUOUS
 10
5.098957
 20
57.524663
  0
SEQEND
  8
1
  6
CONTINUOUS
  0
LINE
  8
1
  6
CONTINUOUS
 10
74.710310
 20
50.215200
 11
74.710310
 21
50.215200
  0
POLYLINE
  8
1
  6
CONTINUOUS
 66
     1
  0
VERTEX
  8
1
  6
CONTINUOUS
 10
75.110310
 20
50.015200
  0
VERTEX
  8
1
  6
CONTINUOUS
 10
75.110310
 20
50.415200
  0
VERTEX
  8
1
  6
CONTINUOUS
 10
74.310310
 20
50.415200
  0
VERTEX
  8
1
  6
CONTINUOUS
 10
74.310310
 20
50.015200
  0
VERTEX
  8
1
  6
CONTINUOUS
 10
75.110310
 20
50.015200
  0
SEQEND
  8
1
  6
CONTINUOUS
  0
LINE
  8
1
  6
CONTINUOUS
 10
63.570310
 20
50.215200
 11
63.570310
 21
50.215200
  0
POLYLINE
  8
1
  6
CONTINUOUS
 66
     1
  0
VERTEX
  8
1
  6
CONTINUOUS
 10
63.970310
 20
50.015200
  0
VERTEX
  8
1
  6
CONTINUOUS
 10
63.970310
 20
50.415200
  0
VERTEX
  8
1
  6
CONTINUOUS
 10
63.170310
 20
50.415200
  0
VERTEX
  8
1
  6
CONTINUOUS
 10
63.170310
 20
50.015200
  0
VERTEX
  8
1
  6
CONTINUOUS
 10
63.970310
 20
50.015200
  0
SEQEND
  8
1
  6
CONTINUOUS
  0
LINE
  8
1
  6
CONTINUOUS
 10
63.370305
 20
46.425196
 11
63.370305
 21
46.425196
  0
POLYLINE
  8
1
  6
CONTINUOUS
 66
     1
  0
VERTEX
  8
1
  6
CONTINUOUS
 10
63.570305
 20
46.025196
  0
VERTEX
  8
1
  6
CONTINUOUS
 10
63.570305
 20
46.825196
  0
VERTEX
  8
1
  6
CONTINUOUS
 10
63.170305
 20
46.825196
  0
VERTEX
  8
1
  6
CONTINUOUS
 10
63.170305
 20
46.025196
  0
VERTEX
  8
1
  6
CONTINUOUS
 10
63.570305
 20
46.025196
  0
SEQEND
  8
1
  6
CONTINUOUS
  0
LINE
  8
1
  6
CONTINUOUS
 10
67.570305
 20
46.425196
 11
67.570305
 21
46.425196
  0
POLYLINE
  8
1
  6
CONTINUOUS
 66
     1
  0
VERTEX
  8
1
  6
CONTINUOUS
 10
67.770305
 20
46.025196
  0
VERTEX
  8
1
  6
CONTINUOUS
 10
67.770305
 20
46.825196
  0
VERTEX
  8
1
  6
CONTINUOUS
 10
67.370305
 20
46.825196
  0
VERTEX
  8
1
  6
CONTINUOUS
 10
67.370305
 20
46.025196
  0
VERTEX
  8
1
  6
CONTINUOUS
 10
67.770305
 20
46.025196
  0
SEQEND
  8
1
  6
CONTINUOUS
  0
LINE
  8
1
  6
CONTINUOUS
 10
69.140310
 20
50.215200
 11
69.140310
 21
50.215200
  0
POLYLINE
  8
1
  6
CONTINUOUS
 66
     1
  0
VERTEX
  8
1
  6
CONTINUOUS
 10
69.540310
 20
50.015200
  0
VERTEX
  8
1
  6
CONTINUOUS
 10
69.540310
 20
50.415200
  0
VERTEX
  8
1
  6
CONTINUOUS
 10
68.740310
 20
50.415200
  0
VERTEX
  8
1
  6
CONTINUOUS
 10
68.740310
 20
50.015200
  0
VERTEX
  8
1
  6
CONTINUOUS
 10
69.540310
 20
50.015200
  0
SEQEND
  8
1
  6
CONTINUOUS
  0
LINE
  8
1
  6
CONTINUOUS
 10
65.470310
 20
42.325196
 11
65.470310
 21
42.325196
  0
POLYLINE
  8
1
  6
CONTINUOUS
 66
     1
  0
VERTEX
  8
1
  6
CONTINUOUS
 10
67.770310
 20
42.125196
  0
VERTEX
  8
1
  6
CONTINUOUS
 10
67.770310
 20
42.525196
  0
VERTEX
  8
1
  6
CONTINUOUS
 10
63.170310
 20
42.525196
  0
VERTEX
  8
1
  6
CONTINUOUS
 10
63.170310
 20
42.125196
  0
VERTEX
  8
1
  6
CONTINUOUS
 10
67.770310
 20
42.125196
  0
SEQEND
  8
1
  6
CONTINUOUS
  0
LINE
  8
1
  6
CONTINUOUS
 10
25.945509
 20
41.613413
 11
25.945509
 21
41.613413
  0
POLYLINE
  8
1
  6
CONTINUOUS
 66
     1
  0
VERTEX
  8
1
  6
CONTINUOUS
 10
26.434384
 20
41.884524
  0
VERTEX
  8
1
  6
CONTINUOUS
 10
25.435296
 20
41.841846
  0
VERTEX
  8
1
  6
CONTINUOUS
 10
25.456634
 20
41.342302
  0
VERTEX
  8
1
  6
CONTINUOUS
 10
26.455723
 20
41.384979
  0
VERTEX
  8
1
  6
CONTINUOUS
 10
26.434384
 20
41.884524
  0
SEQEND
  8
1
  6
CONTINUOUS
  0
LINE
  8
1
  6
CONTINUOUS
 10
25.438000
 20
58.182807
 11
25.438000
 21
58.182807
  0
POLYLINE
  8
1
  6
CONTINUOUS
 66
     1
  0
VERTEX
  8
1
  6
CONTINUOUS
 10
25.926875
 20
58.453918
  0
VERTEX
  8
1
  6
CONTINUOUS
 10
24.927786
 20
58.411240
  0
VERTEX
  8
1
  6
CONTINUOUS
 10
24.949125
 20
57.911696
  0
VERTEX
  8
1
  6
CONTINUOUS
 10
25.948214
 20
57.954374
  0
VERTEX
  8
1
  6
CONTINUOUS
 10
25.926875
 20
58.453918
  0
SEQEND
  8
1
  6
CONTINUOUS
  0
LINE
  8
1
  6
CONTINUOUS
 10
86.400305
 20
50.215200
 11
86.400305
 21
50.215200
  0
POLYLINE
  8
1
  6
CONTINUOUS
 66
     1
  0
VERTEX
  8
1
  6
CONTINUOUS
 10
86.800305
 20
50.015200
  0
VERTEX
  8
1
  6
CONTINUOUS
 10
86.800305
 20
50.415200
  0
VERTEX
  8
1
  6
CONTINUOUS
 10
86.000305
 20
50.415200
  0
VERTEX
  8
1
  6
CONTINUOUS
 10
86.000305
 20
50.015200
  0
VERTEX
  8
1
  6
CONTINUOUS
 10
86.800305
 20
50.015200
  0
SEQEND
  8
1
  6
CONTINUOUS
  0
LINE
  8
1
  6
CONTINUOUS
 10
78.116626
 20
16.315754
 11
78.116626
 21
16.315754
  0
POLYLINE
  8
1
  6
CONTINUOUS
 66
     1
  0
VERTEX
  8
1
  6
CONTINUOUS
 10
78.503694
 20
16.142035
  0
VERTEX
  8
1
  6
CONTINUOUS
 10
78.290346
 20
16.702822
  0
VERTEX
  8
1
  6
CONTINUOUS
 10
77.729558
 20
16.489474
  0
VERTEX
  8
1
  6
CONTINUOUS
 10
77.942906
 20
15.928686
  0
VERTEX
  8
1
  6
CONTINUOUS
 10
78.503694
 20
16.142035
  0
SEQEND
  8
1
  6
CONTINUOUS
  0
LINE
  8
1
  6
CONTINUOUS
 10
73.174804
 20
29.307209
 11
73.174804
 21
29.307209
  0
POLYLINE
  8
1
  6
CONTINUOUS
 66
     1
  0
VERTEX
  8
1
  6
CONTINUOUS
 10
73.561872
 20
29.133489
  0
VERTEX
  8
1
  6
CONTINUOUS
 10
73.348524
 20
29.694277
  0
VERTEX
  8
1
  6
CONTINUOUS
 10
72.787736
 20
29.480929
  0
VERTEX
  8
1
  6
CONTINUOUS
 10
73.001084
 20
28.920141
  0
VERTEX
  8
1
  6
CONTINUOUS
 10
73.561872
 20
29.133489
  0
SEQEND
  8
1
  6
CONTINUOUS
  0
LINE
  8
1
  6
CONTINUOUS
 10
56.421405
 20
24.328456
 11
56.421405
 21
24.328456
  0
POLYLINE
  8
1
  6
CONTINUOUS
 66
     1
  0
VERTEX
  8
1
  6
CONTINUOUS
 10
56.777684
 20
23.866866
  0
VERTEX
  8
1
  6
CONTINUOUS
 10
56.661030
 20
24.860038
  0
VERTEX
  8
1
  6
CONTINUOUS
 10
56.065127
 20
24.790046
  0
VERTEX
  8
1
  6
CONTINUOUS
 10
56.181780
 20
23.796874
  0
VERTEX
  8
1
  6
CONTINUOUS
 10
56.777684
 20
23.866866
  0
SEQEND
  8
1
  6
CONTINUOUS
  0
LINE
  8
1
  6
CONTINUOUS
 10
58.224070
 20
8.979650
 11
58.224070
 21
8.979650
  0
POLYLINE
  8
1
  6
CONTINUOUS
 66
     1
  0
VERTEX
  8
1
  6
CONTINUOUS
 10
58.580348
 20
8.518060
  0
VERTEX
  8
1
  6
CONTINUOUS
 10
58.463695
 20
9.511232
  0
VERTEX
  8
1
  6
CONTINUOUS
 10
57.867791
 20
9.441240
  0
VERTEX
  8
1
  6
CONTINUOUS
 10
57.984445
 20
8.448068
  0
VERTEX
  8
1
  6
CONTINUOUS
 10
58.580348
 20
8.518060
  0
SEQEND
  8
1
  6
CONTINUOUS
  0
LINE
  8
1
  6
CONTINUOUS
 10
95.896531
 20
57.982141
 11
95.896531
 21
57.982141
  0
POLYLINE
  8
1
  6
CONTINUOUS
 66
     1
  0
VERTEX
  8
1
  6
CONTINUOUS
 10
96.420051
 20
58.238902
  0
VERTEX
  8
1
  6
CONTINUOUS
 10
95.423614
 20
58.323241
  0
VERTEX
  8
1
  6
CONTINUOUS
 10
95.373011
 20
57.725379
  0
VERTEX
  8
1
  6
CONTINUOUS
 10
96.369448
 20
57.641040
  0
VERTEX
  8
1
  6
CONTINUOUS
 10
96.420051
 20
58.238902
  0
SEQEND
  8
1
  6
CONTINUOUS
  0
LINE
  8
1
  6
CONTINUOUS
 10
43.759955
 20
42.377077
 11
43.759955
 21
42.377077
  0
POLYLINE
  8
1
  6
CONTINUOUS
 66
     1
  0
VERTEX
  8
1
  6
CONTINUOUS
 10
43.949103
 20
42.635385
  0
VERTEX
  8
1
  6
CONTINUOUS
 10
43.549467
 20
42.618314
  0
VERTEX
  8
1
  6
CONTINUOUS
 10
43.570806
 20
42.118770
  0
VERTEX
  8
1
  6
CONTINUOUS
 10
43.970442
 20
42.135841
  0
VERTEX
  8
1
  6
CONTINUOUS
 10
43.949103
 20
42.635385
  0
SEQEND
  8
1
  6
CONTINUOUS
  0
LINE
  8
1
  6
CONTINUOUS
 10
16.454166
 20
41.207951
 11
16.454166
 21
41.207951
  0
POLYLINE
  8
1
  6
CONTINUOUS
 66
     1
  0
VERTEX
  8
1
  6
CONTINUOUS
 10
16.743223
 20
41.470526
  0
VERTEX
  8
1
  6
CONTINUOUS
 10
16.143770
 20
41.444920
  0
VERTEX
  8
1
  6
CONTINUOUS
 10
16.165109
 20
40.945375
  0
VERTEX
  8
1
  6
CONTINUOUS
 10
16.764562
 20
40.970982
  0
VERTEX
  8
1
  6
CONTINUOUS
 10
16.743223
 20
41.470526
  0
SEQEND
  8
1
  6
CONTINUOUS
  0
LINE
  8
1
  6
CONTINUOUS
 10
5.554612
 20
51.252118
 11
5.554612
 21
51.252118
  0
POLYLINE
  8
1
  6
CONTINUOUS
 66
     1
  0
VERTEX
  8
1
  6
CONTINUOUS
 10
5.832034
 20
51.032945
  0
VERTEX
  8
1
  6
CONTINUOUS
 10
5.773786
 20
51.529540
  0
VERTEX
  8
1
  6
CONTINUOUS
 10
5.277190
 20
51.471291
  0
VERTEX
  8
1
  6
CONTINUOUS
 10
5.335439
 20
50.974696
  0
VERTEX
  8
1
  6
CONTINUOUS
 10
5.832034
 20
51.032945
  0
SEQEND
  8
1
  6
CONTINUOUS
  0
LINE
  8
1
  6
CONTINUOUS
 10
15.247293
 20
57.747508
 11
15.247293
 21
57.747508
  0
POLYLINE
  8
1
  6
CONTINUOUS
 66
     1
  0
VERTEX
  8
1
  6
CONTINUOUS
 10
15.536350
 20
58.010084
  0
VERTEX
  8
1
  6
CONTINUOUS
 10
14.936897
 20
57.984477
  0
VERTEX
  8
1
  6
CONTINUOUS
 10
14.958236
 20
57.484933
  0
VERTEX
  8
1
  6
CONTINUOUS
 10
15.557689
 20
57.510539
  0
VERTEX
  8
1
  6
CONTINUOUS
 10
15.536350
 20
58.010084
  0
SEQEND
  8
1
  6
CONTINUOUS
  0
LINE
  8
1
  6
CONTINUOUS
 10
34.981345
 20
42.002144
 11
34.981345
 21
42.002144
  0
POLYLINE
  8
1
  6
CONTINUOUS
 66
     1
  0
VERTEX
  8
1
  6
CONTINUOUS
 10
35.270402
 20
42.264719
  0
VERTEX
  8
1
  6
CONTINUOUS
 10
34.670949
 20
42.239112
  0
VERTEX
  8
1
  6
CONTINUOUS
 10
34.692288
 20
41.739568
  0
VERTEX
  8
1
  6
CONTINUOUS
 10
35.291741
 20
41.765175
  0
VERTEX
  8
1
  6
CONTINUOUS
 10
35.270402
 20
42.264719
  0
SEQEND
  8
1
  6
CONTINUOUS
  0
LINE
  8
1
  6
CONTINUOUS
 10
39.885785
 20
58.800124
 11
39.885785
 21
58.800124
  0
POLYLINE
  8
1
  6
CONTINUOUS
 66
     1
  0
VERTEX
  8
1
  6
CONTINUOUS
 10
40.174842
 20
59.062699
  0
VERTEX
  8
1
  6
CONTINUOUS
 10
39.575389
 20
59.037093
  0
VERTEX
  8
1
  6
CONTINUOUS
 10
39.596728
 20
58.537548
  0
VERTEX
  8
1
  6
CONTINUOUS
 10
40.196181
 20
58.563155
  0
VERTEX
  8
1
  6
CONTINUOUS
 10
40.174842
 20
59.062699
  0
SEQEND
  8
1
  6
CONTINUOUS
  0
LINE
  8
1
  6
CONTINUOUS
 10
64.159989
 20
60.668275
 11
64.159989
 21
60.668275
  0
POLYLINE
  8
1
  6
CONTINUOUS
 66
     1
  0
VERTEX
  8
1
  6
CONTINUOUS
 10
64.484222
 20
60.941905
  0
VERTEX
  8
1
  6
CONTINUOUS
 10
63.886360
 20
60.992508
  0
VERTEX
  8
1
  6
CONTINUOUS
 10
63.835756
 20
60.394646
  0
VERTEX
  8
1
  6
CONTINUOUS
 10
64.433619
 20
60.344042
  0
VERTEX
  8
1
  6
CONTINUOUS
 10
64.484222
 20
60.941905
  0
SEQEND
  8
1
  6
CONTINUOUS
  0
LINE
  8
1
  6
CONTINUOUS
 10
73.177748
 20
59.905035
 11
73.177748
 21
59.905035
  0
POLYLINE
  8
1
  6
CONTINUOUS
 66
     1
  0
VERTEX
  8
1
  6
CONTINUOUS
 10
73.501981
 20
60.178665
  0
VERTEX
  8
1
  6
CONTINUOUS
 10
72.904118
 20
60.229268
  0
VERTEX
  8
1
  6
CONTINUOUS
 10
72.853515
 20
59.631406
  0
VERTEX
  8
1
  6
CONTINUOUS
 10
73.451377
 20
59.580802
  0
VERTEX
  8
1
  6
CONTINUOUS
 10
73.501981
 20
60.178665
  0
SEQEND
  8
1
  6
CONTINUOUS
  0
LINE
  8
1
  6
CONTINUOUS
 10
74.466115
 20
53.625195
 11
74.466115
 21
53.625195
  0
POLYLINE
  8
1
  6
CONTINUOUS
 66
     1
  0
VERTEX
  8
1
  6
CONTINUOUS
 10
74.666115
 20
53.425195
  0
VERTEX
  8
1
  6
CONTINUOUS
 10
74.666115
 20
53.825195
  0
VERTEX
  8
1
  6
CONTINUOUS
 10
74.266115
 20
53.825195
  0
VERTEX
  8
1
  6
CONTINUOUS
 10
74.266115
 20
53.425195
  0
VERTEX
  8
1
  6
CONTINUOUS
 10
74.666115
 20
53.425195
  0
SEQEND
  8
1
  6
CONTINUOUS
  0
LINE
  8
1
  6
CONTINUOUS
 10
66.166177
 20
53.625195
 11
66.166177
 21
53.625195
  0
POLYLINE
  8
1
  6
CONTINUOUS
 66
     1
  0
VERTEX
  8
1
  6
CONTINUOUS
 10
66.366177
 20
53.425195
  0
VERTEX
  8
1
  6
CONTINUOUS
 10
66.366177
 20
53.825195
  0
VERTEX
  8
1
  6
CONTINUOUS
 10
65.966177
 20
53.825195
  0
VERTEX
  8
1
  6
CONTINUOUS
 10
65.966177
 20
53.425195
  0
VERTEX
  8
1
  6
CONTINUOUS
 10
66.366177
 20
53.425195
  0
SEQEND
  8
1
  6
CONTINUOUS
  0
LINE
  8
1
  6
CONTINUOUS
 10
84.300305
 20
53.625195
 11
84.300305
 21
53.625195
  0
POLYLINE
  8
1
  6
CONTINUOUS
 66
     1
  0
VERTEX
  8
1
  6
CONTINUOUS
 10
84.500305
 20
53.425195
  0
VERTEX
  8
1
  6
CONTINUOUS
 10
84.500305
 20
53.825195
  0
VERTEX
  8
1
  6
CONTINUOUS
 10
84.100305
 20
53.825195
  0
VERTEX
  8
1
  6
CONTINUOUS
 10
84.100305
 20
53.425195
  0
VERTEX
  8
1
  6
CONTINUOUS
 10
84.500305
 20
53.425195
  0
SEQEND
  8
1
  6
CONTINUOUS
  0
LINE
  8
1
  6
CONTINUOUS
 10
58.671271
 20
54.368745
 11
58.671271
 21
54.368745
  0
POLYLINE
  8
1
  6
CONTINUOUS
 66
     1
  0
VERTEX
  8
1
  6
CONTINUOUS
 10
58.871271
 20
53.938745
  0
VERTEX
  8
1
  6
CONTINUOUS
 10
58.871271
 20
54.798745
  0
VERTEX
  8
1
  6
CONTINUOUS
 10
58.471271
 20
54.798745
  0
VERTEX
  8
1
  6
CONTINUOUS
 10
58.471271
 20
53.938745
  0
VERTEX
  8
1
  6
CONTINUOUS
 10
58.871271
 20
53.938745
  0
SEQEND
  8
1
  6
CONTINUOUS
  0
LINE
  8
1
  6
CONTINUOUS
 10
84.600300
 20
50.215200
 11
84.600300
 21
50.215200
  0
POLYLINE
  8
1
  6
CONTINUOUS
 66
     1
  0
VERTEX
  8
1
  6
CONTINUOUS
 10
85.000300
 20
50.015200
  0
VERTEX
  8
1
  6
CONTINUOUS
 10
85.000300
 20
50.415200
  0
VERTEX
  8
1
  6
CONTINUOUS
 10
84.200300
 20
50.415200
  0
VERTEX
  8
1
  6
CONTINUOUS
 10
84.200300
 20
50.015200
  0
VERTEX
  8
1
  6
CONTINUOUS
 10
85.000300
 20
50.015200
  0
SEQEND
  8
1
  6
CONTINUOUS
  0
LINE
  8
5
  6
CONTINUOUS
 10
85.000300
 20
50.415200
 11
85.200300
 21
50.615200
  0
LINE
  8
5
  6
CONTINUOUS
 10
84.200300
 20
50.415200
 11
84.000300
 21
50.615200
  0
LINE
  8
5
  6
CONTINUOUS
 10
84.200300
 20
50.015200
 11
84.000300
 21
49.815200
  0
LINE
  8
5
  6
CONTINUOUS
 10
85.000300
 20
50.015200
 11
85.200300
 21
49.815200
  0
LINE
  8
1
  6
CONTINUOUS
 10
58.797188
 20
61.123634
 11
58.797188
 21
61.123634
  0
POLYLINE
  8
1
  6
CONTINUOUS
 66
     1
  0
VERTEX
  8
1
  6
CONTINUOUS
 10
59.121421
 20
61.397264
  0
VERTEX
  8
1
  6
CONTINUOUS
 10
58.523559
 20
61.447867
  0
VERTEX
  8
1
  6
CONTINUOUS
 10
58.472956
 20
60.850005
  0
VERTEX
  8
1
  6
CONTINUOUS
 10
59.070818
 20
60.799401
  0
VERTEX
  8
1
  6
CONTINUOUS
 10
59.121421
 20
61.397264
  0
SEQEND
  8
1
  6
CONTINUOUS
  0
LINE
  8
1
  6
CONTINUOUS
 10
88.112067
 20
14.661014
 11
88.112067
 21
14.661014
  0
POLYLINE
  8
1
  6
CONTINUOUS
 66
     1
  0
VERTEX
  8
1
  6
CONTINUOUS
 10
88.370114
 20
14.545205
  0
VERTEX
  8
1
  6
CONTINUOUS
 10
88.227876
 20
14.919061
  0
VERTEX
  8
1
  6
CONTINUOUS
 10
87.854020
 20
14.776822
  0
VERTEX
  8
1
  6
CONTINUOUS
 10
87.996258
 20
14.402967
  0
VERTEX
  8
1
  6
CONTINUOUS
 10
88.370114
 20
14.545205
  0
SEQEND
  8
1
  6
CONTINUOUS
  0
LINE
  8
1
  6
CONTINUOUS
 10
84.375687
 20
58.960807
 11
84.375687
 21
58.960807
  0
POLYLINE
  8
1
  6
CONTINUOUS
 66
     1
  0
VERTEX
  8
1
  6
CONTINUOUS
 10
84.699920
 20
59.234436
  0
VERTEX
  8
1
  6
CONTINUOUS
 10
84.102058
 20
59.285040
  0
VERTEX
  8
1
  6
CONTINUOUS
 10
84.051455
 20
58.687177
  0
VERTEX
  8
1
  6
CONTINUOUS
 10
84.649317
 20
58.636574
  0
VERTEX
  8
1
  6
CONTINUOUS
 10
84.699920
 20
59.234436
  0
SEQEND
  8
1
  6
CONTINUOUS
  0
LINE
  8
1
  6
CONTINUOUS
 10
43.770558
 20
49.928312
 11
43.770558
 21
49.928312
  0
POLYLINE
  8
1
  6
CONTINUOUS
 66
     1
  0
VERTEX
  8
1
  6
CONTINUOUS
 10
43.970558
 20
49.628312
  0
VERTEX
  8
1
  6
CONTINUOUS
 10
43.970558
 20
50.228312
  0
VERTEX
  8
1
  6
CONTINUOUS
 10
43.570558
 20
50.228312
  0
VERTEX
  8
1
  6
CONTINUOUS
 10
43.570558
 20
49.628312
  0
VERTEX
  8
1
  6
CONTINUOUS
 10
43.970558
 20
49.628312
  0
SEQEND
  8
1
  6
CONTINUOUS
  0
LINE
  8
1
  6
CONTINUOUS
 10
67.370310
 20
42.525196
 11
63.570305
 21
46.425589
  0
LINE
  8
1
  6
CONTINUOUS
 10
63.570310
 20
42.525201
 11
67.370305
 21
46.425584
  0
LINE
  8
1
  6
CONTINUOUS
 10
53.070433
 20
46.818316
 11
49.170438
 21
50.828313
  0
LINE
  8
1
  6
CONTINUOUS
 10
49.170438
 20
46.818316
 11
53.070433
 21
50.828313
  0
LINE
  8
1
  6
CONTINUOUS
 10
53.070433
 20
42.525196
 11
49.170438
 21
46.538316
  0
LINE
  8
1
  6
CONTINUOUS
 10
49.170438
 20
42.525196
 11
53.070433
 21
46.538316
  0
LINE
  8
1
  6
CONTINUOUS
 10
55.407197
 20
51.228317
 11
49.170438
 21
53.938745
  0
LINE
  8
1
  6
CONTINUOUS
 10
49.170438
 20
51.228313
 11
55.407207
 21
53.938745
  0
LINE
  8
1
  6
CONTINUOUS
 10
74.710310
 20
42.525196
 11
72.410305
 21
45.007479
  0
LINE
  8
1
  6
CONTINUOUS
 10
67.770310
 20
42.525196
 11
70.170310
 21
45.115399
  0
LINE
  8
1
  6
CONTINUOUS
 10
72.410305
 20
47.532917
 11
74.710310
 21
50.015200
  0
LINE
  8
1
  6
CONTINUOUS
 10
84.100305
 20
53.825195
 11
74.666115
 21
59.479100
  0
LINE
  8
1
  6
CONTINUOUS
 10
74.666115
 20
53.825195
 11
82.932554
 21
58.779268
  0
LINE
  8
1
  6
CONTINUOUS
 10
58.471273
 20
54.339399
 11
45.718745
 21
59.292773
  0
LINE
  8
1
  6
CONTINUOUS
 10
49.170438
 20
56.113512
 11
55.397197
 21
58.532128
  0
LINE
  8
4
  6
CONTINUOUS
 10
7.622655
 20
42.037345
 11
7.622655
 21
41.137345
  0
LINE
  8
4
  6
CONTINUOUS
 10
7.555155
 20
41.137345
 11
7.690155
 21
41.137345
  0
LINE
  8
4
  6
CONTINUOUS
 10
7.555155
 20
41.137345
 11
7.622655
 21
40.237345
  0
LINE
  8
4
  6
CONTINUOUS
 10
7.690155
 20
41.137345
 11
7.622655
 21
40.237345
  0
LINE
  8
4
  6
CONTINUOUS
 10
7.487655
 20
41.332346
 11
7.757655
 21
41.332346
  0
LINE
  8
4
  6
CONTINUOUS
 10
7.487655
 20
41.482345
 11
7.757655
 21
41.482345
  0
LINE
  8
4
  6
CONTINUOUS
 10
7.622655
 20
56.188462
 11
7.622655
 21
57.388462
  0
LINE
  8
4
  6
CONTINUOUS
 10
7.742655
 20
57.388462
 11
7.502655
 21
57.388462
  0
LINE
  8
4
  6
CONTINUOUS
 10
7.742655
 20
57.364462
 11
7.502655
 21
57.364462
  0
LINE
  8
4
  6
CONTINUOUS
 10
7.742655
 20
57.340462
 11
7.502655
 21
57.340462
  0
POLYLINE
  8
4
  6
CONTINUOUS
 66
     1
  0
VERTEX
  8
4
  6
CONTINUOUS
 10
7.622655
 20
56.188462
  0
VERTEX
  8
4
  6
CONTINUOUS
 10
7.622655
 20
42.037345
  0
SEQEND
  8
4
  6
CONTINUOUS
  0
LINE
  8
4
  6
CONTINUOUS
 10
8.942655
 20
42.037345
 11
8.942655
 21
41.137345
  0
LINE
  8
4
  6
CONTINUOUS
 10
8.875155
 20
41.137345
 11
9.010155
 21
41.137345
  0
LINE
  8
4
  6
CONTINUOUS
 10
8.875155
 20
41.137345
 11
8.942655
 21
40.237345
  0
LINE
  8
4
  6
CONTINUOUS
 10
9.010155
 20
41.137345
 11
8.942655
 21
40.237345
  0
LINE
  8
4
  6
CONTINUOUS
 10
8.807655
 20
41.332346
 11
9.077655
 21
41.332346
  0
LINE
  8
4
  6
CONTINUOUS
 10
8.807655
 20
41.482345
 11
9.077655
 21
41.482345
  0
LINE
  8
4
  6
CONTINUOUS
 10
8.942655
 20
56.188462
 11
8.942655
 21
57.388462
  0
LINE
  8
4
  6
CONTINUOUS
 10
9.062655
 20
57.388462
 11
8.822655
 21
57.388462
  0
LINE
  8
4
  6
CONTINUOUS
 10
9.062655
 20
57.364462
 11
8.822655
 21
57.364462
  0
LINE
  8
4
  6
CONTINUOUS
 10
9.062655
 20
57.340462
 11
8.822655
 21
57.340462
  0
POLYLINE
  8
4
  6
CONTINUOUS
 66
     1
  0
VERTEX
  8
4
  6
CONTINUOUS
 10
8.942655
 20
56.188462
  0
VERTEX
  8
4
  6
CONTINUOUS
 10
8.942655
 20
42.037345
  0
SEQEND
  8
4
  6
CONTINUOUS
  0
LINE
  8
4
  6
CONTINUOUS
 10
10.262655
 20
42.037345
 11
10.262655
 21
41.137345
  0
LINE
  8
4
  6
CONTINUOUS
 10
10.195155
 20
41.137345
 11
10.330155
 21
41.137345
  0
LINE
  8
4
  6
CONTINUOUS
 10
10.195155
 20
41.137345
 11
10.262655
 21
40.237345
  0
LINE
  8
4
  6
CONTINUOUS
 10
10.330155
 20
41.137345
 11
10.262655
 21
40.237345
  0
LINE
  8
4
  6
CONTINUOUS
 10
10.127655
 20
41.332346
 11
10.397655
 21
41.332346
  0
LINE
  8
4
  6
CONTINUOUS
 10
10.127655
 20
41.482345
 11
10.397655
 21
41.482345
  0
LINE
  8
4
  6
CONTINUOUS
 10
10.262655
 20
56.188462
 11
10.262655
 21
57.388462
  0
LINE
  8
4
  6
CONTINUOUS
 10
10.382655
 20
57.388462
 11
10.142655
 21
57.388462
  0
LINE
  8
4
  6
CONTINUOUS
 10
10.382655
 20
57.364462
 11
10.142655
 21
57.364462
  0
LINE
  8
4
  6
CONTINUOUS
 10
10.382655
 20
57.340462
 11
10.142655
 21
57.340462
  0
POLYLINE
  8
4
  6
CONTINUOUS
 66
     1
  0
VERTEX
  8
4
  6
CONTINUOUS
 10
10.262655
 20
56.188462
  0
VERTEX
  8
4
  6
CONTINUOUS
 10
10.262655
 20
42.037345
  0
SEQEND
  8
4
  6
CONTINUOUS
  0
LINE
  8
4
  6
CONTINUOUS
 10
11.622655
 20
42.308185
 11
11.622655
 21
41.108185
  0
LINE
  8
4
  6
CONTINUOUS
 10
11.502655
 20
41.108185
 11
11.742655
 21
41.108185
  0
LINE
  8
4
  6
CONTINUOUS
 10
11.502655
 20
41.132185
 11
11.742655
 21
41.132185
  0
LINE
  8
4
  6
CONTINUOUS
 10
11.502655
 20
41.156185
 11
11.742655
 21
41.156185
  0
LINE
  8
4
  6
CONTINUOUS
 10
11.622655
 20
56.359305
 11
11.622655
 21
57.259305
  0
LINE
  8
4
  6
CONTINUOUS
 10
11.690155
 20
57.259305
 11
11.555155
 21
57.259305
  0
LINE
  8
4
  6
CONTINUOUS
 10
11.690155
 20
57.259305
 11
11.622655
 21
58.159305
  0
LINE
  8
4
  6
CONTINUOUS
 10
11.555155
 20
57.259305
 11
11.622655
 21
58.159305
  0
LINE
  8
4
  6
CONTINUOUS
 10
11.757655
 20
57.079305
 11
11.487655
 21
57.079305
  0
LINE
  8
4
  6
CONTINUOUS
 10
11.757655
 20
56.966805
 11
11.487655
 21
56.966805
  0
LINE
  8
4
  6
CONTINUOUS
 10
11.757655
 20
56.854305
 11
11.487655
 21
56.854305
  0
POLYLINE
  8
4
  6
CONTINUOUS
 66
     1
  0
VERTEX
  8
4
  6
CONTINUOUS
 10
11.622655
 20
42.308185
  0
VERTEX
  8
4
  6
CONTINUOUS
 10
11.622655
 20
56.359305
  0
SEQEND
  8
4
  6
CONTINUOUS
  0
LINE
  8
4
  6
CONTINUOUS
 10
12.942655
 20
42.308185
 11
12.942655
 21
41.108185
  0
LINE
  8
4
  6
CONTINUOUS
 10
12.822655
 20
41.108185
 11
13.062655
 21
41.108185
  0
LINE
  8
4
  6
CONTINUOUS
 10
12.822655
 20
41.132185
 11
13.062655
 21
41.132185
  0
LINE
  8
4
  6
CONTINUOUS
 10
12.822655
 20
41.156185
 11
13.062655
 21
41.156185
  0
LINE
  8
4
  6
CONTINUOUS
 10
12.942655
 20
56.359305
 11
12.942655
 21
57.259305
  0
LINE
  8
4
  6
CONTINUOUS
 10
13.010155
 20
57.259305
 11
12.875155
 21
57.259305
  0
LINE
  8
4
  6
CONTINUOUS
 10
13.010155
 20
57.259305
 11
12.942655
 21
58.159305
  0
LINE
  8
4
  6
CONTINUOUS
 10
12.875155
 20
57.259305
 11
12.942655
 21
58.159305
  0
LINE
  8
4
  6
CONTINUOUS
 10
13.077655
 20
57.079305
 11
12.807655
 21
57.079305
  0
LINE
  8
4
  6
CONTINUOUS
 10
13.077655
 20
56.966805
 11
12.807655
 21
56.966805
  0
LINE
  8
4
  6
CONTINUOUS
 10
13.077655
 20
56.854305
 11
12.807655
 21
56.854305
  0
POLYLINE
  8
4
  6
CONTINUOUS
 66
     1
  0
VERTEX
  8
4
  6
CONTINUOUS
 10
12.942655
 20
42.308185
  0
VERTEX
  8
4
  6
CONTINUOUS
 10
12.942655
 20
56.359305
  0
SEQEND
  8
4
  6
CONTINUOUS
  0
LINE
  8
4
  6
CONTINUOUS
 10
14.262655
 20
42.308185
 11
14.262655
 21
41.108185
  0
LINE
  8
4
  6
CONTINUOUS
 10
14.142655
 20
41.108185
 11
14.382655
 21
41.108185
  0
LINE
  8
4
  6
CONTINUOUS
 10
14.142655
 20
41.132185
 11
14.382655
 21
41.132185
  0
LINE
  8
4
  6
CONTINUOUS
 10
14.142655
 20
41.156185
 11
14.382655
 21
41.156185
  0
LINE
  8
4
  6
CONTINUOUS
 10
14.262655
 20
56.359305
 11
14.262655
 21
57.259305
  0
LINE
  8
4
  6
CONTINUOUS
 10
14.330155
 20
57.259305
 11
14.195155
 21
57.259305
  0
LINE
  8
4
  6
CONTINUOUS
 10
14.330155
 20
57.259305
 11
14.262655
 21
58.159305
  0
LINE
  8
4
  6
CONTINUOUS
 10
14.195155
 20
57.259305
 11
14.262655
 21
58.159305
  0
LINE
  8
4
  6
CONTINUOUS
 10
14.397655
 20
57.079305
 11
14.127655
 21
57.079305
  0
LINE
  8
4
  6
CONTINUOUS
 10
14.397655
 20
56.966805
 11
14.127655
 21
56.966805
  0
LINE
  8
4
  6
CONTINUOUS
 10
14.397655
 20
56.854305
 11
14.127655
 21
56.854305
  0
POLYLINE
  8
4
  6
CONTINUOUS
 66
     1
  0
VERTEX
  8
4
  6
CONTINUOUS
 10
14.262655
 20
42.308185
  0
VERTEX
  8
4
  6
CONTINUOUS
 10
14.262655
 20
56.359305
  0
SEQEND
  8
4
  6
CONTINUOUS
  0
LINE
  8
4
  6
CONTINUOUS
 10
15.622655
 20
42.481421
 11
15.622655
 21
41.581421
  0
LINE
  8
4
  6
CONTINUOUS
 10
15.487655
 20
42.031421
 11
15.757655
 21
42.031421
  0
LINE
  8
4
  6
CONTINUOUS
 10
15.487655
 20
41.941421
 11
15.757655
 21
41.941421
  0
LINE
  8
4
  6
CONTINUOUS
 10
15.487655
 20
41.851421
 11
15.757655
 21
41.851421
  0
LINE
  8
4
  6
CONTINUOUS
 10
15.487655
 20
41.761421
 11
15.757655
 21
41.761421
  0
LINE
  8
4
  6
CONTINUOUS
 10
15.555155
 20
41.581421
 11
15.690155
 21
41.581421
  0
LINE
  8
4
  6
CONTINUOUS
 10
15.555155
 20
41.581421
 11
15.622655
 21
40.681421
  0
LINE
  8
4
  6
CONTINUOUS
 10
15.690155
 20
41.581421
 11
15.622655
 21
40.681421
  0
LINE
  8
4
  6
CONTINUOUS
 10
15.622655
 20
56.530037
 11
15.622655
 21
57.730037
  0
LINE
  8
4
  6
CONTINUOUS
 10
15.742655
 20
57.730037
 11
15.502655
 21
57.730037
  0
LINE
  8
4
  6
CONTINUOUS
 10
15.742655
 20
57.706037
 11
15.502655
 21
57.706037
  0
LINE
  8
4
  6
CONTINUOUS
 10
15.742655
 20
57.682037
 11
15.502655
 21
57.682037
  0
POLYLINE
  8
4
  6
CONTINUOUS
 66
     1
  0
VERTEX
  8
4
  6
CONTINUOUS
 10
15.622655
 20
56.530037
  0
VERTEX
  8
4
  6
CONTINUOUS
 10
15.622655
 20
42.481421
  0
SEQEND
  8
4
  6
CONTINUOUS
  0
LINE
  8
4
  6
CONTINUOUS
 10
16.942655
 20
42.481421
 11
16.942655
 21
41.581421
  0
LINE
  8
4
  6
CONTINUOUS
 10
16.807655
 20
42.031421
 11
17.077655
 21
42.031421
  0
LINE
  8
4
  6
CONTINUOUS
 10
16.807655
 20
41.941421
 11
17.077655
 21
41.941421
  0
LINE
  8
4
  6
CONTINUOUS
 10
16.807655
 20
41.851421
 11
17.077655
 21
41.851421
  0
LINE
  8
4
  6
CONTINUOUS
 10
16.807655
 20
41.761421
 11
17.077655
 21
41.761421
  0
LINE
  8
4
  6
CONTINUOUS
 10
16.875155
 20
41.581421
 11
17.010155
 21
41.581421
  0
LINE
  8
4
  6
CONTINUOUS
 10
16.875155
 20
41.581421
 11
16.942655
 21
40.681421
  0
LINE
  8
4
  6
CONTINUOUS
 10
17.010155
 20
41.581421
 11
16.942655
 21
40.681421
  0
LINE
  8
4
  6
CONTINUOUS
 10
16.942655
 20
56.530037
 11
16.942655
 21
57.730037
  0
LINE
  8
4
  6
CONTINUOUS
 10
17.062655
 20
57.730037
 11
16.822655
 21
57.730037
  0
LINE
  8
4
  6
CONTINUOUS
 10
17.062655
 20
57.706037
 11
16.822655
 21
57.706037
  0
LINE
  8
4
  6
CONTINUOUS
 10
17.062655
 20
57.682037
 11
16.822655
 21
57.682037
  0
POLYLINE
  8
4
  6
CONTINUOUS
 66
     1
  0
VERTEX
  8
4
  6
CONTINUOUS
 10
16.942655
 20
56.530037
  0
VERTEX
  8
4
  6
CONTINUOUS
 10
16.942655
 20
42.481421
  0
SEQEND
  8
4
  6
CONTINUOUS
  0
LINE
  8
4
  6
CONTINUOUS
 10
18.262655
 20
42.481421
 11
18.262655
 21
41.581421
  0
LINE
  8
4
  6
CONTINUOUS
 10
18.127655
 20
42.031421
 11
18.397655
 21
42.031421
  0
LINE
  8
4
  6
CONTINUOUS
 10
18.127655
 20
41.941421
 11
18.397655
 21
41.941421
  0
LINE
  8
4
  6
CONTINUOUS
 10
18.127655
 20
41.851421
 11
18.397655
 21
41.851421
  0
LINE
  8
4
  6
CONTINUOUS
 10
18.127655
 20
41.761421
 11
18.397655
 21
41.761421
  0
LINE
  8
4
  6
CONTINUOUS
 10
18.195155
 20
41.581421
 11
18.330155
 21
41.581421
  0
LINE
  8
4
  6
CONTINUOUS
 10
18.195155
 20
41.581421
 11
18.262655
 21
40.681421
  0
LINE
  8
4
  6
CONTINUOUS
 10
18.330155
 20
41.581421
 11
18.262655
 21
40.681421
  0
LINE
  8
4
  6
CONTINUOUS
 10
18.262655
 20
56.530037
 11
18.262655
 21
57.730037
  0
LINE
  8
4
  6
CONTINUOUS
 10
18.382655
 20
57.730037
 11
18.142655
 21
57.730037
  0
LINE
  8
4
  6
CONTINUOUS
 10
18.382655
 20
57.706037
 11
18.142655
 21
57.706037
  0
LINE
  8
4
  6
CONTINUOUS
 10
18.382655
 20
57.682037
 11
18.142655
 21
57.682037
  0
POLYLINE
  8
4
  6
CONTINUOUS
 66
     1
  0
VERTEX
  8
4
  6
CONTINUOUS
 10
18.262655
 20
56.530037
  0
VERTEX
  8
4
  6
CONTINUOUS
 10
18.262655
 20
42.481421
  0
SEQEND
  8
4
  6
CONTINUOUS
  0
LINE
  8
4
  6
CONTINUOUS
 10
19.622655
 20
42.649509
 11
19.622655
 21
41.449509
  0
LINE
  8
4
  6
CONTINUOUS
 10
19.502655
 20
41.449509
 11
19.742655
 21
41.449509
  0
LINE
  8
4
  6
CONTINUOUS
 10
19.502655
 20
41.473509
 11
19.742655
 21
41.473509
  0
LINE
  8
4
  6
CONTINUOUS
 10
19.502655
 20
41.497509
 11
19.742655
 21
41.497509
  0
LINE
  8
4
  6
CONTINUOUS
 10
19.622655
 20
56.701051
 11
19.622655
 21
57.601051
  0
LINE
  8
4
  6
CONTINUOUS
 10
19.757655
 20
57.151051
 11
19.487655
 21
57.151051
  0
LINE
  8
4
  6
CONTINUOUS
 10
19.757655
 20
57.241051
 11
19.487655
 21
57.241051
  0
LINE
  8
4
  6
CONTINUOUS
 10
19.757655
 20
57.331051
 11
19.487655
 21
57.331051
  0
LINE
  8
4
  6
CONTINUOUS
 10
19.757655
 20
57.421051
 11
19.487655
 21
57.421051
  0
LINE
  8
4
  6
CONTINUOUS
 10
19.690155
 20
57.601051
 11
19.555155
 21
57.601051
  0
LINE
  8
4
  6
CONTINUOUS
 10
19.690155
 20
57.601051
 11
19.622655
 21
58.501051
  0
LINE
  8
4
  6
CONTINUOUS
 10
19.555155
 20
57.601051
 11
19.622655
 21
58.501051
  0
POLYLINE
  8
4
  6
CONTINUOUS
 66
     1
  0
VERTEX
  8
4
  6
CONTINUOUS
 10
19.622655
 20
42.649509
  0
VERTEX
  8
4
  6
CONTINUOUS
 10
19.622655
 20
56.701051
  0
SEQEND
  8
4
  6
CONTINUOUS
  0
LINE
  8
4
  6
CONTINUOUS
 10
20.942655
 20
42.649509
 11
20.942655
 21
41.449509
  0
LINE
  8
4
  6
CONTINUOUS
 10
20.822655
 20
41.449509
 11
21.062655
 21
41.449509
  0
LINE
  8
4
  6
CONTINUOUS
 10
20.822655
 20
41.473509
 11
21.062655
 21
41.473509
  0
LINE
  8
4
  6
CONTINUOUS
 10
20.822655
 20
41.497509
 11
21.062655
 21
41.497509
  0
LINE
  8
4
  6
CONTINUOUS
 10
20.942655
 20
56.701051
 11
20.942655
 21
57.601051
  0
LINE
  8
4
  6
CONTINUOUS
 10
21.077655
 20
57.151051
 11
20.807655
 21
57.151051
  0
LINE
  8
4
  6
CONTINUOUS
 10
21.077655
 20
57.241051
 11
20.807655
 21
57.241051
  0
LINE
  8
4
  6
CONTINUOUS
 10
21.077655
 20
57.331051
 11
20.807655
 21
57.331051
  0
LINE
  8
4
  6
CONTINUOUS
 10
21.077655
 20
57.421051
 11
20.807655
 21
57.421051
  0
LINE
  8
4
  6
CONTINUOUS
 10
21.010155
 20
57.601051
 11
20.875155
 21
57.601051
  0
LINE
  8
4
  6
CONTINUOUS
 10
21.010155
 20
57.601051
 11
20.942655
 21
58.501051
  0
LINE
  8
4
  6
CONTINUOUS
 10
20.875155
 20
57.601051
 11
20.942655
 21
58.501051
  0
POLYLINE
  8
4
  6
CONTINUOUS
 66
     1
  0
VERTEX
  8
4
  6
CONTINUOUS
 10
20.942655
 20
42.649509
  0
VERTEX
  8
4
  6
CONTINUOUS
 10
20.942655
 20
56.701051
  0
SEQEND
  8
4
  6
CONTINUOUS
  0
LINE
  8
4
  6
CONTINUOUS
 10
22.262655
 20
42.649509
 11
22.262655
 21
41.449509
  0
LINE
  8
4
  6
CONTINUOUS
 10
22.142655
 20
41.449509
 11
22.382655
 21
41.449509
  0
LINE
  8
4
  6
CONTINUOUS
 10
22.142655
 20
41.473509
 11
22.382655
 21
41.473509
  0
LINE
  8
4
  6
CONTINUOUS
 10
22.142655
 20
41.497509
 11
22.382655
 21
41.497509
  0
LINE
  8
4
  6
CONTINUOUS
 10
22.262655
 20
56.701051
 11
22.262655
 21
57.601051
  0
LINE
  8
4
  6
CONTINUOUS
 10
22.397655
 20
57.151051
 11
22.127655
 21
57.151051
  0
LINE
  8
4
  6
CONTINUOUS
 10
22.397655
 20
57.241051
 11
22.127655
 21
57.241051
  0
LINE
  8
4
  6
CONTINUOUS
 10
22.397655
 20
57.331051
 11
22.127655
 21
57.331051
  0
LINE
  8
4
  6
CONTINUOUS
 10
22.397655
 20
57.421051
 11
22.127655
 21
57.421051
  0
LINE
  8
4
  6
CONTINUOUS
 10
22.330155
 20
57.601051
 11
22.195155
 21
57.601051
  0
LINE
  8
4
  6
CONTINUOUS
 10
22.330155
 20
57.601051
 11
22.262655
 21
58.501051
  0
LINE
  8
4
  6
CONTINUOUS
 10
22.195155
 20
57.601051
 11
22.262655
 21
58.501051
  0
POLYLINE
  8
4
  6
CONTINUOUS
 66
     1
  0
VERTEX
  8
4
  6
CONTINUOUS
 10
22.262655
 20
42.649509
  0
VERTEX
  8
4
  6
CONTINUOUS
 10
22.262655
 20
56.701051
  0
SEQEND
  8
4
  6
CONTINUOUS
  0
LINE
  8
4
  6
CONTINUOUS
 10
23.622655
 20
42.820882
 11
23.622655
 21
41.920882
  0
LINE
  8
4
  6
CONTINUOUS
 10
23.487655
 20
42.370882
 11
23.757655
 21
42.370882
  0
LINE
  8
4
  6
CONTINUOUS
 10
23.487655
 20
42.280882
 11
23.757655
 21
42.280882
  0
LINE
  8
4
  6
CONTINUOUS
 10
23.487655
 20
42.190882
 11
23.757655
 21
42.190882
  0
LINE
  8
4
  6
CONTINUOUS
 10
23.487655
 20
42.100882
 11
23.757655
 21
42.100882
  0
LINE
  8
4
  6
CONTINUOUS
 10
23.555155
 20
41.920882
 11
23.690155
 21
41.920882
  0
LINE
  8
4
  6
CONTINUOUS
 10
23.555155
 20
41.920882
 11
23.622655
 21
41.020882
  0
LINE
  8
4
  6
CONTINUOUS
 10
23.690155
 20
41.920882
 11
23.622655
 21
41.020882
  0
LINE
  8
4
  6
CONTINUOUS
 10
23.622655
 20
56.859958
 11
23.622655
 21
58.059958
  0
LINE
  8
4
  6
CONTINUOUS
 10
23.742655
 20
58.059958
 11
23.502655
 21
58.059958
  0
LINE
  8
4
  6
CONTINUOUS
 10
23.742655
 20
58.035958
 11
23.502655
 21
58.035958
  0
LINE
  8
4
  6
CONTINUOUS
 10
23.742655
 20
58.011958
 11
23.502655
 21
58.011958
  0
POLYLINE
  8
4
  6
CONTINUOUS
 66
     1
  0
VERTEX
  8
4
  6
CONTINUOUS
 10
23.622655
 20
56.859958
  0
VERTEX
  8
4
  6
CONTINUOUS
 10
23.622655
 20
42.820882
  0
SEQEND
  8
4
  6
CONTINUOUS
  0
LINE
  8
4
  6
CONTINUOUS
 10
24.942655
 20
42.820882
 11
24.942655
 21
41.920882
  0
LINE
  8
4
  6
CONTINUOUS
 10
24.807655
 20
42.370882
 11
25.077655
 21
42.370882
  0
LINE
  8
4
  6
CONTINUOUS
 10
24.807655
 20
42.280882
 11
25.077655
 21
42.280882
  0
LINE
  8
4
  6
CONTINUOUS
 10
24.807655
 20
42.190882
 11
25.077655
 21
42.190882
  0
LINE
  8
4
  6
CONTINUOUS
 10
24.807655
 20
42.100882
 11
25.077655
 21
42.100882
  0
LINE
  8
4
  6
CONTINUOUS
 10
24.875155
 20
41.920882
 11
25.010155
 21
41.920882
  0
LINE
  8
4
  6
CONTINUOUS
 10
24.875155
 20
41.920882
 11
24.942655
 21
41.020882
  0
LINE
  8
4
  6
CONTINUOUS
 10
25.010155
 20
41.920882
 11
24.942655
 21
41.020882
  0
LINE
  8
4
  6
CONTINUOUS
 10
24.942655
 20
56.859958
 11
24.942655
 21
58.059958
  0
LINE
  8
4
  6
CONTINUOUS
 10
25.062655
 20
58.059958
 11
24.822655
 21
58.059958
  0
LINE
  8
4
  6
CONTINUOUS
 10
25.062655
 20
58.035958
 11
24.822655
 21
58.035958
  0
LINE
  8
4
  6
CONTINUOUS
 10
25.062655
 20
58.011958
 11
24.822655
 21
58.011958
  0
POLYLINE
  8
4
  6
CONTINUOUS
 66
     1
  0
VERTEX
  8
4
  6
CONTINUOUS
 10
24.942655
 20
56.859958
  0
VERTEX
  8
4
  6
CONTINUOUS
 10
24.942655
 20
42.820882
  0
SEQEND
  8
4
  6
CONTINUOUS
  0
LINE
  8
4
  6
CONTINUOUS
 10
26.262655
 20
42.820882
 11
26.262655
 21
41.920882
  0
LINE
  8
4
  6
CONTINUOUS
 10
26.127655
 20
42.370882
 11
26.397655
 21
42.370882
  0
LINE
  8
4
  6
CONTINUOUS
 10
26.127655
 20
42.280882
 11
26.397655
 21
42.280882
  0
LINE
  8
4
  6
CONTINUOUS
 10
26.127655
 20
42.190882
 11
26.397655
 21
42.190882
  0
LINE
  8
4
  6
CONTINUOUS
 10
26.127655
 20
42.100882
 11
26.397655
 21
42.100882
  0
LINE
  8
4
  6
CONTINUOUS
 10
26.195155
 20
41.920882
 11
26.330155
 21
41.920882
  0
LINE
  8
4
  6
CONTINUOUS
 10
26.195155
 20
41.920882
 11
26.262655
 21
41.020882
  0
LINE
  8
4
  6
CONTINUOUS
 10
26.330155
 20
41.920882
 11
26.262655
 21
41.020882
  0
LINE
  8
4
  6
CONTINUOUS
 10
26.262655
 20
56.859958
 11
26.262655
 21
58.059958
  0
LINE
  8
4
  6
CONTINUOUS
 10
26.382655
 20
58.059958
 11
26.142655
 21
58.059958
  0
LINE
  8
4
  6
CONTINUOUS
 10
26.382655
 20
58.035958
 11
26.142655
 21
58.035958
  0
LINE
  8
4
  6
CONTINUOUS
 10
26.382655
 20
58.011958
 11
26.142655
 21
58.011958
  0
POLYLINE
  8
4
  6
CONTINUOUS
 66
     1
  0
VERTEX
  8
4
  6
CONTINUOUS
 10
26.262655
 20
56.859958
  0
VERTEX
  8
4
  6
CONTINUOUS
 10
26.262655
 20
42.820882
  0
SEQEND
  8
4
  6
CONTINUOUS
  0
LINE
  8
4
  6
CONTINUOUS
 10
27.622655
 20
42.991200
 11
27.622655
 21
41.791200
  0
LINE
  8
4
  6
CONTINUOUS
 10
27.502655
 20
41.791200
 11
27.742655
 21
41.791200
  0
LINE
  8
4
  6
CONTINUOUS
 10
27.502655
 20
41.815200
 11
27.742655
 21
41.815200
  0
LINE
  8
4
  6
CONTINUOUS
 10
27.502655
 20
41.839200
 11
27.742655
 21
41.839200
  0
LINE
  8
4
  6
CONTINUOUS
 10
27.622655
 20
57.053138
 11
27.622655
 21
57.953138
  0
LINE
  8
4
  6
CONTINUOUS
 10
27.757655
 20
57.503138
 11
27.487655
 21
57.503138
  0
LINE
  8
4
  6
CONTINUOUS
 10
27.757655
 20
57.593138
 11
27.487655
 21
57.593138
  0
LINE
  8
4
  6
CONTINUOUS
 10
27.757655
 20
57.683138
 11
27.487655
 21
57.683138
  0
LINE
  8
4
  6
CONTINUOUS
 10
27.757655
 20
57.773138
 11
27.487655
 21
57.773138
  0
LINE
  8
4
  6
CONTINUOUS
 10
27.690155
 20
57.953138
 11
27.555155
 21
57.953138
  0
LINE
  8
4
  6
CONTINUOUS
 10
27.690155
 20
57.953138
 11
27.622655
 21
58.853138
  0
LINE
  8
4
  6
CONTINUOUS
 10
27.555155
 20
57.953138
 11
27.622655
 21
58.853138
  0
POLYLINE
  8
4
  6
CONTINUOUS
 66
     1
  0
VERTEX
  8
4
  6
CONTINUOUS
 10
27.622655
 20
42.991200
  0
VERTEX
  8
4
  6
CONTINUOUS
 10
27.622655
 20
57.053138
  0
SEQEND
  8
4
  6
CONTINUOUS
  0
LINE
  8
4
  6
CONTINUOUS
 10
28.942655
 20
42.991200
 11
28.942655
 21
41.791200
  0
LINE
  8
4
  6
CONTINUOUS
 10
28.822655
 20
41.791200
 11
29.062655
 21
41.791200
  0
LINE
  8
4
  6
CONTINUOUS
 10
28.822655
 20
41.815200
 11
29.062655
 21
41.815200
  0
LINE
  8
4
  6
CONTINUOUS
 10
28.822655
 20
41.839200
 11
29.062655
 21
41.839200
  0
LINE
  8
4
  6
CONTINUOUS
 10
28.942655
 20
57.053138
 11
28.942655
 21
57.953138
  0
LINE
  8
4
  6
CONTINUOUS
 10
29.077655
 20
57.503138
 11
28.807655
 21
57.503138
  0
LINE
  8
4
  6
CONTINUOUS
 10
29.077655
 20
57.593138
 11
28.807655
 21
57.593138
  0
LINE
  8
4
  6
CONTINUOUS
 10
29.077655
 20
57.683138
 11
28.807655
 21
57.683138
  0
LINE
  8
4
  6
CONTINUOUS
 10
29.077655
 20
57.773138
 11
28.807655
 21
57.773138
  0
LINE
  8
4
  6
CONTINUOUS
 10
29.010155
 20
57.953138
 11
28.875155
 21
57.953138
  0
LINE
  8
4
  6
CONTINUOUS
 10
29.010155
 20
57.953138
 11
28.942655
 21
58.853138
  0
LINE
  8
4
  6
CONTINUOUS
 10
28.875155
 20
57.953138
 11
28.942655
 21
58.853138
  0
POLYLINE
  8
4
  6
CONTINUOUS
 66
     1
  0
VERTEX
  8
4
  6
CONTINUOUS
 10
28.942655
 20
42.991200
  0
VERTEX
  8
4
  6
CONTINUOUS
 10
28.942655
 20
57.053138
  0
SEQEND
  8
4
  6
CONTINUOUS
  0
LINE
  8
4
  6
CONTINUOUS
 10
30.262655
 20
42.991200
 11
30.262655
 21
41.791200
  0
LINE
  8
4
  6
CONTINUOUS
 10
30.142655
 20
41.791200
 11
30.382655
 21
41.791200
  0
LINE
  8
4
  6
CONTINUOUS
 10
30.142655
 20
41.815200
 11
30.382655
 21
41.815200
  0
LINE
  8
4
  6
CONTINUOUS
 10
30.142655
 20
41.839200
 11
30.382655
 21
41.839200
  0
LINE
  8
4
  6
CONTINUOUS
 10
30.262655
 20
57.053138
 11
30.262655
 21
57.953138
  0
LINE
  8
4
  6
CONTINUOUS
 10
30.397655
 20
57.503138
 11
30.127655
 21
57.503138
  0
LINE
  8
4
  6
CONTINUOUS
 10
30.397655
 20
57.593138
 11
30.127655
 21
57.593138
  0
LINE
  8
4
  6
CONTINUOUS
 10
30.397655
 20
57.683138
 11
30.127655
 21
57.683138
  0
LINE
  8
4
  6
CONTINUOUS
 10
30.397655
 20
57.773138
 11
30.127655
 21
57.773138
  0
LINE
  8
4
  6
CONTINUOUS
 10
30.330155
 20
57.953138
 11
30.195155
 21
57.953138
  0
LINE
  8
4
  6
CONTINUOUS
 10
30.330155
 20
57.953138
 11
30.262655
 21
58.853138
  0
LINE
  8
4
  6
CONTINUOUS
 10
30.195155
 20
57.953138
 11
30.262655
 21
58.853138
  0
POLYLINE
  8
4
  6
CONTINUOUS
 66
     1
  0
VERTEX
  8
4
  6
CONTINUOUS
 10
30.262655
 20
42.991200
  0
VERTEX
  8
4
  6
CONTINUOUS
 10
30.262655
 20
57.053138
  0
SEQEND
  8
4
  6
CONTINUOUS
  0
LINE
  8
4
  6
CONTINUOUS
 10
31.622655
 20
43.162414
 11
31.622655
 21
42.262414
  0
LINE
  8
4
  6
CONTINUOUS
 10
31.555155
 20
42.262414
 11
31.690155
 21
42.262414
  0
LINE
  8
4
  6
CONTINUOUS
 10
31.555155
 20
42.262414
 11
31.622655
 21
41.362414
  0
LINE
  8
4
  6
CONTINUOUS
 10
31.690155
 20
42.262414
 11
31.622655
 21
41.362414
  0
LINE
  8
4
  6
CONTINUOUS
 10
31.487655
 20
42.442414
 11
31.757655
 21
42.442414
  0
LINE
  8
4
  6
CONTINUOUS
 10
31.487655
 20
42.554914
 11
31.757655
 21
42.554914
  0
LINE
  8
4
  6
CONTINUOUS
 10
31.487655
 20
42.667414
 11
31.757655
 21
42.667414
  0
LINE
  8
4
  6
CONTINUOUS
 10
31.622655
 20
57.231368
 11
31.622655
 21
58.431368
  0
LINE
  8
4
  6
CONTINUOUS
 10
31.742655
 20
58.431368
 11
31.502655
 21
58.431368
  0
LINE
  8
4
  6
CONTINUOUS
 10
31.742655
 20
58.407368
 11
31.502655
 21
58.407368
  0
LINE
  8
4
  6
CONTINUOUS
 10
31.742655
 20
58.383368
 11
31.502655
 21
58.383368
  0
POLYLINE
  8
4
  6
CONTINUOUS
 66
     1
  0
VERTEX
  8
4
  6
CONTINUOUS
 10
31.622655
 20
57.231368
  0
VERTEX
  8
4
  6
CONTINUOUS
 10
31.622655
 20
43.162414
  0
SEQEND
  8
4
  6
CONTINUOUS
  0
LINE
  8
4
  6
CONTINUOUS
 10
32.942655
 20
43.162414
 11
32.942655
 21
42.262414
  0
LINE
  8
4
  6
CONTINUOUS
 10
32.875155
 20
42.262414
 11
33.010155
 21
42.262414
  0
LINE
  8
4
  6
CONTINUOUS
 10
32.875155
 20
42.262414
 11
32.942655
 21
41.362414
  0
LINE
  8
4
  6
CONTINUOUS
 10
33.010155
 20
42.262414
 11
32.942655
 21
41.362414
  0
LINE
  8
4
  6
CONTINUOUS
 10
32.807655
 20
42.442414
 11
33.077655
 21
42.442414
  0
LINE
  8
4
  6
CONTINUOUS
 10
32.807655
 20
42.554914
 11
33.077655
 21
42.554914
  0
LINE
  8
4
  6
CONTINUOUS
 10
32.807655
 20
42.667414
 11
33.077655
 21
42.667414
  0
LINE
  8
4
  6
CONTINUOUS
 10
32.942655
 20
57.231368
 11
32.942655
 21
58.431368
  0
LINE
  8
4
  6
CONTINUOUS
 10
33.062655
 20
58.431368
 11
32.822655
 21
58.431368
  0
LINE
  8
4
  6
CONTINUOUS
 10
33.062655
 20
58.407368
 11
32.822655
 21
58.407368
  0
LINE
  8
4
  6
CONTINUOUS
 10
33.062655
 20
58.383368
 11
32.822655
 21
58.383368
  0
POLYLINE
  8
4
  6
CONTINUOUS
 66
     1
  0
VERTEX
  8
4
  6
CONTINUOUS
 10
32.942655
 20
57.231368
  0
VERTEX
  8
4
  6
CONTINUOUS
 10
32.942655
 20
43.162414
  0
SEQEND
  8
4
  6
CONTINUOUS
  0
LINE
  8
4
  6
CONTINUOUS
 10
34.262655
 20
43.162414
 11
34.262655
 21
42.262414
  0
LINE
  8
4
  6
CONTINUOUS
 10
34.195155
 20
42.262414
 11
34.330155
 21
42.262414
  0
LINE
  8
4
  6
CONTINUOUS
 10
34.195155
 20
42.262414
 11
34.262655
 21
41.362414
  0
LINE
  8
4
  6
CONTINUOUS
 10
34.330155
 20
42.262414
 11
34.262655
 21
41.362414
  0
LINE
  8
4
  6
CONTINUOUS
 10
34.127655
 20
42.442414
 11
34.397655
 21
42.442414
  0
LINE
  8
4
  6
CONTINUOUS
 10
34.127655
 20
42.554914
 11
34.397655
 21
42.554914
  0
LINE
  8
4
  6
CONTINUOUS
 10
34.127655
 20
42.667414
 11
34.397655
 21
42.667414
  0
LINE
  8
4
  6
CONTINUOUS
 10
34.262655
 20
57.231368
 11
34.262655
 21
58.431368
  0
LINE
  8
4
  6
CONTINUOUS
 10
34.382655
 20
58.431368
 11
34.142655
 21
58.431368
  0
LINE
  8
4
  6
CONTINUOUS
 10
34.382655
 20
58.407368
 11
34.142655
 21
58.407368
  0
LINE
  8
4
  6
CONTINUOUS
 10
34.382655
 20
58.383368
 11
34.142655
 21
58.383368
  0
POLYLINE
  8
4
  6
CONTINUOUS
 66
     1
  0
VERTEX
  8
4
  6
CONTINUOUS
 10
34.262655
 20
57.231368
  0
VERTEX
  8
4
  6
CONTINUOUS
 10
34.262655
 20
43.162414
  0
SEQEND
  8
4
  6
CONTINUOUS
  0
LINE
  8
4
  6
CONTINUOUS
 10
35.622655
 20
43.332899
 11
35.622655
 21
42.132899
  0
LINE
  8
4
  6
CONTINUOUS
 10
35.502655
 20
42.132899
 11
35.742655
 21
42.132899
  0
LINE
  8
4
  6
CONTINUOUS
 10
35.502655
 20
42.156899
 11
35.742655
 21
42.156899
  0
LINE
  8
4
  6
CONTINUOUS
 10
35.502655
 20
42.180899
 11
35.742655
 21
42.180899
  0
LINE
  8
4
  6
CONTINUOUS
 10
35.622655
 20
57.412586
 11
35.622655
 21
58.312586
  0
LINE
  8
4
  6
CONTINUOUS
 10
35.690155
 20
58.312586
 11
35.555155
 21
58.312586
  0
LINE
  8
4
  6
CONTINUOUS
 10
35.690155
 20
58.312586
 11
35.622655
 21
59.212586
  0
LINE
  8
4
  6
CONTINUOUS
 10
35.555155
 20
58.312586
 11
35.622655
 21
59.212586
  0
LINE
  8
4
  6
CONTINUOUS
 10
35.757655
 20
58.117585
 11
35.487655
 21
58.117585
  0
LINE
  8
4
  6
CONTINUOUS
 10
35.757655
 20
57.967585
 11
35.487655
 21
57.967585
  0
POLYLINE
  8
4
  6
CONTINUOUS
 66
     1
  0
VERTEX
  8
4
  6
CONTINUOUS
 10
35.622655
 20
43.332899
  0
VERTEX
  8
4
  6
CONTINUOUS
 10
35.622655
 20
57.412586
  0
SEQEND
  8
4
  6
CONTINUOUS
  0
LINE
  8
4
  6
CONTINUOUS
 10
36.942655
 20
43.332899
 11
36.942655
 21
42.132899
  0
LINE
  8
4
  6
CONTINUOUS
 10
36.822655
 20
42.132899
 11
37.062655
 21
42.132899
  0
LINE
  8
4
  6
CONTINUOUS
 10
36.822655
 20
42.156899
 11
37.062655
 21
42.156899
  0
LINE
  8
4
  6
CONTINUOUS
 10
36.822655
 20
42.180899
 11
37.062655
 21
42.180899
  0
LINE
  8
4
  6
CONTINUOUS
 10
36.942655
 20
57.412586
 11
36.942655
 21
58.312586
  0
LINE
  8
4
  6
CONTINUOUS
 10
37.010155
 20
58.312586
 11
36.875155
 21
58.312586
  0
LINE
  8
4
  6
CONTINUOUS
 10
37.010155
 20
58.312586
 11
36.942655
 21
59.212586
  0
LINE
  8
4
  6
CONTINUOUS
 10
36.875155
 20
58.312586
 11
36.942655
 21
59.212586
  0
LINE
  8
4
  6
CONTINUOUS
 10
37.077655
 20
58.117585
 11
36.807655
 21
58.117585
  0
LINE
  8
4
  6
CONTINUOUS
 10
37.077655
 20
57.967585
 11
36.807655
 21
57.967585
  0
POLYLINE
  8
4
  6
CONTINUOUS
 66
     1
  0
VERTEX
  8
4
  6
CONTINUOUS
 10
36.942655
 20
43.332899
  0
VERTEX
  8
4
  6
CONTINUOUS
 10
36.942655
 20
57.412586
  0
SEQEND
  8
4
  6
CONTINUOUS
  0
LINE
  8
4
  6
CONTINUOUS
 10
38.262655
 20
43.332899
 11
38.262655
 21
42.132899
  0
LINE
  8
4
  6
CONTINUOUS
 10
38.142655
 20
42.132899
 11
38.382655
 21
42.132899
  0
LINE
  8
4
  6
CONTINUOUS
 10
38.142655
 20
42.156899
 11
38.382655
 21
42.156899
  0
LINE
  8
4
  6
CONTINUOUS
 10
38.142655
 20
42.180899
 11
38.382655
 21
42.180899
  0
LINE
  8
4
  6
CONTINUOUS
 10
38.262655
 20
57.412586
 11
38.262655
 21
58.312586
  0
LINE
  8
4
  6
CONTINUOUS
 10
38.330155
 20
58.312586
 11
38.195155
 21
58.312586
  0
LINE
  8
4
  6
CONTINUOUS
 10
38.330155
 20
58.312586
 11
38.262655
 21
59.212586
  0
LINE
  8
4
  6
CONTINUOUS
 10
38.195155
 20
58.312586
 11
38.262655
 21
59.212586
  0
LINE
  8
4
  6
CONTINUOUS
 10
38.397655
 20
58.117585
 11
38.127655
 21
58.117585
  0
LINE
  8
4
  6
CONTINUOUS
 10
38.397655
 20
57.967585
 11
38.127655
 21
57.967585
  0
POLYLINE
  8
4
  6
CONTINUOUS
 66
     1
  0
VERTEX
  8
4
  6
CONTINUOUS
 10
38.262655
 20
43.332899
  0
VERTEX
  8
4
  6
CONTINUOUS
 10
38.262655
 20
57.412586
  0
SEQEND
  8
4
  6
CONTINUOUS
  0
LINE
  8
4
  6
CONTINUOUS
 10
39.877888
 20
43.517523
 11
39.877888
 21
42.617523
  0
LINE
  8
4
  6
CONTINUOUS
 10
39.810388
 20
42.617523
 11
39.945388
 21
42.617523
  0
LINE
  8
4
  6
CONTINUOUS
 10
39.810388
 20
42.617523
 11
39.877888
 21
41.717523
  0
LINE
  8
4
  6
CONTINUOUS
 10
39.945388
 20
42.617523
 11
39.877888
 21
41.717523
  0
LINE
  8
4
  6
CONTINUOUS
 10
39.742888
 20
42.812525
 11
40.012888
 21
42.812525
  0
LINE
  8
4
  6
CONTINUOUS
 10
39.742888
 20
42.962524
 11
40.012888
 21
42.962524
  0
LINE
  8
4
  6
CONTINUOUS
 10
39.877888
 20
57.562882
 11
39.877888
 21
58.762882
  0
LINE
  8
4
  6
CONTINUOUS
 10
39.997888
 20
58.762882
 11
39.757888
 21
58.762882
  0
LINE
  8
4
  6
CONTINUOUS
 10
39.997888
 20
58.738882
 11
39.757888
 21
58.738882
  0
LINE
  8
4
  6
CONTINUOUS
 10
39.997888
 20
58.714882
 11
39.757888
 21
58.714882
  0
POLYLINE
  8
4
  6
CONTINUOUS
 66
     1
  0
VERTEX
  8
4
  6
CONTINUOUS
 10
39.877888
 20
57.562882
  0
VERTEX
  8
4
  6
CONTINUOUS
 10
39.877888
 20
43.517523
  0
SEQEND
  8
4
  6
CONTINUOUS
  0
LINE
  8
4
  6
CONTINUOUS
 10
41.697888
 20
43.517523
 11
41.697888
 21
42.617523
  0
LINE
  8
4
  6
CONTINUOUS
 10
41.630388
 20
42.617523
 11
41.765388
 21
42.617523
  0
LINE
  8
4
  6
CONTINUOUS
 10
41.630388
 20
42.617523
 11
41.697888
 21
41.717523
  0
LINE
  8
4
  6
CONTINUOUS
 10
41.765388
 20
42.617523
 11
41.697888
 21
41.717523
  0
LINE
  8
4
  6
CONTINUOUS
 10
41.562888
 20
42.812525
 11
41.832888
 21
42.812525
  0
LINE
  8
4
  6
CONTINUOUS
 10
41.562888
 20
42.962524
 11
41.832888
 21
42.962524
  0
LINE
  8
4
  6
CONTINUOUS
 10
41.697888
 20
57.562882
 11
41.697888
 21
58.762882
  0
LINE
  8
4
  6
CONTINUOUS
 10
41.817888
 20
58.762882
 11
41.577888
 21
58.762882
  0
LINE
  8
4
  6
CONTINUOUS
 10
41.817888
 20
58.738882
 11
41.577888
 21
58.738882
  0
LINE
  8
4
  6
CONTINUOUS
 10
41.817888
 20
58.714882
 11
41.577888
 21
58.714882
  0
POLYLINE
  8
4
  6
CONTINUOUS
 66
     1
  0
VERTEX
  8
4
  6
CONTINUOUS
 10
41.697888
 20
57.562882
  0
VERTEX
  8
4
  6
CONTINUOUS
 10
41.697888
 20
43.517523
  0
SEQEND
  8
4
  6
CONTINUOUS
  0
LINE
  8
4
  6
CONTINUOUS
 10
43.517888
 20
43.517523
 11
43.517888
 21
42.617523
  0
LINE
  8
4
  6
CONTINUOUS
 10
43.450388
 20
42.617523
 11
43.585388
 21
42.617523
  0
LINE
  8
4
  6
CONTINUOUS
 10
43.450388
 20
42.617523
 11
43.517888
 21
41.717523
  0
LINE
  8
4
  6
CONTINUOUS
 10
43.585388
 20
42.617523
 11
43.517888
 21
41.717523
  0
LINE
  8
4
  6
CONTINUOUS
 10
43.382888
 20
42.812525
 11
43.652888
 21
42.812525
  0
LINE
  8
4
  6
CONTINUOUS
 10
43.382888
 20
42.962524
 11
43.652888
 21
42.962524
  0
LINE
  8
4
  6
CONTINUOUS
 10
43.517888
 20
57.562882
 11
43.517888
 21
58.762882
  0
LINE
  8
4
  6
CONTINUOUS
 10
43.637888
 20
58.762882
 11
43.397888
 21
58.762882
  0
LINE
  8
4
  6
CONTINUOUS
 10
43.637888
 20
58.738882
 11
43.397888
 21
58.738882
  0
LINE
  8
4
  6
CONTINUOUS
 10
43.637888
 20
58.714882
 11
43.397888
 21
58.714882
  0
POLYLINE
  8
4
  6
CONTINUOUS
 66
     1
  0
VERTEX
  8
4
  6
CONTINUOUS
 10
43.517888
 20
57.562882
  0
VERTEX
  8
4
  6
CONTINUOUS
 10
43.517888
 20
43.517523
  0
SEQEND
  8
4
  6
CONTINUOUS
  0
LINE
  8
4
  6
CONTINUOUS
 10
45.191780
 20
43.749089
 11
45.191780
 21
42.549089
  0
LINE
  8
4
  6
CONTINUOUS
 10
45.071780
 20
42.549089
 11
45.311780
 21
42.549089
  0
LINE
  8
4
  6
CONTINUOUS
 10
45.071780
 20
42.573089
 11
45.311780
 21
42.573089
  0
LINE
  8
4
  6
CONTINUOUS
 10
45.071780
 20
42.597089
 11
45.311780
 21
42.597089
  0
LINE
  8
4
  6
CONTINUOUS
 10
45.191780
 20
56.409174
 11
45.191780
 21
57.309174
  0
LINE
  8
4
  6
CONTINUOUS
 10
45.259280
 20
57.309174
 11
45.124280
 21
57.309174
  0
LINE
  8
4
  6
CONTINUOUS
 10
45.259280
 20
57.309174
 11
45.191780
 21
58.209174
  0
LINE
  8
4
  6
CONTINUOUS
 10
45.124280
 20
57.309174
 11
45.191780
 21
58.209174
  0
LINE
  8
4
  6
CONTINUOUS
 10
45.326780
 20
57.114173
 11
45.056780
 21
57.114173
  0
LINE
  8
4
  6
CONTINUOUS
 10
45.326780
 20
56.964173
 11
45.056780
 21
56.964173
  0
POLYLINE
  8
4
  6
CONTINUOUS
 66
     1
  0
VERTEX
  8
4
  6
CONTINUOUS
 10
45.191780
 20
43.749089
  0
VERTEX
  8
4
  6
CONTINUOUS
 10
45.191780
 20
56.409174
  0
SEQEND
  8
4
  6
CONTINUOUS
  0
LINE
  8
4
  6
CONTINUOUS
 10
46.611780
 20
43.749089
 11
46.611780
 21
42.549089
  0
LINE
  8
4
  6
CONTINUOUS
 10
46.491780
 20
42.549089
 11
46.731780
 21
42.549089
  0
LINE
  8
4
  6
CONTINUOUS
 10
46.491780
 20
42.573089
 11
46.731780
 21
42.573089
  0
LINE
  8
4
  6
CONTINUOUS
 10
46.491780
 20
42.597089
 11
46.731780
 21
42.597089
  0
LINE
  8
4
  6
CONTINUOUS
 10
46.611780
 20
56.409174
 11
46.611780
 21
57.309174
  0
LINE
  8
4
  6
CONTINUOUS
 10
46.679280
 20
57.309174
 11
46.544280
 21
57.309174
  0
LINE
  8
4
  6
CONTINUOUS
 10
46.679280
 20
57.309174
 11
46.611780
 21
58.209174
  0
LINE
  8
4
  6
CONTINUOUS
 10
46.544280
 20
57.309174
 11
46.611780
 21
58.209174
  0
LINE
  8
4
  6
CONTINUOUS
 10
46.746780
 20
57.114173
 11
46.476780
 21
57.114173
  0
LINE
  8
4
  6
CONTINUOUS
 10
46.746780
 20
56.964173
 11
46.476780
 21
56.964173
  0
POLYLINE
  8
4
  6
CONTINUOUS
 66
     1
  0
VERTEX
  8
4
  6
CONTINUOUS
 10
46.611780
 20
43.749089
  0
VERTEX
  8
4
  6
CONTINUOUS
 10
46.611780
 20
56.409174
  0
SEQEND
  8
4
  6
CONTINUOUS
  0
LINE
  8
4
  6
CONTINUOUS
 10
48.031780
 20
43.749089
 11
48.031780
 21
42.549089
  0
LINE
  8
4
  6
CONTINUOUS
 10
47.911780
 20
42.549089
 11
48.151780
 21
42.549089
  0
LINE
  8
4
  6
CONTINUOUS
 10
47.911780
 20
42.573089
 11
48.151780
 21
42.573089
  0
LINE
  8
4
  6
CONTINUOUS
 10
47.911780
 20
42.597089
 11
48.151780
 21
42.597089
  0
LINE
  8
4
  6
CONTINUOUS
 10
48.031780
 20
56.409174
 11
48.031780
 21
57.309174
  0
LINE
  8
4
  6
CONTINUOUS
 10
48.099280
 20
57.309174
 11
47.964280
 21
57.309174
  0
LINE
  8
4
  6
CONTINUOUS
 10
48.099280
 20
57.309174
 11
48.031780
 21
58.209174
  0
LINE
  8
4
  6
CONTINUOUS
 10
47.964280
 20
57.309174
 11
48.031780
 21
58.209174
  0
LINE
  8
4
  6
CONTINUOUS
 10
48.166780
 20
57.114173
 11
47.896780
 21
57.114173
  0
LINE
  8
4
  6
CONTINUOUS
 10
48.166780
 20
56.964173
 11
47.896780
 21
56.964173
  0
POLYLINE
  8
4
  6
CONTINUOUS
 66
     1
  0
VERTEX
  8
4
  6
CONTINUOUS
 10
48.031780
 20
43.749089
  0
VERTEX
  8
4
  6
CONTINUOUS
 10
48.031780
 20
56.409174
  0
SEQEND
  8
4
  6
CONTINUOUS
  0
LINE
  8
4
  6
CONTINUOUS
 10
59.377772
 20
7.635001
 11
58.256191
 21
7.208319
  0
LINE
  8
4
  6
CONTINUOUS
 10
58.213523
 20
7.320477
 11
58.298860
 21
7.096161
  0
LINE
  8
4
  6
CONTINUOUS
 10
58.235955
 20
7.329011
 11
58.321291
 21
7.104695
  0
LINE
  8
4
  6
CONTINUOUS
 10
58.258386
 20
7.337544
 11
58.343723
 21
7.113228
  0
LINE
  8
4
  6
CONTINUOUS
 10
89.943974
 20
19.263273
 11
90.785159
 21
19.583284
  0
LINE
  8
4
  6
CONTINUOUS
 10
90.809160
 20
19.520195
 11
90.761158
 21
19.646373
  0
LINE
  8
4
  6
CONTINUOUS
 10
90.809160
 20
19.520195
 11
91.626345
 21
19.903296
  0
LINE
  8
4
  6
CONTINUOUS
 10
90.761158
 20
19.646373
 11
91.626345
 21
19.903296
  0
LINE
  8
4
  6
CONTINUOUS
 10
90.650903
 20
19.387770
 11
90.554900
 21
19.640126
  0
LINE
  8
4
  6
CONTINUOUS
 10
90.510706
 20
19.334435
 11
90.414703
 21
19.586791
  0
POLYLINE
  8
4
  6
CONTINUOUS
 66
     1
  0
VERTEX
  8
4
  6
CONTINUOUS
 10
59.377772
 20
7.635001
  0
VERTEX
  8
4
  6
CONTINUOUS
 10
89.943974
 20
19.263273
  0
SEQEND
  8
4
  6
CONTINUOUS
  0
LINE
  8
4
  6
CONTINUOUS
 10
60.195579
 20
5.485305
 11
59.073998
 21
5.058623
  0
LINE
  8
4
  6
CONTINUOUS
 10
59.031330
 20
5.170781
 11
59.116666
 21
4.946465
  0
LINE
  8
4
  6
CONTINUOUS
 10
59.053762
 20
5.179315
 11
59.139098
 21
4.954999
  0
LINE
  8
4
  6
CONTINUOUS
 10
59.076193
 20
5.187849
 11
59.161530
 21
4.963533
  0
LINE
  8
4
  6
CONTINUOUS
 10
90.761781
 20
17.113577
 11
91.602966
 21
17.433589
  0
LINE
  8
4
  6
CONTINUOUS
 10
91.626967
 20
17.370500
 11
91.578965
 21
17.496677
  0
LINE
  8
4
  6
CONTINUOUS
 10
91.626967
 20
17.370500
 11
92.444151
 21
17.753600
  0
LINE
  8
4
  6
CONTINUOUS
 10
91.578965
 20
17.496677
 11
92.444151
 21
17.753600
  0
LINE
  8
4
  6
CONTINUOUS
 10
91.468710
 20
17.238075
 11
91.372706
 21
17.490430
  0
LINE
  8
4
  6
CONTINUOUS
 10
91.328513
 20
17.184740
 11
91.232509
 21
17.437095
  0
POLYLINE
  8
4
  6
CONTINUOUS
 66
     1
  0
VERTEX
  8
4
  6
CONTINUOUS
 10
60.195579
 20
5.485305
  0
VERTEX
  8
4
  6
CONTINUOUS
 10
90.761781
 20
17.113577
  0
SEQEND
  8
4
  6
CONTINUOUS
  0
LINE
  8
4
  6
CONTINUOUS
 10
57.443884
 20
26.767676
 11
56.252075
 21
26.627714
  0
LINE
  8
4
  6
CONTINUOUS
 10
56.238078
 20
26.746895
 11
56.266071
 21
26.508533
  0
LINE
  8
4
  6
CONTINUOUS
 10
56.261915
 20
26.749694
 11
56.289907
 21
26.511332
  0
LINE
  8
4
  6
CONTINUOUS
 10
56.285751
 20
26.752493
 11
56.313743
 21
26.514131
  0
LINE
  8
4
  6
CONTINUOUS
 10
90.045955
 20
30.596357
 11
90.939812
 21
30.701329
  0
LINE
  8
4
  6
CONTINUOUS
 10
90.947685
 20
30.634289
 11
90.931939
 21
30.768368
  0
LINE
  8
4
  6
CONTINUOUS
 10
90.947685
 20
30.634289
 11
91.833669
 21
30.806300
  0
LINE
  8
4
  6
CONTINUOUS
 10
90.931939
 20
30.768368
 11
91.833669
 21
30.806300
  0
LINE
  8
4
  6
CONTINUOUS
 10
90.761888
 20
30.544506
 11
90.730396
 21
30.812663
  0
LINE
  8
4
  6
CONTINUOUS
 10
90.612912
 20
30.527011
 11
90.581420
 21
30.795168
  0
POLYLINE
  8
4
  6
CONTINUOUS
 66
     1
  0
VERTEX
  8
4
  6
CONTINUOUS
 10
57.443884
 20
26.767676
  0
VERTEX
  8
4
  6
CONTINUOUS
 10
90.045955
 20
30.596357
  0
SEQEND
  8
4
  6
CONTINUOUS
  0
LINE
  8
4
  6
CONTINUOUS
 10
57.525529
 20
26.072454
 11
56.333719
 21
25.932491
  0
LINE
  8
4
  6
CONTINUOUS
 10
56.319723
 20
26.051672
 11
56.347716
 21
25.813310
  0
LINE
  8
4
  6
CONTINUOUS
 10
56.343559
 20
26.054472
 11
56.371552
 21
25.816110
  0
LINE
  8
4
  6
CONTINUOUS
 10
56.367396
 20
26.057271
 11
56.395388
 21
25.818909
  0
LINE
  8
4
  6
CONTINUOUS
 10
90.127599
 20
29.901135
 11
91.021457
 21
30.006106
  0
LINE
  8
4
  6
CONTINUOUS
 10
91.029330
 20
29.939067
 11
91.013584
 21
30.073146
  0
LINE
  8
4
  6
CONTINUOUS
 10
91.029330
 20
29.939067
 11
91.915314
 21
30.111078
  0
LINE
  8
4
  6
CONTINUOUS
 10
91.013584
 20
30.073146
 11
91.915314
 21
30.111078
  0
LINE
  8
4
  6
CONTINUOUS
 10
90.843532
 20
29.849284
 11
90.812041
 21
30.117441
  0
LINE
  8
4
  6
CONTINUOUS
 10
90.694557
 20
29.831788
 11
90.663065
 21
30.099946
  0
POLYLINE
  8
4
  6
CONTINUOUS
 66
     1
  0
VERTEX
  8
4
  6
CONTINUOUS
 10
57.525529
 20
26.072454
  0
VERTEX
  8
4
  6
CONTINUOUS
 10
90.127599
 20
29.901135
  0
SEQEND
  8
4
  6
CONTINUOUS
  0
LINE
  8
4
  6
CONTINUOUS
 10
57.607174
 20
25.377231
 11
56.415364
 21
25.237269
  0
LINE
  8
4
  6
CONTINUOUS
 10
56.401368
 20
25.356450
 11
56.429360
 21
25.118088
  0
LINE
  8
4
  6
CONTINUOUS
 10
56.425204
 20
25.359249
 11
56.453196
 21
25.120887
  0
LINE
  8
4
  6
CONTINUOUS
 10
56.449040
 20
25.362048
 11
56.477033
 21
25.123687
  0
LINE
  8
4
  6
CONTINUOUS
 10
90.209244
 20
29.205912
 11
91.103101
 21
29.310884
  0
LINE
  8
4
  6
CONTINUOUS
 10
91.110974
 20
29.243845
 11
91.095229
 21
29.377923
  0
LINE
  8
4
  6
CONTINUOUS
 10
91.110974
 20
29.243845
 11
91.996959
 21
29.415856
  0
LINE
  8
4
  6
CONTINUOUS
 10
91.095229
 20
29.377923
 11
91.996959
 21
29.415856
  0
LINE
  8
4
  6
CONTINUOUS
 10
90.925177
 20
29.154061
 11
90.893685
 21
29.422218
  0
LINE
  8
4
  6
CONTINUOUS
 10
90.776201
 20
29.136566
 11
90.744710
 21
29.404723
  0
POLYLINE
  8
4
  6
CONTINUOUS
 66
     1
  0
VERTEX
  8
4
  6
CONTINUOUS
 10
57.607174
 20
25.377231
  0
VERTEX
  8
4
  6
CONTINUOUS
 10
90.209244
 20
29.205912
  0
SEQEND
  8
4
  6
CONTINUOUS
  0
LINE
  8
4
  6
CONTINUOUS
 10
57.688818
 20
24.682009
 11
56.497009
 21
24.542047
  0
LINE
  8
4
  6
CONTINUOUS
 10
56.483012
 20
24.661228
 11
56.511005
 21
24.422866
  0
LINE
  8
4
  6
CONTINUOUS
 10
56.506849
 20
24.664027
 11
56.534841
 21
24.425665
  0
LINE
  8
4
  6
CONTINUOUS
 10
56.530685
 20
24.666826
 11
56.558677
 21
24.428464
  0
LINE
  8
4
  6
CONTINUOUS
 10
90.290889
 20
28.510690
 11
91.184746
 21
28.615661
  0
LINE
  8
4
  6
CONTINUOUS
 10
91.192619
 20
28.548622
 11
91.176873
 21
28.682701
  0
LINE
  8
4
  6
CONTINUOUS
 10
91.192619
 20
28.548622
 11
92.078603
 21
28.720633
  0
LINE
  8
4
  6
CONTINUOUS
 10
91.176873
 20
28.682701
 11
92.078603
 21
28.720633
  0
LINE
  8
4
  6
CONTINUOUS
 10
91.006822
 20
28.458839
 11
90.975330
 21
28.726996
  0
LINE
  8
4
  6
CONTINUOUS
 10
90.857846
 20
28.441344
 11
90.826354
 21
28.709501
  0
POLYLINE
  8
4
  6
CONTINUOUS
 66
     1
  0
VERTEX
  8
4
  6
CONTINUOUS
 10
57.688818
 20
24.682009
  0
VERTEX
  8
4
  6
CONTINUOUS
 10
90.290889
 20
28.510690
  0
SEQEND
  8
4
  6
CONTINUOUS
  0
LINE
  8
4
  6
CONTINUOUS
 10
57.770463
 20
23.986787
 11
56.578653
 21
23.846824
  0
LINE
  8
4
  6
CONTINUOUS
 10
56.564657
 20
23.966005
 11
56.592650
 21
23.727643
  0
LINE
  8
4
  6
CONTINUOUS
 10
56.588493
 20
23.968804
 11
56.616486
 21
23.730443
  0
LINE
  8
4
  6
CONTINUOUS
 10
56.612329
 20
23.971604
 11
56.640322
 21
23.733242
  0
LINE
  8
4
  6
CONTINUOUS
 10
90.372533
 20
27.815467
 11
91.266391
 21
27.920439
  0
LINE
  8
4
  6
CONTINUOUS
 10
91.274264
 20
27.853400
 11
91.258518
 21
27.987478
  0
LINE
  8
4
  6
CONTINUOUS
 10
91.274264
 20
27.853400
 11
92.160248
 21
28.025411
  0
LINE
  8
4
  6
CONTINUOUS
 10
91.258518
 20
27.987478
 11
92.160248
 21
28.025411
  0
LINE
  8
4
  6
CONTINUOUS
 10
91.088466
 20
27.763617
 11
91.056975
 21
28.031774
  0
LINE
  8
4
  6
CONTINUOUS
 10
90.939491
 20
27.746121
 11
90.907999
 21
28.014279
  0
POLYLINE
  8
4
  6
CONTINUOUS
 66
     1
  0
VERTEX
  8
4
  6
CONTINUOUS
 10
57.770463
 20
23.986787
  0
VERTEX
  8
4
  6
CONTINUOUS
 10
90.372533
 20
27.815467
  0
SEQEND
  8
4
  6
CONTINUOUS
  0
LINE
  8
4
  6
CONTINUOUS
 10
57.852108
 20
23.291564
 11
56.660298
 21
23.151602
  0
LINE
  8
4
  6
CONTINUOUS
 10
56.646302
 20
23.270783
 11
56.674294
 21
23.032421
  0
LINE
  8
4
  6
CONTINUOUS
 10
56.670138
 20
23.273582
 11
56.698130
 21
23.035220
  0
LINE
  8
4
  6
CONTINUOUS
 10
56.693974
 20
23.276381
 11
56.721967
 21
23.038019
  0
LINE
  8
4
  6
CONTINUOUS
 10
90.454178
 20
27.120245
 11
91.348035
 21
27.225217
  0
LINE
  8
4
  6
CONTINUOUS
 10
91.355908
 20
27.158177
 11
91.340163
 21
27.292256
  0
LINE
  8
4
  6
CONTINUOUS
 10
91.355908
 20
27.158177
 11
92.241893
 21
27.330188
  0
LINE
  8
4
  6
CONTINUOUS
 10
91.340163
 20
27.292256
 11
92.241893
 21
27.330188
  0
LINE
  8
4
  6
CONTINUOUS
 10
91.170111
 20
27.068394
 11
91.138619
 21
27.336551
  0
LINE
  8
4
  6
CONTINUOUS
 10
91.021135
 20
27.050899
 11
90.989644
 21
27.319056
  0
POLYLINE
  8
4
  6
CONTINUOUS
 66
     1
  0
VERTEX
  8
4
  6
CONTINUOUS
 10
57.852108
 20
23.291564
  0
VERTEX
  8
4
  6
CONTINUOUS
 10
90.454178
 20
27.120245
  0
SEQEND
  8
4
  6
CONTINUOUS
  0
LINE
  8
4
  6
CONTINUOUS
 10
57.933752
 20
22.596342
 11
56.741943
 21
22.456379
  0
LINE
  8
4
  6
CONTINUOUS
 10
56.727946
 20
22.575560
 11
56.755939
 21
22.337199
  0
LINE
  8
4
  6
CONTINUOUS
 10
56.751783
 20
22.578360
 11
56.779775
 21
22.339998
  0
LINE
  8
4
  6
CONTINUOUS
 10
56.775619
 20
22.581159
 11
56.803611
 21
22.342797
  0
LINE
  8
4
  6
CONTINUOUS
 10
90.535823
 20
26.425023
 11
91.429680
 21
26.529994
  0
LINE
  8
4
  6
CONTINUOUS
 10
91.437553
 20
26.462955
 11
91.421807
 21
26.597034
  0
LINE
  8
4
  6
CONTINUOUS
 10
91.437553
 20
26.462955
 11
92.323537
 21
26.634966
  0
LINE
  8
4
  6
CONTINUOUS
 10
91.421807
 20
26.597034
 11
92.323537
 21
26.634966
  0
LINE
  8
4
  6
CONTINUOUS
 10
91.251756
 20
26.373172
 11
91.220264
 21
26.641329
  0
LINE
  8
4
  6
CONTINUOUS
 10
91.102780
 20
26.355677
 11
91.071288
 21
26.623834
  0
POLYLINE
  8
4
  6
CONTINUOUS
 66
     1
  0
VERTEX
  8
4
  6
CONTINUOUS
 10
57.933752
 20
22.596342
  0
VERTEX
  8
4
  6
CONTINUOUS
 10
90.535823
 20
26.425023
  0
SEQEND
  8
4
  6
CONTINUOUS
  0
LINE
  8
4
  6
CONTINUOUS
 10
58.560368
 20
13.487693
 11
57.438788
 21
13.061010
  0
LINE
  8
4
  6
CONTINUOUS
 10
57.396120
 20
13.173168
 11
57.481456
 21
12.948852
  0
LINE
  8
4
  6
CONTINUOUS
 10
57.418551
 20
13.181702
 11
57.503888
 21
12.957386
  0
LINE
  8
4
  6
CONTINUOUS
 10
57.440983
 20
13.190236
 11
57.526319
 21
12.965920
  0
LINE
  8
4
  6
CONTINUOUS
 10
89.656509
 20
25.317606
 11
90.497694
 21
25.637618
  0
LINE
  8
4
  6
CONTINUOUS
 10
90.521695
 20
25.574529
 11
90.473693
 21
25.700707
  0
LINE
  8
4
  6
CONTINUOUS
 10
90.521695
 20
25.574529
 11
91.338879
 21
25.957630
  0
LINE
  8
4
  6
CONTINUOUS
 10
90.473693
 20
25.700707
 11
91.338879
 21
25.957630
  0
LINE
  8
4
  6
CONTINUOUS
 10
90.363438
 20
25.442104
 11
90.267434
 21
25.694459
  0
LINE
  8
4
  6
CONTINUOUS
 10
90.223241
 20
25.388769
 11
90.127238
 21
25.641124
  0
POLYLINE
  8
4
  6
CONTINUOUS
 66
     1
  0
VERTEX
  8
4
  6
CONTINUOUS
 10
58.560368
 20
13.487693
  0
VERTEX
  8
4
  6
CONTINUOUS
 10
89.656509
 20
25.317606
  0
SEQEND
  8
4
  6
CONTINUOUS
  0
LINE
  8
4
  6
CONTINUOUS
 10
58.965717
 20
12.422192
 11
57.844137
 21
11.995509
  0
LINE
  8
4
  6
CONTINUOUS
 10
57.801469
 20
12.107667
 11
57.886805
 21
11.883351
  0
LINE
  8
4
  6
CONTINUOUS
 10
57.823900
 20
12.116201
 11
57.909237
 21
11.891885
  0
LINE
  8
4
  6
CONTINUOUS
 10
57.846332
 20
12.124735
 11
57.931668
 21
11.900419
  0
LINE
  8
4
  6
CONTINUOUS
 10
90.061858
 20
24.252105
 11
90.903043
 21
24.572117
  0
LINE
  8
4
  6
CONTINUOUS
 10
90.927044
 20
24.509028
 11
90.879042
 21
24.635206
  0
LINE
  8
4
  6
CONTINUOUS
 10
90.927044
 20
24.509028
 11
91.744228
 21
24.892129
  0
LINE
  8
4
  6
CONTINUOUS
 10
90.879042
 20
24.635206
 11
91.744228
 21
24.892129
  0
LINE
  8
4
  6
CONTINUOUS
 10
90.768787
 20
24.376603
 11
90.672783
 21
24.628958
  0
LINE
  8
4
  6
CONTINUOUS
 10
90.628590
 20
24.323268
 11
90.532586
 21
24.575623
  0
POLYLINE
  8
4
  6
CONTINUOUS
 66
     1
  0
VERTEX
  8
4
  6
CONTINUOUS
 10
58.965717
 20
12.422192
  0
VERTEX
  8
4
  6
CONTINUOUS
 10
90.061858
 20
24.252105
  0
SEQEND
  8
4
  6
CONTINUOUS
  0
LINE
  8
4
  6
CONTINUOUS
 10
59.371066
 20
11.356691
 11
58.249486
 21
10.930008
  0
LINE
  8
4
  6
CONTINUOUS
 10
58.206817
 20
11.042166
 11
58.292154
 21
10.817850
  0
LINE
  8
4
  6
CONTINUOUS
 10
58.229249
 20
11.050700
 11
58.314585
 21
10.826384
  0
LINE
  8
4
  6
CONTINUOUS
 10
58.251681
 20
11.059234
 11
58.337017
 21
10.834918
  0
LINE
  8
4
  6
CONTINUOUS
 10
90.467207
 20
23.186604
 11
91.308392
 21
23.506616
  0
LINE
  8
4
  6
CONTINUOUS
 10
91.332393
 20
23.443527
 11
91.284391
 21
23.569705
  0
LINE
  8
4
  6
CONTINUOUS
 10
91.332393
 20
23.443527
 11
92.149577
 21
23.826628
  0
LINE
  8
4
  6
CONTINUOUS
 10
91.284391
 20
23.569705
 11
92.149577
 21
23.826628
  0
LINE
  8
4
  6
CONTINUOUS
 10
91.174136
 20
23.311102
 11
91.078132
 21
23.563457
  0
LINE
  8
4
  6
CONTINUOUS
 10
91.033939
 20
23.257767
 11
90.937935
 21
23.510122
  0
POLYLINE
  8
4
  6
CONTINUOUS
 66
     1
  0
VERTEX
  8
4
  6
CONTINUOUS
 10
59.371066
 20
11.356691
  0
VERTEX
  8
4
  6
CONTINUOUS
 10
90.467207
 20
23.186604
  0
SEQEND
  8
4
  6
CONTINUOUS
  0
LINE
  8
4
  6
CONTINUOUS
 10
59.776414
 20
10.291190
 11
58.654834
 21
9.864507
  0
LINE
  8
4
  6
CONTINUOUS
 10
58.612166
 20
9.976665
 11
58.697503
 21
9.752349
  0
LINE
  8
4
  6
CONTINUOUS
 10
58.634598
 20
9.985199
 11
58.719934
 21
9.760883
  0
LINE
  8
4
  6
CONTINUOUS
 10
58.657029
 20
9.993733
 11
58.742366
 21
9.769417
  0
LINE
  8
4
  6
CONTINUOUS
 10
90.872556
 20
22.121103
 11
91.713741
 21
22.441115
  0
LINE
  8
4
  6
CONTINUOUS
 10
91.737741
 20
22.378026
 11
91.689740
 21
22.504204
  0
LINE
  8
4
  6
CONTINUOUS
 10
91.737741
 20
22.378026
 11
92.554926
 21
22.761127
  0
LINE
  8
4
  6
CONTINUOUS
 10
91.689740
 20
22.504204
 11
92.554926
 21
22.761127
  0
LINE
  8
4
  6
CONTINUOUS
 10
91.579485
 20
22.245601
 11
91.483481
 21
22.497956
  0
LINE
  8
4
  6
CONTINUOUS
 10
91.439288
 20
22.192266
 11
91.343284
 21
22.444621
  0
POLYLINE
  8
4
  6
CONTINUOUS
 66
     1
  0
VERTEX
  8
4
  6
CONTINUOUS
 10
59.776414
 20
10.291190
  0
VERTEX
  8
4
  6
CONTINUOUS
 10
90.872556
 20
22.121103
  0
SEQEND
  8
4
  6
CONTINUOUS
  0
LINE
  8
4
  6
CONTINUOUS
 10
90.290674
 20
31.695534
 11
91.190674
 21
31.695534
  0
LINE
  8
4
  6
CONTINUOUS
 10
91.190674
 20
31.628034
 11
91.190674
 21
31.763034
  0
LINE
  8
4
  6
CONTINUOUS
 10
91.190674
 20
31.628034
 11
92.090674
 21
31.695534
  0
LINE
  8
4
  6
CONTINUOUS
 10
91.190674
 20
31.763034
 11
92.090674
 21
31.695534
  0
LINE
  8
4
  6
CONTINUOUS
 10
90.995672
 20
31.560534
 11
90.995672
 21
31.830534
  0
LINE
  8
4
  6
CONTINUOUS
 10
90.845673
 20
31.560534
 11
90.845673
 21
31.830534
  0
LINE
  8
4
  6
CONTINUOUS
 10
56.453187
 20
31.695534
 11
55.253187
 21
31.695534
  0
LINE
  8
4
  6
CONTINUOUS
 10
55.253187
 20
31.815534
 11
55.253187
 21
31.575534
  0
LINE
  8
4
  6
CONTINUOUS
 10
55.277187
 20
31.815534
 11
55.277187
 21
31.575534
  0
LINE
  8
4
  6
CONTINUOUS
 10
55.301187
 20
31.815534
 11
55.301187
 21
31.575534
  0
POLYLINE
  8
4
  6
CONTINUOUS
 66
     1
  0
VERTEX
  8
4
  6
CONTINUOUS
 10
56.453187
 20
31.695534
  0
VERTEX
  8
4
  6
CONTINUOUS
 10
90.290674
 20
31.695534
  0
SEQEND
  8
4
  6
CONTINUOUS
  0
LINE
  8
4
  6
CONTINUOUS
 10
90.290674
 20
33.055534
 11
91.190674
 21
33.055534
  0
LINE
  8
4
  6
CONTINUOUS
 10
91.190674
 20
32.988034
 11
91.190674
 21
33.123034
  0
LINE
  8
4
  6
CONTINUOUS
 10
91.190674
 20
32.988034
 11
92.090674
 21
33.055534
  0
LINE
  8
4
  6
CONTINUOUS
 10
91.190674
 20
33.123034
 11
92.090674
 21
33.055534
  0
LINE
  8
4
  6
CONTINUOUS
 10
90.995672
 20
32.920534
 11
90.995672
 21
33.190534
  0
LINE
  8
4
  6
CONTINUOUS
 10
90.845673
 20
32.920534
 11
90.845673
 21
33.190534
  0
LINE
  8
4
  6
CONTINUOUS
 10
56.453187
 20
33.055534
 11
55.253187
 21
33.055534
  0
LINE
  8
4
  6
CONTINUOUS
 10
55.253187
 20
33.175534
 11
55.253187
 21
32.935534
  0
LINE
  8
4
  6
CONTINUOUS
 10
55.277187
 20
33.175534
 11
55.277187
 21
32.935534
  0
LINE
  8
4
  6
CONTINUOUS
 10
55.301187
 20
33.175534
 11
55.301187
 21
32.935534
  0
POLYLINE
  8
4
  6
CONTINUOUS
 66
     1
  0
VERTEX
  8
4
  6
CONTINUOUS
 10
56.453187
 20
33.055534
  0
VERTEX
  8
4
  6
CONTINUOUS
 10
90.290674
 20
33.055534
  0
SEQEND
  8
4
  6
CONTINUOUS
  0
LINE
  8
4
  6
CONTINUOUS
 10
90.290674
 20
34.415534
 11
91.190674
 21
34.415534
  0
LINE
  8
4
  6
CONTINUOUS
 10
91.190674
 20
34.348034
 11
91.190674
 21
34.483034
  0
LINE
  8
4
  6
CONTINUOUS
 10
91.190674
 20
34.348034
 11
92.090674
 21
34.415534
  0
LINE
  8
4
  6
CONTINUOUS
 10
91.190674
 20
34.483034
 11
92.090674
 21
34.415534
  0
LINE
  8
4
  6
CONTINUOUS
 10
90.995672
 20
34.280534
 11
90.995672
 21
34.550534
  0
LINE
  8
4
  6
CONTINUOUS
 10
90.845673
 20
34.280534
 11
90.845673
 21
34.550534
  0
LINE
  8
4
  6
CONTINUOUS
 10
56.453187
 20
34.415534
 11
55.253187
 21
34.415534
  0
LINE
  8
4
  6
CONTINUOUS
 10
55.253187
 20
34.535534
 11
55.253187
 21
34.295534
  0
LINE
  8
4
  6
CONTINUOUS
 10
55.277187
 20
34.535534
 11
55.277187
 21
34.295534
  0
LINE
  8
4
  6
CONTINUOUS
 10
55.301187
 20
34.535534
 11
55.301187
 21
34.295534
  0
POLYLINE
  8
4
  6
CONTINUOUS
 66
     1
  0
VERTEX
  8
4
  6
CONTINUOUS
 10
56.453187
 20
34.415534
  0
VERTEX
  8
4
  6
CONTINUOUS
 10
90.290674
 20
34.415534
  0
SEQEND
  8
4
  6
CONTINUOUS
  0
LINE
  8
4
  6
CONTINUOUS
 10
90.290674
 20
35.775534
 11
91.190674
 21
35.775534
  0
LINE
  8
4
  6
CONTINUOUS
 10
91.190674
 20
35.708034
 11
91.190674
 21
35.843034
  0
LINE
  8
4
  6
CONTINUOUS
 10
91.190674
 20
35.708034
 11
92.090674
 21
35.775534
  0
LINE
  8
4
  6
CONTINUOUS
 10
91.190674
 20
35.843034
 11
92.090674
 21
35.775534
  0
LINE
  8
4
  6
CONTINUOUS
 10
90.995672
 20
35.640534
 11
90.995672
 21
35.910534
  0
LINE
  8
4
  6
CONTINUOUS
 10
90.845673
 20
35.640534
 11
90.845673
 21
35.910534
  0
LINE
  8
4
  6
CONTINUOUS
 10
56.453187
 20
35.775534
 11
55.253187
 21
35.775534
  0
LINE
  8
4
  6
CONTINUOUS
 10
55.253187
 20
35.895534
 11
55.253187
 21
35.655534
  0
LINE
  8
4
  6
CONTINUOUS
 10
55.277187
 20
35.895534
 11
55.277187
 21
35.655534
  0
LINE
  8
4
  6
CONTINUOUS
 10
55.301187
 20
35.895534
 11
55.301187
 21
35.655534
  0
POLYLINE
  8
4
  6
CONTINUOUS
 66
     1
  0
VERTEX
  8
4
  6
CONTINUOUS
 10
56.453187
 20
35.775534
  0
VERTEX
  8
4
  6
CONTINUOUS
 10
90.290674
 20
35.775534
  0
SEQEND
  8
4
  6
CONTINUOUS
  0
LINE
  8
4
  6
CONTINUOUS
 10
90.290674
 20
37.135534
 11
91.190674
 21
37.135534
  0
LINE
  8
4
  6
CONTINUOUS
 10
91.190674
 20
37.068034
 11
91.190674
 21
37.203034
  0
LINE
  8
4
  6
CONTINUOUS
 10
91.190674
 20
37.068034
 11
92.090674
 21
37.135534
  0
LINE
  8
4
  6
CONTINUOUS
 10
91.190674
 20
37.203034
 11
92.090674
 21
37.135534
  0
LINE
  8
4
  6
CONTINUOUS
 10
90.995672
 20
37.000534
 11
90.995672
 21
37.270534
  0
LINE
  8
4
  6
CONTINUOUS
 10
90.845673
 20
37.000534
 11
90.845673
 21
37.270534
  0
LINE
  8
4
  6
CONTINUOUS
 10
56.453187
 20
37.135534
 11
55.253187
 21
37.135534
  0
LINE
  8
4
  6
CONTINUOUS
 10
55.253187
 20
37.255534
 11
55.253187
 21
37.015534
  0
LINE
  8
4
  6
CONTINUOUS
 10
55.277187
 20
37.255534
 11
55.277187
 21
37.015534
  0
LINE
  8
4
  6
CONTINUOUS
 10
55.301187
 20
37.255534
 11
55.301187
 21
37.015534
  0
POLYLINE
  8
4
  6
CONTINUOUS
 66
     1
  0
VERTEX
  8
4
  6
CONTINUOUS
 10
56.453187
 20
37.135534
  0
VERTEX
  8
4
  6
CONTINUOUS
 10
90.290674
 20
37.135534
  0
SEQEND
  8
4
  6
CONTINUOUS
  0
LINE
  8
4
  6
CONTINUOUS
 10
90.290674
 20
38.495534
 11
91.190674
 21
38.495534
  0
LINE
  8
4
  6
CONTINUOUS
 10
91.190674
 20
38.428034
 11
91.190674
 21
38.563034
  0
LINE
  8
4
  6
CONTINUOUS
 10
91.190674
 20
38.428034
 11
92.090674
 21
38.495534
  0
LINE
  8
4
  6
CONTINUOUS
 10
91.190674
 20
38.563034
 11
92.090674
 21
38.495534
  0
LINE
  8
4
  6
CONTINUOUS
 10
90.995672
 20
38.360534
 11
90.995672
 21
38.630534
  0
LINE
  8
4
  6
CONTINUOUS
 10
90.845673
 20
38.360534
 11
90.845673
 21
38.630534
  0
LINE
  8
4
  6
CONTINUOUS
 10
56.453187
 20
38.495534
 11
55.253187
 21
38.495534
  0
LINE
  8
4
  6
CONTINUOUS
 10
55.253187
 20
38.615534
 11
55.253187
 21
38.375534
  0
LINE
  8
4
  6
CONTINUOUS
 10
55.277187
 20
38.615534
 11
55.277187
 21
38.375534
  0
LINE
  8
4
  6
CONTINUOUS
 10
55.301187
 20
38.615534
 11
55.301187
 21
38.375534
  0
POLYLINE
  8
4
  6
CONTINUOUS
 66
     1
  0
VERTEX
  8
4
  6
CONTINUOUS
 10
56.453187
 20
38.495534
  0
VERTEX
  8
4
  6
CONTINUOUS
 10
90.290674
 20
38.495534
  0
SEQEND
  8
4
  6
CONTINUOUS
  0
LINE
  8
4
  6
CONTINUOUS
 10
74.910310
 20
39.701329
 11
75.810310
 21
39.701329
  0
LINE
  8
4
  6
CONTINUOUS
 10
75.810310
 20
39.633829
 11
75.810310
 21
39.768829
  0
LINE
  8
4
  6
CONTINUOUS
 10
75.810310
 20
39.633829
 11
76.710310
 21
39.701329
  0
LINE
  8
4
  6
CONTINUOUS
 10
75.810310
 20
39.768829
 11
76.710310
 21
39.701329
  0
LINE
  8
4
  6
CONTINUOUS
 10
75.540310
 20
39.566329
 11
75.540310
 21
39.836329
  0
LINE
  8
4
  6
CONTINUOUS
 10
55.806821
 20
39.701329
 11
54.606821
 21
39.701329
  0
LINE
  8
4
  6
CONTINUOUS
 10
54.606821
 20
39.821329
 11
54.606821
 21
39.581329
  0
LINE
  8
4
  6
CONTINUOUS
 10
54.630821
 20
39.821329
 11
54.630821
 21
39.581329
  0
LINE
  8
4
  6
CONTINUOUS
 10
54.654821
 20
39.821329
 11
54.654821
 21
39.581329
  0
POLYLINE
  8
4
  6
CONTINUOUS
 66
     1
  0
VERTEX
  8
4
  6
CONTINUOUS
 10
55.806821
 20
39.701329
  0
VERTEX
  8
4
  6
CONTINUOUS
 10
74.910310
 20
39.701329
  0
SEQEND
  8
4
  6
CONTINUOUS
  0
LINE
  8
4
  6
CONTINUOUS
 10
74.910310
 20
40.661329
 11
75.810310
 21
40.661329
  0
LINE
  8
4
  6
CONTINUOUS
 10
75.810310
 20
40.593829
 11
75.810310
 21
40.728829
  0
LINE
  8
4
  6
CONTINUOUS
 10
75.810310
 20
40.593829
 11
76.710310
 21
40.661329
  0
LINE
  8
4
  6
CONTINUOUS
 10
75.810310
 20
40.728829
 11
76.710310
 21
40.661329
  0
LINE
  8
4
  6
CONTINUOUS
 10
75.540310
 20
40.526329
 11
75.540310
 21
40.796329
  0
LINE
  8
4
  6
CONTINUOUS
 10
55.806821
 20
40.661329
 11
54.606821
 21
40.661329
  0
LINE
  8
4
  6
CONTINUOUS
 10
54.606821
 20
40.781329
 11
54.606821
 21
40.541329
  0
LINE
  8
4
  6
CONTINUOUS
 10
54.630821
 20
40.781329
 11
54.630821
 21
40.541329
  0
LINE
  8
4
  6
CONTINUOUS
 10
54.654821
 20
40.781329
 11
54.654821
 21
40.541329
  0
POLYLINE
  8
4
  6
CONTINUOUS
 66
     1
  0
VERTEX
  8
4
  6
CONTINUOUS
 10
55.806821
 20
40.661329
  0
VERTEX
  8
4
  6
CONTINUOUS
 10
74.910310
 20
40.661329
  0
SEQEND
  8
4
  6
CONTINUOUS
  0
LINE
  8
4
  6
CONTINUOUS
 10
74.910310
 20
41.621329
 11
75.810310
 21
41.621329
  0
LINE
  8
4
  6
CONTINUOUS
 10
75.810310
 20
41.553829
 11
75.810310
 21
41.688829
  0
LINE
  8
4
  6
CONTINUOUS
 10
75.810310
 20
41.553829
 11
76.710310
 21
41.621329
  0
LINE
  8
4
  6
CONTINUOUS
 10
75.810310
 20
41.688829
 11
76.710310
 21
41.621329
  0
LINE
  8
4
  6
CONTINUOUS
 10
75.540310
 20
41.486329
 11
75.540310
 21
41.756329
  0
LINE
  8
4
  6
CONTINUOUS
 10
55.806821
 20
41.621329
 11
54.606821
 21
41.621329
  0
LINE
  8
4
  6
CONTINUOUS
 10
54.606821
 20
41.741329
 11
54.606821
 21
41.501329
  0
LINE
  8
4
  6
CONTINUOUS
 10
54.630821
 20
41.741329
 11
54.630821
 21
41.501329
  0
LINE
  8
4
  6
CONTINUOUS
 10
54.654821
 20
41.741329
 11
54.654821
 21
41.501329
  0
POLYLINE
  8
4
  6
CONTINUOUS
 66
     1
  0
VERTEX
  8
4
  6
CONTINUOUS
 10
55.806821
 20
41.621329
  0
VERTEX
  8
4
  6
CONTINUOUS
 10
74.910310
 20
41.621329
  0
SEQEND
  8
4
  6
CONTINUOUS
  0
LINE
  8
1
  6
CONTINUOUS
 10
77.093570
 20
79.788670
 11
96.517298
 21
79.788670
  0
LINE
  8
1
  6
CONTINUOUS
 10
77.093570
 20
79.788670
 11
77.093570
 21
78.788670
  0
LINE
  8
1
  6
CONTINUOUS
 10
77.093570
 20
78.788670
 11
93.382850
 21
78.788670
  0
LINE
  8
1
  6
CONTINUOUS
 10
77.093570
 20
78.788670
 11
77.093570
 21
77.788670
  0
LINE
  8
1
  6
CONTINUOUS
 10
79.582686
 20
78.788670
 11
79.582686
 21
77.788670
  0
LINE
  8
1
  6
CONTINUOUS
 10
81.720399
 20
78.788670
 11
81.720399
 21
77.788670
  0
LINE
  8
1
  6
CONTINUOUS
 10
83.095766
 20
78.788670
 11
83.095766
 21
77.788670
  0
LINE
  8
1
  6
CONTINUOUS
 10
87.260279
 20
78.288670
 11
87.260279
 21
77.788670
  0
LINE
  8
1
  6
CONTINUOUS
 10
90.248402
 20
78.788670
 11
90.248402
 21
77.788670
  0
LINE
  8
1
  6
CONTINUOUS
 10
91.293217
 20
78.288670
 11
91.293218
 21
77.788670
  0
LINE
  8
1
  6
CONTINUOUS
 10
92.338034
 20
78.288670
 11
92.338034
 21
77.788670
  0
LINE
  8
1
  6
CONTINUOUS
 10
93.382850
 20
78.788670
 11
93.382850
 21
77.788670
  0
LINE
  8
1
  6
CONTINUOUS
 10
77.093570
 20
77.788670
 11
96.517298
 21
77.788670
  0
LINE
  8
1
  6
CONTINUOUS
 10
83.095766
 20
78.288670
 11
87.260279
 21
78.288670
  0
LINE
  8
1
  6
CONTINUOUS
 10
87.260279
 20
78.288670
 11
90.248402
 21
78.288670
  0
LINE
  8
1
  6
CONTINUOUS
 10
90.248402
 20
78.288670
 11
91.293218
 21
78.288670
  0
LINE
  8
1
  6
CONTINUOUS
 10
91.293218
 20
78.288670
 11
92.338034
 21
78.288670
  0
LINE
  8
1
  6
CONTINUOUS
 10
92.338034
 20
78.288670
 11
96.517298
 21
78.288670
  0
LINE
  8
1
  6
CONTINUOUS
 10
96.517298
 20
77.788670
 11
96.517298
 21
79.788670
  0
LINE
  8
1
  6
CONTINUOUS
 10
94.950074
 20
78.288670
 11
94.950074
 21
77.788670
  0
LINE
  8
1
  6
CONTINUOUS
 10
93.382850
 20
78.788670
 11
96.517298
 21
78.788670
  0
LINE
  8
1
  6
CONTINUOUS
 10
77.093570
 20
77.788670
 11
77.093570
 21
77.288669
  0
LINE
  8
1
  6
CONTINUOUS
 10
77.093570
 20
77.288669
 11
96.517298
 21
77.288669
  0
LINE
  8
1
  6
CONTINUOUS
 10
79.582686
 20
77.788670
 11
79.582686
 21
77.288669
  0
LINE
  8
1
  6
CONTINUOUS
 10
81.720399
 20
77.788670
 11
81.720399
 21
77.288669
  0
LINE
  8
1
  6
CONTINUOUS
 10
83.095766
 20
77.788670
 11
83.095766
 21
77.288669
  0
LINE
  8
1
  6
CONTINUOUS
 10
87.260279
 20
77.788670
 11
87.260279
 21
77.288669
  0
LINE
  8
1
  6
CONTINUOUS
 10
90.248402
 20
77.788670
 11
90.248402
 21
77.288669
  0
LINE
  8
1
  6
CONTINUOUS
 10
91.293218
 20
77.788670
 11
91.293218
 21
77.288669
  0
LINE
  8
1
  6
CONTINUOUS
 10
92.338034
 20
77.788670
 11
92.338034
 21
77.288669
  0
LINE
  8
1
  6
CONTINUOUS
 10
93.382850
 20
77.788670
 11
93.382850
 21
77.288669
  0
LINE
  8
1
  6
CONTINUOUS
 10
93.382850
 20
77.288669
 11
93.382850
 21
77.788670
  0
LINE
  8
1
  6
CONTINUOUS
 10
93.382850
 20
77.788670
 11
93.382850
 21
77.288669
  0
LINE
  8
1
  6
CONTINUOUS
 10
94.950074
 20
77.788670
 11
94.950074
 21
77.288669
  0
LINE
  8
1
  6
CONTINUOUS
 10
96.517298
 20
77.788670
 11
96.517298
 21
77.288669
  0
LINE
  8
1
  6
CONTINUOUS
 10
77.093570
 20
77.288669
 11
77.093570
 21
76.788669
  0
LINE
  8
1
  6
CONTINUOUS
 10
77.093570
 20
76.788669
 11
96.517298
 21
76.788669
  0
LINE
  8
1
  6
CONTINUOUS
 10
79.582686
 20
77.288669
 11
79.582686
 21
76.788669
  0
LINE
  8
1
  6
CONTINUOUS
 10
81.720399
 20
77.288669
 11
81.720399
 21
76.788669
  0
LINE
  8
1
  6
CONTINUOUS
 10
83.095766
 20
77.288669
 11
83.095766
 21
76.788669
  0
LINE
  8
1
  6
CONTINUOUS
 10
87.260279
 20
77.288669
 11
87.260279
 21
76.788669
  0
LINE
  8
1
  6
CONTINUOUS
 10
90.248402
 20
77.288669
 11
90.248402
 21
76.788669
  0
LINE
  8
1
  6
CONTINUOUS
 10
91.293218
 20
77.288669
 11
91.293218
 21
76.788669
  0
LINE
  8
1
  6
CONTINUOUS
 10
92.338034
 20
77.288669
 11
92.338034
 21
76.788669
  0
LINE
  8
1
  6
CONTINUOUS
 10
93.382850
 20
77.288669
 11
93.382850
 21
76.788669
  0
LINE
  8
1
  6
CONTINUOUS
 10
93.382850
 20
76.788669
 11
93.382850
 21
77.288669
  0
LINE
  8
1
  6
CONTINUOUS
 10
93.382850
 20
77.288669
 11
93.382850
 21
76.788669
  0
LINE
  8
1
  6
CONTINUOUS
 10
94.950074
 20
77.288669
 11
94.950074
 21
76.788669
  0
LINE
  8
1
  6
CONTINUOUS
 10
96.517298
 20
77.288669
 11
96.517298
 21
76.788669
  0
LINE
  8
1
  6
CONTINUOUS
 10
77.093570
 20
76.788668
 11
77.093570
 21
76.288668
  0
LINE
  8
1
  6
CONTINUOUS
 10
77.093570
 20
76.288668
 11
96.517298
 21
76.288668
  0
LINE
  8
1
  6
CONTINUOUS
 10
79.582686
 20
76.788668
 11
79.582686
 21
76.288668
  0
LINE
  8
1
  6
CONTINUOUS
 10
81.720399
 20
76.788668
 11
81.720399
 21
76.288668
  0
LINE
  8
1
  6
CONTINUOUS
 10
83.095766
 20
76.788668
 11
83.095766
 21
76.288668
  0
LINE
  8
1
  6
CONTINUOUS
 10
87.260279
 20
76.788668
 11
87.260279
 21
76.288668
  0
LINE
  8
1
  6
CONTINUOUS
 10
90.248402
 20
76.788668
 11
90.248402
 21
76.288668
  0
LINE
  8
1
  6
CONTINUOUS
 10
91.293218
 20
76.788668
 11
91.293218
 21
76.288668
  0
LINE
  8
1
  6
CONTINUOUS
 10
92.338034
 20
76.788668
 11
92.338034
 21
76.288668
  0
LINE
  8
1
  6
CONTINUOUS
 10
93.382850
 20
76.788668
 11
93.382850
 21
76.288668
  0
LINE
  8
1
  6
CONTINUOUS
 10
93.382850
 20
76.288668
 11
93.382850
 21
76.788668
  0
LINE
  8
1
  6
CONTINUOUS
 10
93.382850
 20
76.788669
 11
93.382850
 21
76.288668
  0
LINE
  8
1
  6
CONTINUOUS
 10
94.950074
 20
76.788668
 11
94.950074
 21
76.288668
  0
LINE
  8
1
  6
CONTINUOUS
 10
96.517298
 20
76.788668
 11
96.517298
 21
76.288668
  0
LINE
  8
1
  6
CONTINUOUS
 10
77.093570
 20
76.288667
 11
77.093570
 21
75.788667
  0
LINE
  8
1
  6
CONTINUOUS
 10
77.093570
 20
75.788667
 11
96.517298
 21
75.788667
  0
LINE
  8
1
  6
CONTINUOUS
 10
79.582686
 20
76.288667
 11
79.582686
 21
75.788667
  0
LINE
  8
1
  6
CONTINUOUS
 10
81.720399
 20
76.288667
 11
81.720399
 21
75.788667
  0
LINE
  8
1
  6
CONTINUOUS
 10
83.095766
 20
76.288667
 11
83.095766
 21
75.788667
  0
LINE
  8
1
  6
CONTINUOUS
 10
87.260279
 20
76.288667
 11
87.260279
 21
75.788667
  0
LINE
  8
1
  6
CONTINUOUS
 10
90.248402
 20
76.288667
 11
90.248402
 21
75.788667
  0
LINE
  8
1
  6
CONTINUOUS
 10
91.293218
 20
76.288667
 11
91.293218
 21
75.788667
  0
LINE
  8
1
  6
CONTINUOUS
 10
92.338034
 20
76.288667
 11
92.338034
 21
75.788667
  0
LINE
  8
1
  6
CONTINUOUS
 10
93.382850
 20
76.288667
 11
93.382850
 21
75.788667
  0
LINE
  8
1
  6
CONTINUOUS
 10
93.382850
 20
75.788667
 11
93.382850
 21
76.288667
  0
LINE
  8
1
  6
CONTINUOUS
 10
93.382850
 20
76.288668
 11
93.382850
 21
75.788667
  0
LINE
  8
1
  6
CONTINUOUS
 10
94.950074
 20
76.288667
 11
94.950074
 21
75.788667
  0
LINE
  8
1
  6
CONTINUOUS
 10
96.517298
 20
76.288667
 11
96.517298
 21
75.788667
  0
LINE
  8
1
  6
CONTINUOUS
 10
77.093570
 20
75.788667
 11
77.093570
 21
75.288667
  0
LINE
  8
1
  6
CONTINUOUS
 10
77.093570
 20
75.288667
 11
96.517298
 21
75.288667
  0
LINE
  8
1
  6
CONTINUOUS
 10
79.582686
 20
75.788667
 11
79.582686
 21
75.288667
  0
LINE
  8
1
  6
CONTINUOUS
 10
81.720399
 20
75.788667
 11
81.720399
 21
75.288667
  0
LINE
  8
1
  6
CONTINUOUS
 10
83.095766
 20
75.788667
 11
83.095766
 21
75.288667
  0
LINE
  8
1
  6
CONTINUOUS
 10
87.260279
 20
75.788667
 11
87.260279
 21
75.288667
  0
LINE
  8
1
  6
CONTINUOUS
 10
90.248402
 20
75.788667
 11
90.248402
 21
75.288667
  0
LINE
  8
1
  6
CONTINUOUS
 10
91.293218
 20
75.788667
 11
91.293218
 21
75.288667
  0
LINE
  8
1
  6
CONTINUOUS
 10
92.338034
 20
75.788667
 11
92.338034
 21
75.288667
  0
LINE
  8
1
  6
CONTINUOUS
 10
93.382850
 20
75.788667
 11
93.382850
 21
75.288667
  0
LINE
  8
1
  6
CONTINUOUS
 10
93.382850
 20
75.288667
 11
93.382850
 21
75.788667
  0
LINE
  8
1
  6
CONTINUOUS
 10
93.382850
 20
75.788667
 11
93.382850
 21
75.288666
  0
LINE
  8
1
  6
CONTINUOUS
 10
94.950074
 20
75.788667
 11
94.950074
 21
75.288667
  0
LINE
  8
1
  6
CONTINUOUS
 10
96.517298
 20
75.788667
 11
96.517298
 21
75.288667
  0
LINE
  8
1
  6
CONTINUOUS
 10
77.093570
 20
75.288666
 11
77.093570
 21
74.788666
  0
LINE
  8
1
  6
CONTINUOUS
 10
77.093570
 20
74.788666
 11
96.517298
 21
74.788666
  0
LINE
  8
1
  6
CONTINUOUS
 10
79.582686
 20
75.288666
 11
79.582686
 21
74.788666
  0
LINE
  8
1
  6
CONTINUOUS
 10
81.720399
 20
75.288666
 11
81.720399
 21
74.788666
  0
LINE
  8
1
  6
CONTINUOUS
 10
83.095766
 20
75.288666
 11
83.095766
 21
74.788666
  0
LINE
  8
1
  6
CONTINUOUS
 10
87.260279
 20
75.288666
 11
87.260279
 21
74.788666
  0
LINE
  8
1
  6
CONTINUOUS
 10
90.248402
 20
75.288666
 11
90.248402
 21
74.788666
  0
LINE
  8
1
  6
CONTINUOUS
 10
91.293218
 20
75.288666
 11
91.293218
 21
74.788666
  0
LINE
  8
1
  6
CONTINUOUS
 10
92.338034
 20
75.288666
 11
92.338034
 21
74.788666
  0
LINE
  8
1
  6
CONTINUOUS
 10
93.382850
 20
75.288666
 11
93.382850
 21
74.788666
  0
LINE
  8
1
  6
CONTINUOUS
 10
93.382850
 20
74.788666
 11
93.382850
 21
75.288666
  0
LINE
  8
1
  6
CONTINUOUS
 10
93.382850
 20
75.288666
 11
93.382850
 21
74.788666
  0
LINE
  8
1
  6
CONTINUOUS
 10
94.950074
 20
75.288666
 11
94.950074
 21
74.788666
  0
LINE
  8
1
  6
CONTINUOUS
 10
96.517298
 20
75.288666
 11
96.517298
 21
74.788666
  0
LINE
  8
1
  6
CONTINUOUS
 10
77.093570
 20
74.788665
 11
77.093570
 21
74.288665
  0
LINE
  8
1
  6
CONTINUOUS
 10
77.093570
 20
74.288665
 11
96.517298
 21
74.288665
  0
LINE
  8
1
  6
CONTINUOUS
 10
79.582686
 20
74.788665
 11
79.582686
 21
74.288665
  0
LINE
  8
1
  6
CONTINUOUS
 10
81.720399
 20
74.788665
 11
81.720399
 21
74.288665
  0
LINE
  8
1
  6
CONTINUOUS
 10
83.095766
 20
74.788665
 11
83.095766
 21
74.288665
  0
LINE
  8
1
  6
CONTINUOUS
 10
87.260279
 20
74.788665
 11
87.260279
 21
74.288665
  0
LINE
  8
1
  6
CONTINUOUS
 10
90.248402
 20
74.788665
 11
90.248402
 21
74.288665
  0
LINE
  8
1
  6
CONTINUOUS
 10
91.293218
 20
74.788665
 11
91.293218
 21
74.288665
  0
LINE
  8
1
  6
CONTINUOUS
 10
92.338034
 20
74.788665
 11
92.338034
 21
74.288665
  0
LINE
  8
1
  6
CONTINUOUS
 10
93.382850
 20
74.788665
 11
93.382850
 21
74.288665
  0
LINE
  8
1
  6
CONTINUOUS
 10
93.382850
 20
74.288665
 11
93.382850
 21
74.788665
  0
LINE
  8
1
  6
CONTINUOUS
 10
93.382850
 20
74.788666
 11
93.382850
 21
74.288665
  0
LINE
  8
1
  6
CONTINUOUS
 10
94.950074
 20
74.788665
 11
94.950074
 21
74.288665
  0
LINE
  8
1
  6
CONTINUOUS
 10
96.517298
 20
74.788665
 11
96.517298
 21
74.288665
  0
LINE
  8
1
  6
CONTINUOUS
 10
77.093570
 20
74.288665
 11
77.093570
 21
73.788664
  0
LINE
  8
1
  6
CONTINUOUS
 10
77.093570
 20
73.788664
 11
96.517298
 21
73.788664
  0
LINE
  8
1
  6
CONTINUOUS
 10
79.582686
 20
74.288665
 11
79.582686
 21
73.788664
  0
LINE
  8
1
  6
CONTINUOUS
 10
81.720399
 20
74.288665
 11
81.720399
 21
73.788664
  0
LINE
  8
1
  6
CONTINUOUS
 10
83.095766
 20
74.288665
 11
83.095766
 21
73.788664
  0
LINE
  8
1
  6
CONTINUOUS
 10
87.260279
 20
74.288665
 11
87.260279
 21
73.788664
  0
LINE
  8
1
  6
CONTINUOUS
 10
90.248402
 20
74.288665
 11
90.248402
 21
73.788664
  0
LINE
  8
1
  6
CONTINUOUS
 10
91.293218
 20
74.288665
 11
91.293218
 21
73.788664
  0
LINE
  8
1
  6
CONTINUOUS
 10
92.338034
 20
74.288665
 11
92.338034
 21
73.788664
  0
LINE
  8
1
  6
CONTINUOUS
 10
93.382850
 20
74.288665
 11
93.382850
 21
73.788664
  0
LINE
  8
1
  6
CONTINUOUS
 10
93.382850
 20
73.788664
 11
93.382850
 21
74.288665
  0
LINE
  8
1
  6
CONTINUOUS
 10
93.382850
 20
74.288665
 11
93.382850
 21
73.788664
  0
LINE
  8
1
  6
CONTINUOUS
 10
94.950074
 20
74.288665
 11
94.950074
 21
73.788664
  0
LINE
  8
1
  6
CONTINUOUS
 10
96.517298
 20
74.288665
 11
96.517298
 21
73.788664
  0
LINE
  8
1
  6
CONTINUOUS
 10
77.093570
 20
73.788664
 11
77.093570
 21
73.288664
  0
LINE
  8
1
  6
CONTINUOUS
 10
77.093570
 20
73.288664
 11
96.517298
 21
73.288664
  0
LINE
  8
1
  6
CONTINUOUS
 10
79.582686
 20
73.788664
 11
79.582686
 21
73.288664
  0
LINE
  8
1
  6
CONTINUOUS
 10
81.720399
 20
73.788664
 11
81.720399
 21
73.288664
  0
LINE
  8
1
  6
CONTINUOUS
 10
83.095766
 20
73.788664
 11
83.095766
 21
73.288664
  0
LINE
  8
1
  6
CONTINUOUS
 10
87.260279
 20
73.788664
 11
87.260279
 21
73.288664
  0
LINE
  8
1
  6
CONTINUOUS
 10
90.248402
 20
73.788664
 11
90.248402
 21
73.288664
  0
LINE
  8
1
  6
CONTINUOUS
 10
91.293218
 20
73.788664
 11
91.293218
 21
73.288664
  0
LINE
  8
1
  6
CONTINUOUS
 10
92.338034
 20
73.788664
 11
92.338034
 21
73.288664
  0
LINE
  8
1
  6
CONTINUOUS
 10
93.382850
 20
73.788664
 11
93.382850
 21
73.288664
  0
LINE
  8
1
  6
CONTINUOUS
 10
93.382850
 20
73.288664
 11
93.382850
 21
73.788664
  0
LINE
  8
1
  6
CONTINUOUS
 10
93.382850
 20
73.788664
 11
93.382850
 21
73.288664
  0
LINE
  8
1
  6
CONTINUOUS
 10
94.950074
 20
73.788664
 11
94.950074
 21
73.288664
  0
LINE
  8
1
  6
CONTINUOUS
 10
96.517298
 20
73.788664
 11
96.517298
 21
73.288664
  0
LINE
  8
1
  6
CONTINUOUS
 10
77.093570
 20
73.288663
 11
77.093570
 21
72.788663
  0
LINE
  8
1
  6
CONTINUOUS
 10
77.093570
 20
72.788663
 11
96.517298
 21
72.788663
  0
LINE
  8
1
  6
CONTINUOUS
 10
79.582686
 20
73.288663
 11
79.582686
 21
72.788663
  0
LINE
  8
1
  6
CONTINUOUS
 10
81.720399
 20
73.288663
 11
81.720399
 21
72.788663
  0
LINE
  8
1
  6
CONTINUOUS
 10
83.095766
 20
73.288663
 11
83.095766
 21
72.788663
  0
LINE
  8
1
  6
CONTINUOUS
 10
87.260279
 20
73.288663
 11
87.260279
 21
72.788663
  0
LINE
  8
1
  6
CONTINUOUS
 10
90.248402
 20
73.288663
 11
90.248402
 21
72.788663
  0
LINE
  8
1
  6
CONTINUOUS
 10
91.293218
 20
73.288663
 11
91.293218
 21
72.788663
  0
LINE
  8
1
  6
CONTINUOUS
 10
92.338034
 20
73.288663
 11
92.338034
 21
72.788663
  0
LINE
  8
1
  6
CONTINUOUS
 10
93.382850
 20
73.288663
 11
93.382850
 21
72.788663
  0
LINE
  8
1
  6
CONTINUOUS
 10
93.382850
 20
72.788663
 11
93.382850
 21
73.288663
  0
LINE
  8
1
  6
CONTINUOUS
 10
93.382850
 20
73.288664
 11
93.382850
 21
72.788663
  0
LINE
  8
1
  6
CONTINUOUS
 10
94.950074
 20
73.288663
 11
94.950074
 21
72.788663
  0
LINE
  8
1
  6
CONTINUOUS
 10
96.517298
 20
73.288663
 11
96.517298
 21
72.788663
  0
LINE
  8
1
  6
CONTINUOUS
 10
77.093570
 20
72.788662
 11
77.093570
 21
72.288662
  0
LINE
  8
1
  6
CONTINUOUS
 10
77.093570
 20
72.288662
 11
96.517298
 21
72.288662
  0
LINE
  8
1
  6
CONTINUOUS
 10
79.582686
 20
72.788662
 11
79.582686
 21
72.288662
  0
LINE
  8
1
  6
CONTINUOUS
 10
81.720399
 20
72.788662
 11
81.720399
 21
72.288662
  0
LINE
  8
1
  6
CONTINUOUS
 10
83.095766
 20
72.788662
 11
83.095766
 21
72.288662
  0
LINE
  8
1
  6
CONTINUOUS
 10
87.260279
 20
72.788662
 11
87.260279
 21
72.288662
  0
LINE
  8
1
  6
CONTINUOUS
 10
90.248402
 20
72.788662
 11
90.248402
 21
72.288662
  0
LINE
  8
1
  6
CONTINUOUS
 10
91.293218
 20
72.788662
 11
91.293218
 21
72.288662
  0
LINE
  8
1
  6
CONTINUOUS
 10
92.338034
 20
72.788662
 11
92.338034
 21
72.288662
  0
LINE
  8
1
  6
CONTINUOUS
 10
93.382850
 20
72.788662
 11
93.382850
 21
72.288662
  0
LINE
  8
1
  6
CONTINUOUS
 10
93.382850
 20
72.288662
 11
93.382850
 21
72.788662
  0
LINE
  8
1
  6
CONTINUOUS
 10
93.382850
 20
72.788663
 11
93.382850
 21
72.288662
  0
LINE
  8
1
  6
CONTINUOUS
 10
94.950074
 20
72.788662
 11
94.950074
 21
72.288662
  0
LINE
  8
1
  6
CONTINUOUS
 10
96.517298
 20
72.788662
 11
96.517298
 21
72.288662
  0
LINE
  8
1
  6
CONTINUOUS
 10
77.093570
 20
72.288662
 11
77.093570
 21
71.788662
  0
LINE
  8
1
  6
CONTINUOUS
 10
77.093570
 20
71.788662
 11
96.517298
 21
71.788662
  0
LINE
  8
1
  6
CONTINUOUS
 10
79.582686
 20
72.288662
 11
79.582686
 21
71.788662
  0
LINE
  8
1
  6
CONTINUOUS
 10
81.720399
 20
72.288662
 11
81.720399
 21
71.788662
  0
LINE
  8
1
  6
CONTINUOUS
 10
83.095766
 20
72.288662
 11
83.095766
 21
71.788662
  0
LINE
  8
1
  6
CONTINUOUS
 10
87.260279
 20
72.288662
 11
87.260279
 21
71.788662
  0
LINE
  8
1
  6
CONTINUOUS
 10
90.248402
 20
72.288662
 11
90.248402
 21
71.788662
  0
LINE
  8
1
  6
CONTINUOUS
 10
91.293218
 20
72.288662
 11
91.293218
 21
71.788662
  0
LINE
  8
1
  6
CONTINUOUS
 10
92.338034
 20
72.288662
 11
92.338034
 21
71.788662
  0
LINE
  8
1
  6
CONTINUOUS
 10
93.382850
 20
72.288662
 11
93.382850
 21
71.788662
  0
LINE
  8
1
  6
CONTINUOUS
 10
93.382850
 20
71.788662
 11
93.382850
 21
72.288662
  0
LINE
  8
1
  6
CONTINUOUS
 10
93.382850
 20
72.288662
 11
93.382850
 21
71.788661
  0
LINE
  8
1
  6
CONTINUOUS
 10
94.950074
 20
72.288662
 11
94.950074
 21
71.788662
  0
LINE
  8
1
  6
CONTINUOUS
 10
96.517298
 20
72.288662
 11
96.517298
 21
71.788662
  0
LINE
  8
1
  6
CONTINUOUS
 10
77.093570
 20
71.788661
 11
77.093570
 21
71.288661
  0
LINE
  8
1
  6
CONTINUOUS
 10
77.093570
 20
71.288661
 11
96.517298
 21
71.288661
  0
LINE
  8
1
  6
CONTINUOUS
 10
79.582686
 20
71.788661
 11
79.582686
 21
71.288661
  0
LINE
  8
1
  6
CONTINUOUS
 10
81.720399
 20
71.788661
 11
81.720399
 21
71.288661
  0
LINE
  8
1
  6
CONTINUOUS
 10
83.095766
 20
71.788661
 11
83.095766
 21
71.288661
  0
LINE
  8
1
  6
CONTINUOUS
 10
87.260279
 20
71.788661
 11
87.260279
 21
71.288661
  0
LINE
  8
1
  6
CONTINUOUS
 10
90.248402
 20
71.788661
 11
90.248402
 21
71.288661
  0
LINE
  8
1
  6
CONTINUOUS
 10
91.293218
 20
71.788661
 11
91.293218
 21
71.288661
  0
LINE
  8
1
  6
CONTINUOUS
 10
92.338034
 20
71.788661
 11
92.338034
 21
71.288661
  0
LINE
  8
1
  6
CONTINUOUS
 10
93.382850
 20
71.788661
 11
93.382850
 21
71.288661
  0
LINE
  8
1
  6
CONTINUOUS
 10
93.382850
 20
71.288661
 11
93.382850
 21
71.788661
  0
LINE
  8
1
  6
CONTINUOUS
 10
93.382850
 20
71.788661
 11
93.382850
 21
71.288661
  0
LINE
  8
1
  6
CONTINUOUS
 10
94.950074
 20
71.788661
 11
94.950074
 21
71.288661
  0
LINE
  8
1
  6
CONTINUOUS
 10
96.517298
 20
71.788661
 11
96.517298
 21
71.288661
  0
LINE
  8
1
  6
CONTINUOUS
 10
77.093570
 20
71.288660
 11
77.093570
 21
70.788660
  0
LINE
  8
1
  6
CONTINUOUS
 10
77.093570
 20
70.788660
 11
96.517298
 21
70.788660
  0
LINE
  8
1
  6
CONTINUOUS
 10
79.582686
 20
71.288660
 11
79.582686
 21
70.788660
  0
LINE
  8
1
  6
CONTINUOUS
 10
81.720399
 20
71.288660
 11
81.720399
 21
70.788660
  0
LINE
  8
1
  6
CONTINUOUS
 10
83.095766
 20
71.288660
 11
83.095766
 21
70.788660
  0
LINE
  8
1
  6
CONTINUOUS
 10
87.260279
 20
71.288660
 11
87.260279
 21
70.788660
  0
LINE
  8
1
  6
CONTINUOUS
 10
90.248402
 20
71.288660
 11
90.248402
 21
70.788660
  0
LINE
  8
1
  6
CONTINUOUS
 10
91.293218
 20
71.288660
 11
91.293218
 21
70.788660
  0
LINE
  8
1
  6
CONTINUOUS
 10
92.338034
 20
71.288660
 11
92.338034
 21
70.788660
  0
LINE
  8
1
  6
CONTINUOUS
 10
93.382850
 20
71.288660
 11
93.382850
 21
70.788660
  0
LINE
  8
1
  6
CONTINUOUS
 10
93.382850
 20
70.788660
 11
93.382850
 21
71.288660
  0
LINE
  8
1
  6
CONTINUOUS
 10
93.382850
 20
71.288661
 11
93.382850
 21
70.788660
  0
LINE
  8
1
  6
CONTINUOUS
 10
94.950074
 20
71.288660
 11
94.950074
 21
70.788660
  0
LINE
  8
1
  6
CONTINUOUS
 10
96.517298
 20
71.288660
 11
96.517298
 21
70.788660
  0
LINE
  8
1
  6
CONTINUOUS
 10
77.093570
 20
70.788660
 11
77.093570
 21
70.288659
  0
LINE
  8
1
  6
CONTINUOUS
 10
77.093570
 20
70.288659
 11
96.517298
 21
70.288659
  0
LINE
  8
1
  6
CONTINUOUS
 10
79.582686
 20
70.788660
 11
79.582686
 21
70.288659
  0
LINE
  8
1
  6
CONTINUOUS
 10
81.720399
 20
70.788660
 11
81.720399
 21
70.288659
  0
LINE
  8
1
  6
CONTINUOUS
 10
83.095766
 20
70.788660
 11
83.095766
 21
70.288659
  0
LINE
  8
1
  6
CONTINUOUS
 10
87.260279
 20
70.788660
 11
87.260279
 21
70.288659
  0
LINE
  8
1
  6
CONTINUOUS
 10
90.248402
 20
70.788660
 11
90.248402
 21
70.288659
  0
LINE
  8
1
  6
CONTINUOUS
 10
91.293218
 20
70.788660
 11
91.293218
 21
70.288659
  0
LINE
  8
1
  6
CONTINUOUS
 10
92.338034
 20
70.788660
 11
92.338034
 21
70.288659
  0
LINE
  8
1
  6
CONTINUOUS
 10
93.382850
 20
70.788660
 11
93.382850
 21
70.288659
  0
LINE
  8
1
  6
CONTINUOUS
 10
93.382850
 20
70.288659
 11
93.382850
 21
70.788660
  0
LINE
  8
1
  6
CONTINUOUS
 10
93.382850
 20
70.788660
 11
93.382850
 21
70.288659
  0
LINE
  8
1
  6
CONTINUOUS
 10
94.950074
 20
70.788660
 11
94.950074
 21
70.288659
  0
LINE
  8
1
  6
CONTINUOUS
 10
96.517298
 20
70.788660
 11
96.517298
 21
70.288659
  0
LINE
  8
1
  6
CONTINUOUS
 10
77.093570
 20
69.651307
 11
90.376662
 21
69.651307
  0
LINE
  8
1
  6
CONTINUOUS
 10
77.093570
 20
68.288659
 11
90.376662
 21
68.288659
  0
LINE
  8
1
  6
CONTINUOUS
 10
77.093570
 20
67.788659
 11
86.015279
 21
67.788659
  0
LINE
  8
1
  6
CONTINUOUS
 10
86.015279
 20
67.788659
 11
88.203402
 21
67.788659
  0
LINE
  8
1
  6
CONTINUOUS
 10
87.583382
 20
67.788659
 11
88.628198
 21
67.788659
  0
LINE
  8
1
  6
CONTINUOUS
 10
88.628198
 20
67.788659
 11
90.293034
 21
67.788659
  0
LINE
  8
1
  6
CONTINUOUS
 10
90.293034
 20
67.788659
 11
90.376662
 21
67.788659
  0
LINE
  8
1
  6
CONTINUOUS
 10
77.093570
 20
69.651307
 11
77.093570
 21
66.788659
  0
LINE
  8
1
  6
CONTINUOUS
 10
77.093570
 20
66.788659
 11
90.376662
 21
66.788660
  0
LINE
  8
1
  6
CONTINUOUS
 10
79.231282
 20
67.788659
 11
79.231282
 21
66.788659
  0
LINE
  8
1
  6
CONTINUOUS
 10
81.419406
 20
66.788659
 11
81.419406
 21
67.788659
  0
LINE
  8
1
  6
CONTINUOUS
 10
88.287030
 20
67.788659
 11
88.287030
 21
66.788660
  0
LINE
  8
1
  6
CONTINUOUS
 10
89.331847
 20
67.788659
 11
89.331847
 21
66.788660
  0
LINE
  8
1
  6
CONTINUOUS
 10
83.122218
 20
66.788659
 11
83.122218
 21
67.288659
  0
LINE
  8
1
  6
CONTINUOUS
 10
90.376662
 20
66.788660
 11
90.376662
 21
69.651307
  0
LINE
  8
1
  6
CONTINUOUS
 10
81.419406
 20
67.288659
 11
87.242215
 21
67.288659
  0
LINE
  8
1
  6
CONTINUOUS
 10
87.242215
 20
66.788660
 11
87.242215
 21
68.288659
  0
LINE
  8
1
  6
CONTINUOUS
 10
85.182217
 20
66.788659
 11
85.182217
 21
67.288659
  0
LINE
  8
1
  6
CONTINUOUS
 10
77.093570
 20
66.788659
 11
77.093570
 21
66.288658
  0
LINE
  8
1
  6
CONTINUOUS
 10
79.231282
 20
66.788659
 11
79.231282
 21
66.288658
  0
LINE
  8
1
  6
CONTINUOUS
 10
81.419406
 20
66.788659
 11
81.419406
 21
66.288658
  0
LINE
  8
1
  6
CONTINUOUS
 10
77.093570
 20
66.288658
 11
90.376662
 21
66.288658
  0
LINE
  8
1
  6
CONTINUOUS
 10
87.242215
 20
66.788659
 11
87.242215
 21
66.288659
  0
LINE
  8
1
  6
CONTINUOUS
 10
88.287030
 20
66.788659
 11
88.287030
 21
66.288659
  0
LINE
  8
1
  6
CONTINUOUS
 10
89.331847
 20
66.788659
 11
89.331847
 21
66.288659
  0
LINE
  8
1
  6
CONTINUOUS
 10
83.122218
 20
66.788659
 11
83.122218
 21
66.288658
  0
LINE
  8
1
  6
CONTINUOUS
 10
85.182217
 20
66.288658
 11
85.182217
 21
66.788659
  0
LINE
  8
1
  6
CONTINUOUS
 10
87.242215
 20
66.288658
 11
87.242215
 21
66.788659
  0
LINE
  8
1
  6
CONTINUOUS
 10
90.376662
 20
66.788659
 11
90.376662
 21
66.288658
  0
LINE
  8
1
  6
CONTINUOUS
 10
77.093570
 20
66.288658
 11
77.093570
 21
65.788658
  0
LINE
  8
1
  6
CONTINUOUS
 10
79.231282
 20
66.288658
 11
79.231282
 21
65.788658
  0
LINE
  8
1
  6
CONTINUOUS
 10
81.419406
 20
66.288658
 11
81.419406
 21
65.788658
  0
LINE
  8
1
  6
CONTINUOUS
 10
77.093570
 20
65.788658
 11
90.376662
 21
65.788658
  0
LINE
  8
1
  6
CONTINUOUS
 10
87.242215
 20
66.288658
 11
87.242215
 21
65.788658
  0
LINE
  8
1
  6
CONTINUOUS
 10
88.287030
 20
66.288658
 11
88.287030
 21
65.788658
  0
LINE
  8
1
  6
CONTINUOUS
 10
89.331847
 20
66.288658
 11
89.331847
 21
65.788658
  0
LINE
  8
1
  6
CONTINUOUS
 10
83.122218
 20
66.288658
 11
83.122218
 21
65.788658
  0
LINE
  8
1
  6
CONTINUOUS
 10
85.182217
 20
65.788658
 11
85.182217
 21
66.288658
  0
LINE
  8
1
  6
CONTINUOUS
 10
87.242215
 20
65.788658
 11
87.242215
 21
66.288658
  0
LINE
  8
1
  6
CONTINUOUS
 10
90.376662
 20
66.288658
 11
90.376662
 21
65.788658
  0
LINE
  8
1
  6
CONTINUOUS
 10
77.093570
 20
65.788657
 11
77.093570
 21
65.288657
  0
LINE
  8
1
  6
CONTINUOUS
 10
79.231282
 20
65.788657
 11
79.231282
 21
65.288657
  0
LINE
  8
1
  6
CONTINUOUS
 10
81.419406
 20
65.788657
 11
81.419406
 21
65.288657
  0
LINE
  8
1
  6
CONTINUOUS
 10
77.093570
 20
65.288657
 11
90.376662
 21
65.288657
  0
LINE
  8
1
  6
CONTINUOUS
 10
87.242215
 20
65.788658
 11
87.242215
 21
65.288657
  0
LINE
  8
1
  6
CONTINUOUS
 10
88.287030
 20
65.788658
 11
88.287030
 21
65.288657
  0
LINE
  8
1
  6
CONTINUOUS
 10
89.331847
 20
65.788658
 11
89.331847
 21
65.288657
  0
LINE
  8
1
  6
CONTINUOUS
 10
83.122218
 20
65.788657
 11
83.122218
 21
65.288657
  0
LINE
  8
1
  6
CONTINUOUS
 10
85.182217
 20
65.288657
 11
85.182217
 21
65.788657
  0
LINE
  8
1
  6
CONTINUOUS
 10
87.242215
 20
65.288657
 11
87.242215
 21
65.788657
  0
LINE
  8
1
  6
CONTINUOUS
 10
90.376662
 20
65.788658
 11
90.376662
 21
65.288657
  0
LINE
  8
1
  6
CONTINUOUS
 10
77.093570
 20
65.288656
 11
77.093570
 21
64.788656
  0
LINE
  8
1
  6
CONTINUOUS
 10
79.231282
 20
65.288656
 11
79.231282
 21
64.788656
  0
LINE
  8
1
  6
CONTINUOUS
 10
81.419406
 20
65.288656
 11
81.419406
 21
64.788656
  0
LINE
  8
1
  6
CONTINUOUS
 10
77.093570
 20
64.788656
 11
90.376662
 21
64.788656
  0
LINE
  8
1
  6
CONTINUOUS
 10
87.242215
 20
65.288657
 11
87.242215
 21
64.788657
  0
LINE
  8
1
  6
CONTINUOUS
 10
88.287030
 20
65.288657
 11
88.287030
 21
64.788657
  0
LINE
  8
1
  6
CONTINUOUS
 10
89.331847
 20
65.288657
 11
89.331847
 21
64.788657
  0
LINE
  8
1
  6
CONTINUOUS
 10
83.122218
 20
65.288657
 11
83.122218
 21
64.788656
  0
LINE
  8
1
  6
CONTINUOUS
 10
85.182217
 20
64.788656
 11
85.182217
 21
65.288657
  0
LINE
  8
1
  6
CONTINUOUS
 10
87.242215
 20
64.788656
 11
87.242215
 21
65.288657
  0
LINE
  8
1
  6
CONTINUOUS
 10
90.376662
 20
65.288657
 11
90.376662
 21
64.788656
  0
LINE
  8
2
  6
CONTINUOUS
 10
101.700000
 20
23.900000
 11
101.700000
 21
23.900000
  0
LINE
  8
2
  6
CONTINUOUS
 10
118.000000
 20
23.900000
 11
118.000000
 21
23.900000
  0
LINE
  8
2
  6
CONTINUOUS
 10
118.000000
 20
23.900000
 11
101.700000
 21
23.900000
  0
LINE
  8
2
  6
CONTINUOUS
 10
118.000000
 20
22.200000
 11
101.700000
 21
22.200000
  0
LINE
  8
2
  6
CONTINUOUS
 10
101.700000
 20
23.900000
 11
101.700000
 21
22.200000
  0
LINE
  8
2
  6
CONTINUOUS
 10
118.000000
 20
22.200000
 11
118.000000
 21
23.900000
  0
LINE
  8
1
  6
CONTINUOUS
 10
118.000002
 20
29.700001
 11
119.000002
 21
29.700001
  0
LINE
  8
1
  6
CONTINUOUS
 10
118.000002
 20
59.400002
 11
119.000002
 21
59.400002
  0
LINE
  8
1
  6
CONTINUOUS
 10
0.000000
 20
29.700001
 11
2.500000
 21
29.700001
  0
LINE
  8
1
  6
CONTINUOUS
 10
0.000000
 20
59.400002
 11
2.500000
 21
59.400002
  0
LINE
  8
1
  6
CONTINUOUS
 10
100.500002
 20
82.999998
 11
100.500002
 21
83.999998
  0
LINE
  8
1
  6
CONTINUOUS
 10
82.000002
 20
82.999998
 11
82.000002
 21
83.999998
  0
LINE
  8
1
  6
CONTINUOUS
 10
63.500002
 20
82.999998
 11
63.500002
 21
83.999998
  0
LINE
  8
1
  6
CONTINUOUS
 10
45.000002
 20
82.999998
 11
45.000002
 21
83.999998
  0
LINE
  8
1
  6
CONTINUOUS
 10
33.050001
 20
82.999998
 11
33.050001
 21
83.999998
  0
LINE
  8
1
  6
CONTINUOUS
 10
21.100000
 20
82.999998
 11
21.100000
 21
83.999998
  0
LINE
  8
1
  6
CONTINUOUS
 10
100.500002
 20
0.000000
 11
100.500002
 21
1.000000
  0
LINE
  8
1
  6
CONTINUOUS
 10
82.000002
 20
0.000000
 11
82.000002
 21
1.000000
  0
LINE
  8
1
  6
CONTINUOUS
 10
63.500002
 20
0.000000
 11
63.500002
 21
1.000000
  0
LINE
  8
1
  6
CONTINUOUS
 10
45.000002
 20
0.000000
 11
45.000002
 21
1.000000
  0
LINE
  8
1
  6
CONTINUOUS
 10
33.050001
 20
0.000000
 11
33.050001
 21
1.000000
  0
LINE
  8
1
  6
CONTINUOUS
 10
21.100000
 20
0.000000
 11
21.100000
 21
1.000000
  0
LINE
  8
1
  6
CONTINUOUS
 10
0.000000
 20
0.000000
 11
119.000002
 21
0.000000
  0
LINE
  8
1
  6
CONTINUOUS
 10
119.000002
 20
0.000000
 11
119.000002
 21
83.999998
  0
LINE
  8
1
  6
CONTINUOUS
 10
0.000000
 20
0.000000
 11
0.000000
 21
83.999998
  0
LINE
  8
8
  6
CONTINUOUS
 10
2.500000
 20
1.000000
 11
118.000002
 21
1.000000
  0
LINE
  8
8
  6
CONTINUOUS
 10
118.000002
 20
1.000000
 11
118.000002
 21
82.999998
  0
LINE
  8
1
  6
CONTINUOUS
 10
0.000000
 20
83.999998
 11
119.000002
 21
83.999998
  0
LINE
  8
8
  6
CONTINUOUS
 10
2.500000
 20
82.999998
 11
118.000002
 21
82.999998
  0
LINE
  8
8
  6
CONTINUOUS
 10
2.500000
 20
82.999998
 11
2.500000
 21
1.000000
  0
LINE
  8
2
  6
CONTINUOUS
 10
102.650002
 20
17.625000
 11
102.650002
 21
18.125000
  0
LINE
  8
1
  6
CONTINUOUS
 10
101.700002
 20
18.200000
 11
118.000002
 21
18.200000
  0
LINE
  8
1
  6
CONTINUOUS
 10
101.700002
 20
17.700000
 11
118.000002
 21
17.700000
  0
LINE
  8
1
  6
CONTINUOUS
 10
102.200002
 20
17.700000
 11
118.000002
 21
17.700000
  0
LINE
  8
2
  6
CONTINUOUS
 10
102.650002
 20
17.125000
 11
102.650002
 21
17.625000
  0
LINE
  8
1
  6
CONTINUOUS
 10
102.200002
 20
17.700000
 11
118.000002
 21
17.700000
  0
LINE
  8
1
  6
CONTINUOUS
 10
101.700002
 20
17.200000
 11
118.000002
 21
17.200000
  0
LINE
  8
2
  6
CONTINUOUS
 10
102.650002
 20
16.700000
 11
102.650002
 21
17.200000
  0
LINE
  8
1
  6
CONTINUOUS
 10
116.008223
 20
16.000000
 11
116.008223
 21
22.200000
  0
LINE
  8
1
  6
CONTINUOUS
 10
104.850002
 20
16.000000
 11
104.850002
 21
22.200000
  0
LINE
  8
6
  6
CONTINUOUS
 10
101.700002
 20
16.000000
 11
118.000002
 21
16.000000
  0
LINE
  8
1
  6
CONTINUOUS
 10
102.650002
 20
16.000000
 11
102.650002
 21
16.700000
  0
LINE
  8
1
  6
CONTINUOUS
 10
102.200002
 20
17.200000
 11
118.000002
 21
17.200000
  0
LINE
  8
1
  6
CONTINUOUS
 10
101.700002
 20
16.700000
 11
118.000002
 21
16.700000
  0
LINE
  8
2
  6
CONTINUOUS
 10
102.650002
 20
18.625000
 11
102.650002
 21
22.200000
  0
LINE
  8
6
  6
CONTINUOUS
 10
101.700002
 20
22.200000
 11
118.000002
 21
22.200000
  0
LINE
  8
1
  6
CONTINUOUS
 10
101.700002
 20
18.700000
 11
118.000002
 21
18.700000
  0
LINE
  8
1
  6
CONTINUOUS
 10
102.200002
 20
18.700000
 11
118.000002
 21
18.700000
  0
LINE
  8
2
  6
CONTINUOUS
 10
102.650002
 20
18.125000
 11
102.650002
 21
18.625000
  0
LINE
  8
1
  6
CONTINUOUS
 10
102.200002
 20
18.700000
 11
118.000002
 21
18.700000
  0
LINE
  8
1
  6
CONTINUOUS
 10
102.200002
 20
18.200000
 11
118.000002
 21
18.200000
  0
LINE
  8
1
  6
CONTINUOUS
 10
102.200002
 20
18.200000
 11
118.000002
 21
18.200000
  0
LINE
  8
6
  6
CONTINUOUS
 10
101.700002
 20
6.600000
 11
118.000002
 21
6.600000
  0
LINE
  8
6
  6
CONTINUOUS
 10
101.700002
 20
8.500000
 11
118.000002
 21
8.500000
  0
LINE
  8
6
  6
CONTINUOUS
 10
101.700002
 20
1.000000
 11
101.700002
 21
8.500000
  0
LINE
  8
6
  6
CONTINUOUS
 10
101.700002
 20
16.000000
 11
101.700002
 21
22.200000
  0
LINE
  8
6
  6
CONTINUOUS
 10
101.700002
 20
15.900000
 11
118.000002
 21
15.900000
  0
LINE
  8
6
  6
CONTINUOUS
 10
101.700002
 20
11.400000
 11
101.700002
 21
15.900000
  0
LINE
  8
1
  6
CONTINUOUS
 10
101.700002
 20
14.400000
 11
118.000002
 21
14.400000
  0
LINE
  8
6
  6
CONTINUOUS
 10
101.700002
 20
3.000000
 11
118.000002
 21
3.000000
  0
LINE
  8
6
  6
CONTINUOUS
 10
105.024321
 20
3.000000
 11
105.024321
 21
1.000000
  0
LINE
  8
1
  6
CONTINUOUS
 10
101.700002
 20
12.900000
 11
118.000002
 21
12.900000
  0
POLYLINE
  8
1
  6
CONTINUOUS
 66
     1
  0
VERTEX
  8
1
  6
CONTINUOUS
 10
103.635546
 20
9.498246
  0
VERTEX
  8
1
  6
CONTINUOUS
 10
101.971546
 20
9.498246
  0
VERTEX
  8
1
  6
CONTINUOUS
 10
101.971546
 20
11.162246
  0
VERTEX
  8
1
  6
CONTINUOUS
 10
103.635546
 20
11.162246
  0
VERTEX
  8
1
  6
CONTINUOUS
 10
103.635546
 20
9.498246
  0
SEQEND
  8
1
  6
CONTINUOUS
  0
POLYLINE
  8
13
  6
CONTINUOUS
 66
     1
  0
VERTEX
  8
13
  6
CONTINUOUS
 10
102.095046
 20
10.244446
  0
VERTEX
  8
13
  6
CONTINUOUS
 10
102.095046
 20
9.498246
  0
VERTEX
  8
13
  6
CONTINUOUS
 10
101.971546
 20
9.498246
  0
VERTEX
  8
13
  6
CONTINUOUS
 10
101.971546
 20
11.162246
  0
VERTEX
  8
13
  6
CONTINUOUS
 10
102.095046
 20
11.162246
  0
VERTEX
  8
13
  6
CONTINUOUS
 10
102.095046
 20
10.244446
  0
SEQEND
  8
13
  6
CONTINUOUS
  0
POLYLINE
  8
13
  6
CONTINUOUS
 66
     1
  0
VERTEX
  8
13
  6
CONTINUOUS
 10
102.522746
 20
10.230979
  0
VERTEX
  8
13
  6
CONTINUOUS
 10
102.522746
 20
9.498246
  0
VERTEX
  8
13
  6
CONTINUOUS
 10
102.095046
 20
9.498246
  0
VERTEX
  8
13
  6
CONTINUOUS
 10
102.095046
 20
10.244446
  0
VERTEX
  8
13
  6
CONTINUOUS
 10
102.143544
 20
10.248642
  0
VERTEX
  8
13
  6
CONTINUOUS
 10
102.211078
 20
10.252071
  0
VERTEX
  8
13
  6
CONTINUOUS
 10
102.259959
 20
10.252484
  0
VERTEX
  8
13
  6
CONTINUOUS
 10
102.290321
 20
10.252141
  0
VERTEX
  8
13
  6
CONTINUOUS
 10
102.334203
 20
10.250668
  0
VERTEX
  8
13
  6
CONTINUOUS
 10
102.394518
 20
10.246747
  0
VERTEX
  8
13
  6
CONTINUOUS
 10
102.446340
 20
10.241621
  0
VERTEX
  8
13
  6
CONTINUOUS
 10
102.490083
 20
10.235974
  0
VERTEX
  8
13
  6
CONTINUOUS
 10
102.522746
 20
10.230979
  0
SEQEND
  8
13
  6
CONTINUOUS
  0
POLYLINE
  8
13
  6
CONTINUOUS
 66
     1
  0
VERTEX
  8
13
  6
CONTINUOUS
 10
102.594246
 20
10.217654
  0
VERTEX
  8
13
  6
CONTINUOUS
 10
102.594246
 20
9.498246
  0
VERTEX
  8
13
  6
CONTINUOUS
 10
103.021946
 20
9.498246
  0
VERTEX
  8
13
  6
CONTINUOUS
 10
103.021946
 20
10.064184
  0
VERTEX
  8
13
  6
CONTINUOUS
 10
103.003898
 20
10.073542
  0
VERTEX
  8
13
  6
CONTINUOUS
 10
102.981716
 20
10.084501
  0
VERTEX
  8
13
  6
CONTINUOUS
 10
102.953307
 20
10.098271
  0
VERTEX
  8
13
  6
CONTINUOUS
 10
102.912865
 20
10.116383
  0
VERTEX
  8
13
  6
CONTINUOUS
 10
102.885024
 20
10.128001
  0
VERTEX
  8
13
  6
CONTINUOUS
 10
102.844071
 20
10.144755
  0
VERTEX
  8
13
  6
CONTINUOUS
 10
102.813490
 20
10.155923
  0
VERTEX
  8
13
  6
CONTINUOUS
 10
102.778388
 20
10.168156
  0
VERTEX
  8
13
  6
CONTINUOUS
 10
102.744083
 20
10.178793
  0
VERTEX
  8
13
  6
CONTINUOUS
 10
102.703465
 20
10.191172
  0
VERTEX
  8
13
  6
CONTINUOUS
 10
102.665141
 20
10.201162
  0
VERTEX
  8
13
  6
CONTINUOUS
 10
102.624819
 20
10.210970
  0
VERTEX
  8
13
  6
CONTINUOUS
 10
102.594246
 20
10.217654
  0
SEQEND
  8
13
  6
CONTINUOUS
  0
POLYLINE
  8
13
  6
CONTINUOUS
 66
     1
  0
VERTEX
  8
13
  6
CONTINUOUS
 10
103.093446
 20
10.024343
  0
VERTEX
  8
13
  6
CONTINUOUS
 10
103.093446
 20
9.498246
  0
VERTEX
  8
13
  6
CONTINUOUS
 10
103.521146
 20
9.498246
  0
VERTEX
  8
13
  6
CONTINUOUS
 10
103.521146
 20
9.661030
  0
VERTEX
  8
13
  6
CONTINUOUS
 10
103.507797
 20
9.676793
  0
VERTEX
  8
13
  6
CONTINUOUS
 10
103.495964
 20
9.690528
  0
VERTEX
  8
13
  6
CONTINUOUS
 10
103.473877
 20
9.715277
  0
VERTEX
  8
13
  6
CONTINUOUS
 10
103.454164
 20
9.736530
  0
VERTEX
  8
13
  6
CONTINUOUS
 10
103.434048
 20
9.757502
  0
VERTEX
  8
13
  6
CONTINUOUS
 10
103.410015
 20
9.781535
  0
VERTEX
  8
13
  6
CONTINUOUS
 10
103.399294
 20
9.791943
  0
VERTEX
  8
13
  6
CONTINUOUS
 10
103.388429
 20
9.802406
  0
VERTEX
  8
13
  6
CONTINUOUS
 10
103.359952
 20
9.828752
  0
VERTEX
  8
13
  6
CONTINUOUS
 10
103.325139
 20
9.859181
  0
VERTEX
  8
13
  6
CONTINUOUS
 10
103.286846
 20
9.890826
  0
VERTEX
  8
13
  6
CONTINUOUS
 10
103.251036
 20
9.918745
  0
VERTEX
  8
13
  6
CONTINUOUS
 10
103.200839
 20
9.955427
  0
VERTEX
  8
13
  6
CONTINUOUS
 10
103.134352
 20
9.999676
  0
VERTEX
  8
13
  6
CONTINUOUS
 10
103.093446
 20
10.024343
  0
SEQEND
  8
13
  6
CONTINUOUS
  0
POLYLINE
  8
13
  6
CONTINUOUS
 66
     1
  0
VERTEX
  8
13
  6
CONTINUOUS
 10
102.522746
 20
10.635283
  0
VERTEX
  8
13
  6
CONTINUOUS
 10
102.522746
 20
11.162246
  0
VERTEX
  8
13
  6
CONTINUOUS
 10
102.095046
 20
11.162246
  0
VERTEX
  8
13
  6
CONTINUOUS
 10
102.095046
 20
10.995122
  0
VERTEX
  8
13
  6
CONTINUOUS
 10
102.153689
 20
10.929235
  0
VERTEX
  8
13
  6
CONTINUOUS
 10
102.237359
 20
10.846559
  0
VERTEX
  8
13
  6
CONTINUOUS
 10
102.308389
 20
10.784730
  0
VERTEX
  8
13
  6
CONTINUOUS
 10
102.366624
 20
10.739274
  0
VERTEX
  8
13
  6
CONTINUOUS
 10
102.406322
 20
10.710064
  0
VERTEX
  8
13
  6
CONTINUOUS
 10
102.455827
 20
10.676682
  0
VERTEX
  8
13
  6
CONTINUOUS
 10
102.493954
 20
10.652515
  0
VERTEX
  8
13
  6
CONTINUOUS
 10
102.522746
 20
10.635283
  0
SEQEND
  8
13
  6
CONTINUOUS
  0
POLYLINE
  8
13
  6
CONTINUOUS
 66
     1
  0
VERTEX
  8
13
  6
CONTINUOUS
 10
103.021946
 20
10.443678
  0
VERTEX
  8
13
  6
CONTINUOUS
 10
103.021946
 20
11.162246
  0
VERTEX
  8
13
  6
CONTINUOUS
 10
102.594246
 20
11.162246
  0
VERTEX
  8
13
  6
CONTINUOUS
 10
102.594246
 20
10.595859
  0
VERTEX
  8
13
  6
CONTINUOUS
 10
102.663800
 20
10.561766
  0
VERTEX
  8
13
  6
CONTINUOUS
 10
102.744359
 20
10.527375
  0
VERTEX
  8
13
  6
CONTINUOUS
 10
102.812197
 20
10.501464
  0
VERTEX
  8
13
  6
CONTINUOUS
 10
102.889458
 20
10.476967
  0
VERTEX
  8
13
  6
CONTINUOUS
 10
102.950702
 20
10.460007
  0
VERTEX
  8
13
  6
CONTINUOUS
 10
103.021946
 20
10.443678
  0
SEQEND
  8
13
  6
CONTINUOUS
  0
POLYLINE
  8
13
  6
CONTINUOUS
 66
     1
  0
VERTEX
  8
13
  6
CONTINUOUS
 10
103.093446
 20
10.430307
  0
VERTEX
  8
13
  6
CONTINUOUS
 10
103.093446
 20
11.162246
  0
VERTEX
  8
13
  6
CONTINUOUS
 10
103.521146
 20
11.162246
  0
VERTEX
  8
13
  6
CONTINUOUS
 10
103.521146
 20
10.417580
  0
VERTEX
  8
13
  6
CONTINUOUS
 10
103.476372
 20
10.413637
  0
VERTEX
  8
13
  6
CONTINUOUS
 10
103.416577
 20
10.410480
  0
VERTEX
  8
13
  6
CONTINUOUS
 10
103.366788
 20
10.409453
  0
VERTEX
  8
13
  6
CONTINUOUS
 10
103.336830
 20
10.409453
  0
VERTEX
  8
13
  6
CONTINUOUS
 10
103.286182
 20
10.410821
  0
VERTEX
  8
13
  6
CONTINUOUS
 10
103.241261
 20
10.413321
  0
VERTEX
  8
13
  6
CONTINUOUS
 10
103.205545
 20
10.416539
  0
VERTEX
  8
13
  6
CONTINUOUS
 10
103.155349
 20
10.421044
  0
VERTEX
  8
13
  6
CONTINUOUS
 10
103.093446
 20
10.430307
  0
SEQEND
  8
13
  6
CONTINUOUS
  0
POLYLINE
  8
13
  6
CONTINUOUS
 66
     1
  0
VERTEX
  8
13
  6
CONTINUOUS
 10
102.522746
 20
9.498246
  0
VERTEX
  8
13
  6
CONTINUOUS
 10
102.594246
 20
9.498246
  0
VERTEX
  8
13
  6
CONTINUOUS
 10
102.594246
 20
11.162246
  0
VERTEX
  8
13
  6
CONTINUOUS
 10
102.522746
 20
11.162246
  0
VERTEX
  8
13
  6
CONTINUOUS
 10
102.522746
 20
9.498246
  0
VERTEX
  8
13
  6
CONTINUOUS
 10
102.594246
 20
9.498246
  0
SEQEND
  8
13
  6
CONTINUOUS
  0
POLYLINE
  8
13
  6
CONTINUOUS
 66
     1
  0
VERTEX
  8
13
  6
CONTINUOUS
 10
103.021946
 20
11.162246
  0
VERTEX
  8
13
  6
CONTINUOUS
 10
103.093446
 20
11.162246
  0
VERTEX
  8
13
  6
CONTINUOUS
 10
103.093446
 20
9.498246
  0
VERTEX
  8
13
  6
CONTINUOUS
 10
103.021946
 20
9.498246
  0
VERTEX
  8
13
  6
CONTINUOUS
 10
103.021946
 20
11.162246
  0
SEQEND
  8
13
  6
CONTINUOUS
  0
POLYLINE
  8
13
  6
CONTINUOUS
 66
     1
  0
VERTEX
  8
13
  6
CONTINUOUS
 10
103.521146
 20
9.498246
  0
VERTEX
  8
13
  6
CONTINUOUS
 10
103.635546
 20
9.498246
  0
VERTEX
  8
13
  6
CONTINUOUS
 10
103.635546
 20
11.162246
  0
VERTEX
  8
13
  6
CONTINUOUS
 10
103.521146
 20
11.162246
  0
VERTEX
  8
13
  6
CONTINUOUS
 10
103.521146
 20
9.498246
  0
SEQEND
  8
13
  6
CONTINUOUS
  0
LINE
  8
6
  6
CONTINUOUS
 10
107.924321
 20
3.000000
 11
107.924321
 21
2.000000
  0
LINE
  8
6
  6
CONTINUOUS
 10
101.700002
 20
2.000000
 11
114.124321
 21
2.000000
  0
LINE
  8
6
  6
CONTINUOUS
 10
114.124321
 20
3.000000
 11
114.124321
 21
1.000000
  0
LINE
  8
6
  6
CONTINUOUS
 10
101.700002
 20
8.600000
 11
118.000002
 21
8.600000
  0
LINE
  8
6
  6
CONTINUOUS
 10
101.700002
 20
8.600000
 11
101.700002
 21
11.300000
  0
LINE
  8
6
  6
CONTINUOUS
 10
101.700002
 20
11.300000
 11
118.000002
 21
11.300000
  0
LINE
  8
6
  6
CONTINUOUS
 10
101.700002
 20
11.400000
 11
118.000002
 21
11.400000
  0
LINE
  8
1
  6
CONTINUOUS
 10
101.700002
 20
19.200000
 11
118.000002
 21
19.200000
  0
LINE
  8
1
  6
CONTINUOUS
 10
102.200002
 20
19.200000
 11
118.000002
 21
19.200000
  0
LINE
  8
1
  6
CONTINUOUS
 10
102.200002
 20
19.200000
 11
118.000002
 21
19.200000
  0
LINE
  8
1
  6
CONTINUOUS
 10
101.700002
 20
19.700000
 11
118.000002
 21
19.700000
  0
LINE
  8
1
  6
CONTINUOUS
 10
102.200002
 20
19.700000
 11
118.000002
 21
19.700000
  0
LINE
  8
1
  6
CONTINUOUS
 10
102.200002
 20
19.700000
 11
118.000002
 21
19.700000
  0
LINE
  8
1
  6
CONTINUOUS
 10
101.700002
 20
20.200000
 11
118.000002
 21
20.200000
  0
LINE
  8
1
  6
CONTINUOUS
 10
102.200002
 20
20.200000
 11
118.000002
 21
20.200000
  0
LINE
  8
1
  6
CONTINUOUS
 10
102.200002
 20
20.200000
 11
118.000002
 21
20.200000
  0
LINE
  8
1
  6
CONTINUOUS
 10
101.700002
 20
20.700000
 11
118.000002
 21
20.700000
  0
LINE
  8
1
  6
CONTINUOUS
 10
102.200002
 20
20.700000
 11
118.000002
 21
20.700000
  0
LINE
  8
1
  6
CONTINUOUS
 10
102.200002
 20
20.700000
 11
118.000002
 21
20.700000
  0
LINE
  8
1
  6
CONTINUOUS
 10
101.700002
 20
21.200000
 11
118.000002
 21
21.200000
  0
LINE
  8
1
  6
CONTINUOUS
 10
102.200002
 20
21.200000
 11
118.000002
 21
21.200000
  0
LINE
  8
1
  6
CONTINUOUS
 10
102.200002
 20
21.200000
 11
118.000002
 21
21.200000
  0
LINE
  8
1
  6
CONTINUOUS
 10
101.700002
 20
21.700000
 11
118.000002
 21
21.700000
  0
LINE
  8
6
  6
CONTINUOUS
 10
110.708935
 20
11.300000
 11
110.708935
 21
8.600000
  0
TEXT
  8
1
  6
CONTINUOUS
 10
24.236524
 20
49.342594
 40
0.300000
 50
90.000000
  1
L101
  7
TQS_CALIBRI
  0
TEXT
  8
1
  6
CONTINUOUS
 10
65.334502
 20
24.676679
 40
0.300000
 50
90.000000
  1
L2
  7
TQS_CALIBRI
  0
TEXT
  8
1
  6
CONTINUOUS
 10
68.572039
 20
9.479584
 40
0.300000
 50
90.000000
  1
L4
  7
TQS_CALIBRI
  0
TEXT
  8
1
  6
CONTINUOUS
 10
81.134558
 20
29.648817
 40
0.300000
 50
90.000000
  1
L6
  7
TQS_CALIBRI
  0
TEXT
  8
1
  6
CONTINUOUS
 10
85.089481
 20
15.947835
 40
0.300000
 50
90.000000
  1
L7
  7
TQS_CALIBRI
  0
TEXT
  8
1
  6
CONTINUOUS
 10
59.820516
 20
49.169429
 40
0.300000
 50
90.000000
  1
L1
  7
TQS_CALIBRI
  0
TEXT
  8
1
  6
CONTINUOUS
 10
57.030437
 20
57.820753
 40
0.300000
 50
90.000000
  1
L3
  7
TQS_CALIBRI
  0
TEXT
  8
1
  6
CONTINUOUS
 10
62.850271
 20
57.036160
 40
0.300000
 50
90.000000
  1
L8
  7
TQS_CALIBRI
  0
TEXT
  8
1
  6
CONTINUOUS
 10
71.221962
 20
56.770392
 40
0.300000
 50
90.000000
  1
L9
  7
TQS_CALIBRI
  0
TEXT
  8
1
  6
CONTINUOUS
 10
65.417768
 20
47.959700
 40
0.300000
 50
90.000000
  1
L10
  7
TQS_CALIBRI
  0
TEXT
  8
1
  6
CONTINUOUS
 10
69.748507
 20
47.991915
 40
0.300000
 50
90.000000
  1
L5
  7
TQS_CALIBRI
  0
TEXT
  8
1
  6
CONTINUOUS
 10
75.485305
 20
42.675196
 40
0.300000
 50
90.000000
  1
P187
  7
TQS_CALIBRI
  0
TEXT
  8
1
  6
CONTINUOUS
 10
91.285300
 20
37.573256
 40
0.300000
 50
90.000000
  1
PD3
  7
TQS_CALIBRI
  0
TEXT
  8
1
  6
CONTINUOUS
 10
53.845438
 20
42.675196
 40
0.300000
 50
90.000000
  1
PC5
  7
TQS_CALIBRI
  0
TEXT
  8
1
  6
CONTINUOUS
 10
53.845438
 20
51.378313
 40
0.300000
 50
90.000000
  1
PC6
  7
TQS_CALIBRI
  0
TEXT
  8
1
  6
CONTINUOUS
 10
7.434635
 20
41.206101
 40
0.300000
 50
90.000000
  1
P143
  7
TQS_CALIBRI
  0
TEXT
  8
1
  6
CONTINUOUS
 10
5.495296
 20
57.674663
 40
0.300000
 50
90.000000
  1
P140
  7
TQS_CALIBRI
  0
TEXT
  8
1
  6
CONTINUOUS
 10
75.485310
 20
50.565200
 40
0.300000
 50
90.000000
  1
P188
  7
TQS_CALIBRI
  0
TEXT
  8
1
  6
CONTINUOUS
 10
64.345310
 20
50.565200
 40
0.300000
 50
90.000000
  1
P183
  7
TQS_CALIBRI
  0
TEXT
  8
1
  6
CONTINUOUS
 10
63.945305
 20
46.975196
 40
0.300000
 50
90.000000
  1
PC8
  7
TQS_CALIBRI
  0
TEXT
  8
1
  6
CONTINUOUS
 10
68.145305
 20
46.975196
 40
0.300000
 50
90.000000
  1
PC9
  7
TQS_CALIBRI
  0
TEXT
  8
1
  6
CONTINUOUS
 10
69.915310
 20
50.565200
 40
0.300000
 50
90.000000
  1
P185
  7
TQS_CALIBRI
  0
TEXT
  8
1
  6
CONTINUOUS
 10
68.145310
 20
42.675196
 40
0.300000
 50
90.000000
  1
PC7
  7
TQS_CALIBRI
  0
TEXT
  8
1
  6
CONTINUOUS
 10
26.830723
 20
42.034524
 40
0.300000
 50
90.000000
  1
P158
  7
TQS_CALIBRI
  0
TEXT
  8
1
  6
CONTINUOUS
 10
26.323214
 20
58.603918
 40
0.300000
 50
90.000000
  1
P154
  7
TQS_CALIBRI
  0
TEXT
  8
1
  6
CONTINUOUS
 10
87.175305
 20
50.565200
 40
0.300000
 50
90.000000
  1
P195
  7
TQS_CALIBRI
  0
TEXT
  8
1
  6
CONTINUOUS
 10
78.878694
 20
16.852822
 40
0.300000
 50
90.000000
  1
P189
  7
TQS_CALIBRI
  0
TEXT
  8
1
  6
CONTINUOUS
 10
73.936872
 20
29.844277
 40
0.300000
 50
90.000000
  1
P186
  7
TQS_CALIBRI
  0
TEXT
  8
1
  6
CONTINUOUS
 10
57.152684
 20
25.010038
 40
0.300000
 50
90.000000
  1
P180
  7
TQS_CALIBRI
  0
TEXT
  8
1
  6
CONTINUOUS
 10
58.955348
 20
9.661232
 40
0.300000
 50
90.000000
  1
P181
  7
TQS_CALIBRI
  0
TEXT
  8
1
  6
CONTINUOUS
 10
96.795051
 20
58.473241
 40
0.300000
 50
90.000000
  1
P110C
  7
TQS_CALIBRI
  0
TEXT
  8
1
  6
CONTINUOUS
 10
44.345442
 20
42.785385
 40
0.300000
 50
90.000000
  1
P170
  7
TQS_CALIBRI
  0
TEXT
  8
1
  6
CONTINUOUS
 10
17.139562
 20
41.620526
 40
0.300000
 50
90.000000
  1
P152
  7
TQS_CALIBRI
  0
TEXT
  8
1
  6
CONTINUOUS
 10
6.207034
 20
51.679540
 40
0.300000
 50
90.000000
  1
P141
  7
TQS_CALIBRI
  0
TEXT
  8
1
  6
CONTINUOUS
 10
15.932689
 20
58.160084
 40
0.300000
 50
90.000000
  1
P149
  7
TQS_CALIBRI
  0
TEXT
  8
1
  6
CONTINUOUS
 10
35.666741
 20
42.414719
 40
0.300000
 50
90.000000
  1
P162
  7
TQS_CALIBRI
  0
TEXT
  8
1
  6
CONTINUOUS
 10
40.571181
 20
59.212699
 40
0.300000
 50
90.000000
  1
P166
  7
TQS_CALIBRI
  0
TEXT
  8
1
  6
CONTINUOUS
 10
64.859222
 20
61.142508
 40
0.300000
 50
90.000000
  1
P98C
  7
TQS_CALIBRI
  0
TEXT
  8
1
  6
CONTINUOUS
 10
73.876981
 20
60.379268
 40
0.300000
 50
90.000000
  1
P103C
  7
TQS_CALIBRI
  0
TEXT
  8
1
  6
CONTINUOUS
 10
75.041115
 20
53.975195
 40
0.300000
 50
90.000000
  1
P311
  7
TQS_CALIBRI
  0
TEXT
  8
1
  6
CONTINUOUS
 10
66.741177
 20
53.975195
 40
0.300000
 50
90.000000
  1
P310
  7
TQS_CALIBRI
  0
TEXT
  8
1
  6
CONTINUOUS
 10
84.875305
 20
53.975195
 40
0.300000
 50
90.000000
  1
P312
  7
TQS_CALIBRI
  0
TEXT
  8
1
  6
CONTINUOUS
 10
59.246271
 20
54.948745
 40
0.300000
 50
90.000000
  1
P308
  7
TQS_CALIBRI
  0
TEXT
  8
1
  6
CONTINUOUS
 10
85.375300
 20
50.565200
 40
0.300000
 50
90.000000
  1
P313
  7
TQS_CALIBRI
  0
TEXT
  8
1
  6
CONTINUOUS
 10
59.496421
 20
61.597867
 40
0.300000
 50
90.000000
  1
P309
  7
TQS_CALIBRI
  0
TEXT
  8
1
  6
CONTINUOUS
 10
88.745114
 20
15.069061
 40
0.300000
 50
90.000000
  1
P196
  7
TQS_CALIBRI
  0
TEXT
  8
1
  6
CONTINUOUS
 10
83.994664
 20
59.772922
 40
0.300000
 50
90.000000
  1
P105C
  7
TQS_CALIBRI
  0
TEXT
  8
1
  6
CONTINUOUS
 10
44.345558
 20
50.378312
 40
0.300000
 50
90.000000
  1
P171
  7
TQS_CALIBRI
  0
TEXT
  8
4
  6
CONTINUOUS
 10
7.547655
 20
49.762903
 40
0.300000
 50
450.000000
  1
C1
  7
TQS_CALIBRI
  0
TEXT
  8
4
  6
CONTINUOUS
 10
8.867655
 20
49.762903
 40
0.300000
 50
450.000000
  1
C2
  7
TQS_CALIBRI
  0
TEXT
  8
4
  6
CONTINUOUS
 10
10.187655
 20
49.762903
 40
0.300000
 50
450.000000
  1
C3
  7
TQS_CALIBRI
  0
TEXT
  8
4
  6
CONTINUOUS
 10
11.547655
 20
48.683745
 40
0.300000
 50
450.000000
  1
C4
  7
TQS_CALIBRI
  0
TEXT
  8
4
  6
CONTINUOUS
 10
12.867655
 20
48.683745
 40
0.300000
 50
450.000000
  1
C5
  7
TQS_CALIBRI
  0
TEXT
  8
4
  6
CONTINUOUS
 10
14.187655
 20
48.683745
 40
0.300000
 50
450.000000
  1
C6
  7
TQS_CALIBRI
  0
TEXT
  8
4
  6
CONTINUOUS
 10
15.547655
 20
50.155729
 40
0.300000
 50
450.000000
  1
C7
  7
TQS_CALIBRI
  0
TEXT
  8
4
  6
CONTINUOUS
 10
16.867655
 20
50.155729
 40
0.300000
 50
450.000000
  1
C8
  7
TQS_CALIBRI
  0
TEXT
  8
4
  6
CONTINUOUS
 10
18.187655
 20
50.155729
 40
0.300000
 50
450.000000
  1
C9
  7
TQS_CALIBRI
  0
TEXT
  8
4
  6
CONTINUOUS
 10
19.547655
 20
49.025280
 40
0.300000
 50
90.000000
  1
C10
  7
TQS_CALIBRI
  0
TEXT
  8
4
  6
CONTINUOUS
 10
20.867655
 20
49.025280
 40
0.300000
 50
90.000000
  1
C11
  7
TQS_CALIBRI
  0
TEXT
  8
4
  6
CONTINUOUS
 10
22.187655
 20
49.025280
 40
0.300000
 50
90.000000
  1
C12
  7
TQS_CALIBRI
  0
TEXT
  8
4
  6
CONTINUOUS
 10
23.547655
 20
50.490420
 40
0.300000
 50
450.000000
  1
C13
  7
TQS_CALIBRI
  0
TEXT
  8
4
  6
CONTINUOUS
 10
24.867655
 20
50.490420
 40
0.300000
 50
450.000000
  1
C14
  7
TQS_CALIBRI
  0
TEXT
  8
4
  6
CONTINUOUS
 10
26.187655
 20
50.490420
 40
0.300000
 50
450.000000
  1
C15
  7
TQS_CALIBRI
  0
TEXT
  8
4
  6
CONTINUOUS
 10
27.547655
 20
49.372169
 40
0.300000
 50
90.000000
  1
C16
  7
TQS_CALIBRI
  0
TEXT
  8
4
  6
CONTINUOUS
 10
28.867655
 20
49.372169
 40
0.300000
 50
90.000000
  1
C17
  7
TQS_CALIBRI
  0
TEXT
  8
4
  6
CONTINUOUS
 10
30.187655
 20
49.372169
 40
0.300000
 50
90.000000
  1
C18
  7
TQS_CALIBRI
  0
TEXT
  8
4
  6
CONTINUOUS
 10
31.547655
 20
50.846891
 40
0.300000
 50
90.000000
  1
C19
  7
TQS_CALIBRI
  0
TEXT
  8
4
  6
CONTINUOUS
 10
32.867655
 20
50.846891
 40
0.300000
 50
90.000000
  1
C20
  7
TQS_CALIBRI
  0
TEXT
  8
4
  6
CONTINUOUS
 10
34.187655
 20
50.846891
 40
0.300000
 50
90.000000
  1
C21
  7
TQS_CALIBRI
  0
TEXT
  8
4
  6
CONTINUOUS
 10
35.547655
 20
49.722742
 40
0.300000
 50
450.000000
  1
C22
  7
TQS_CALIBRI
  0
TEXT
  8
4
  6
CONTINUOUS
 10
36.867655
 20
49.722742
 40
0.300000
 50
450.000000
  1
C23
  7
TQS_CALIBRI
  0
TEXT
  8
4
  6
CONTINUOUS
 10
38.187655
 20
49.722742
 40
0.300000
 50
450.000000
  1
C24
  7
TQS_CALIBRI
  0
TEXT
  8
4
  6
CONTINUOUS
 10
39.802888
 20
51.190202
 40
0.300000
 50
450.000000
  1
C25
  7
TQS_CALIBRI
  0
TEXT
  8
4
  6
CONTINUOUS
 10
41.622888
 20
51.190202
 40
0.300000
 50
450.000000
  1
C26
  7
TQS_CALIBRI
  0
TEXT
  8
4
  6
CONTINUOUS
 10
43.442888
 20
51.190202
 40
0.300000
 50
450.000000
  1
C27
  7
TQS_CALIBRI
  0
TEXT
  8
4
  6
CONTINUOUS
 10
45.116780
 20
49.429131
 40
0.300000
 50
90.000000
  1
C28
  7
TQS_CALIBRI
  0
TEXT
  8
4
  6
CONTINUOUS
 10
46.536780
 20
49.429131
 40
0.300000
 50
90.000000
  1
C29
  7
TQS_CALIBRI
  0
TEXT
  8
4
  6
CONTINUOUS
 10
47.956780
 20
49.429131
 40
0.300000
 50
90.000000
  1
C30
  7
TQS_CALIBRI
  0
TEXT
  8
4
  6
CONTINUOUS
 10
74.026683
 20
13.288116
 40
0.300000
 50
380.828270
  1
C32
  7
TQS_CALIBRI
  0
TEXT
  8
4
  6
CONTINUOUS
 10
74.844489
 20
11.138421
 40
0.300000
 50
380.828270
  1
C31
  7
TQS_CALIBRI
  0
TEXT
  8
4
  6
CONTINUOUS
 10
73.090608
 20
28.680692
 40
0.300000
 50
366.697951
  1
C43
  7
TQS_CALIBRI
  0
TEXT
  8
4
  6
CONTINUOUS
 10
73.172253
 20
27.985469
 40
0.300000
 50
366.697951
  1
C42
  7
TQS_CALIBRI
  0
TEXT
  8
4
  6
CONTINUOUS
 10
73.253898
 20
27.290247
 40
0.300000
 50
366.697951
  1
C41
  7
TQS_CALIBRI
  0
TEXT
  8
4
  6
CONTINUOUS
 10
73.335542
 20
26.595025
 40
0.300000
 50
366.697951
  1
C40
  7
TQS_CALIBRI
  0
TEXT
  8
4
  6
CONTINUOUS
 10
73.417187
 20
25.899802
 40
0.300000
 50
366.697951
  1
C39
  7
TQS_CALIBRI
  0
TEXT
  8
4
  6
CONTINUOUS
 10
73.498832
 20
25.204580
 40
0.300000
 50
366.697951
  1
C38
  7
TQS_CALIBRI
  0
TEXT
  8
4
  6
CONTINUOUS
 10
73.580476
 20
24.509357
 40
0.300000
 50
366.697951
  1
C37
  7
TQS_CALIBRI
  0
TEXT
  8
4
  6
CONTINUOUS
 10
73.474248
 20
19.241628
 40
0.300000
 50
380.828329
  1
C36
  7
TQS_CALIBRI
  0
TEXT
  8
4
  6
CONTINUOUS
 10
73.879597
 20
18.176127
 40
0.300000
 50
380.828329
  1
C35
  7
TQS_CALIBRI
  0
TEXT
  8
4
  6
CONTINUOUS
 10
74.284946
 20
17.110626
 40
0.300000
 50
380.828329
  1
C34
  7
TQS_CALIBRI
  0
TEXT
  8
4
  6
CONTINUOUS
 10
74.690295
 20
16.045125
 40
0.300000
 50
380.828329
  1
C33
  7
TQS_CALIBRI
  0
TEXT
  8
4
  6
CONTINUOUS
 10
72.721930
 20
31.620534
 40
0.300000
 50
180.000000
  1
C44
  7
TQS_CALIBRI
  0
TEXT
  8
4
  6
CONTINUOUS
 10
72.721930
 20
32.980534
 40
0.300000
 50
180.000000
  1
C45
  7
TQS_CALIBRI
  0
TEXT
  8
4
  6
CONTINUOUS
 10
72.721930
 20
34.340534
 40
0.300000
 50
180.000000
  1
C46
  7
TQS_CALIBRI
  0
TEXT
  8
4
  6
CONTINUOUS
 10
72.721930
 20
35.700534
 40
0.300000
 50
180.000000
  1
C47
  7
TQS_CALIBRI
  0
TEXT
  8
4
  6
CONTINUOUS
 10
72.721930
 20
37.060534
 40
0.300000
 50
180.000000
  1
C48
  7
TQS_CALIBRI
  0
TEXT
  8
4
  6
CONTINUOUS
 10
72.721930
 20
38.420534
 40
0.300000
 50
180.000000
  1
C49
  7
TQS_CALIBRI
  0
TEXT
  8
4
  6
CONTINUOUS
 10
64.708565
 20
39.626329
 40
0.300000
 50
180.000000
  1
C50
  7
TQS_CALIBRI
  0
TEXT
  8
4
  6
CONTINUOUS
 10
64.708565
 20
40.586329
 40
0.300000
 50
180.000000
  1
C51
  7
TQS_CALIBRI
  0
TEXT
  8
4
  6
CONTINUOUS
 10
64.708565
 20
41.546329
 40
0.300000
 50
180.000000
  1
C52
  7
TQS_CALIBRI
  0
TEXT
  8
1
  6
CONTINUOUS
 10
77.822472
 20
78.138670
 40
0.220000
  1
CABO
  7
TQS_CALIBRI
  0
TEXT
  8
1
  6
CONTINUOUS
 10
84.886953
 20
78.428670
 40
0.220000
  1
COMPRIMENTO
  7
TQS_CALIBRI
  0
TEXT
  8
1
  6
CONTINUOUS
 10
87.881259
 20
77.928670
 40
0.220000
  1
TOTAL
  7
TQS_CALIBRI
  0
TEXT
  8
1
  6
CONTINUOUS
 10
90.711613
 20
77.928670
 40
0.220000
  1
A
  7
TQS_CALIBRI
  0
TEXT
  8
1
  6
CONTINUOUS
 10
91.756429
 20
77.928670
 40
0.220000
  1
P
  7
TQS_CALIBRI
  0
TEXT
  8
1
  6
CONTINUOUS
 10
92.801245
 20
77.928670
 40
0.220000
  1
I
  7
TQS_CALIBRI
  0
TEXT
  8
1
  6
CONTINUOUS
 10
90.728926
 20
78.428670
 40
0.220000
  1
ANCORAGENS
  7
TQS_CALIBRI
  0
TEXT
  8
1
  6
CONTINUOUS
 10
82.281433
 20
78.138670
 40
0.220000
  1
Q
  7
TQS_CALIBRI
  0
TEXT
  8
1
  6
CONTINUOUS
 10
78.981094
 20
79.088670
 40
0.400000
  1
PROTENSÃO: AÇO
  7
TQS_CALIBRI
  0
TEXT
  8
1
  6
CONTINUOUS
 10
84.299823
 20
77.928670
 40
0.220000
  1
UNITÁRIO
  7
TQS_CALIBRI
  0
TEXT
  8
1
  6
CONTINUOUS
 10
93.756308
 20
77.928670
 40
0.220000
  1
INI
  7
TQS_CALIBRI
  0
TEXT
  8
1
  6
CONTINUOUS
 10
95.323532
 20
77.928670
 40
0.220000
  1
FIN
  7
TQS_CALIBRI
  0
TEXT
  8
1
  6
CONTINUOUS
 10
80.210684
 20
78.140889
 40
0.220000
  1
%%c
  7
TQS_CALIBRI
  0
TEXT
  8
1
  6
CONTINUOUS
 10
93.850074
 20
78.428670
 40
0.220000
  1
ALONG
  7
TQS_CALIBRI
  0
TEXT
  8
1
  6
CONTINUOUS
 10
85.309324
 20
79.088670
 40
0.400000
  1
CP190 RB 12.7 - 12.7
  7
TQS_CALIBRI
  0
TEXT
  8
1
  6
CONTINUOUS
 10
80.495832
 20
78.140889
 40
0.220000
  1
(mm)
  7
TQS_CALIBRI
  0
TEXT
  8
1
  6
CONTINUOUS
 10
87.547029
 20
78.428670
 40
0.220000
  1
(m)
  7
TQS_CALIBRI
  0
TEXT
  8
1
  6
CONTINUOUS
 10
95.037570
 20
78.428670
 40
0.220000
  1
(mm)
  7
TQS_CALIBRI
  0
TEXT
  8
1
  6
CONTINUOUS
 10
77.467894
 20
77.428670
 40
0.220000
  1
C1 A C3
  7
TQS_CALIBRI
  0
TEXT
  8
1
  6
CONTINUOUS
 10
79.821375
 20
77.428670
 40
0.220000
  1
2 %%c 12.7
  7
TQS_CALIBRI
  0
TEXT
  8
1
  6
CONTINUOUS
 10
82.035772
 20
77.428670
 40
0.220000
  1
3
  7
TQS_CALIBRI
  0
TEXT
  8
1
  6
CONTINUOUS
 10
84.272355
 20
77.428670
 40
0.220000
  1
8.3
  7
TQS_CALIBRI
  0
TEXT
  8
1
  6
CONTINUOUS
 10
87.549188
 20
77.428670
 40
0.220000
  1
49.7
  7
TQS_CALIBRI
  0
TEXT
  8
1
  6
CONTINUOUS
 10
90.527160
 20
77.428670
 40
0.220000
  1
6
  7
TQS_CALIBRI
  0
TEXT
  8
1
  6
CONTINUOUS
 10
91.571976
 20
77.428670
 40
0.220000
  1
6
  7
TQS_CALIBRI
  0
TEXT
  8
1
  6
CONTINUOUS
 10
93.608799
 20
77.428670
 40
0.220000
  1
0
  7
TQS_CALIBRI
  0
TEXT
  8
1
  6
CONTINUOUS
 10
95.176023
 20
77.428670
 40
0.220000
  1
51
  7
TQS_CALIBRI
  0
TEXT
  8
1
  6
CONTINUOUS
 10
77.467894
 20
76.928669
 40
0.220000
  1
C4 A C6
  7
TQS_CALIBRI
  0
TEXT
  8
1
  6
CONTINUOUS
 10
79.821375
 20
76.928669
 40
0.220000
  1
3 %%c 12.7
  7
TQS_CALIBRI
  0
TEXT
  8
1
  6
CONTINUOUS
 10
82.035772
 20
76.928669
 40
0.220000
  1
3
  7
TQS_CALIBRI
  0
TEXT
  8
1
  6
CONTINUOUS
 10
84.272355
 20
76.928669
 40
0.220000
  1
8.2
  7
TQS_CALIBRI
  0
TEXT
  8
1
  6
CONTINUOUS
 10
87.549188
 20
76.928669
 40
0.220000
  1
74
  7
TQS_CALIBRI
  0
TEXT
  8
1
  6
CONTINUOUS
 10
90.527160
 20
76.928669
 40
0.220000
  1
9
  7
TQS_CALIBRI
  0
TEXT
  8
1
  6
CONTINUOUS
 10
91.571976
 20
76.928669
 40
0.220000
  1
9
  7
TQS_CALIBRI
  0
TEXT
  8
1
  6
CONTINUOUS
 10
93.608799
 20
76.928669
 40
0.220000
  1
0
  7
TQS_CALIBRI
  0
TEXT
  8
1
  6
CONTINUOUS
 10
95.176023
 20
76.928669
 40
0.220000
  1
51
  7
TQS_CALIBRI
  0
TEXT
  8
1
  6
CONTINUOUS
 10
77.467894
 20
76.428668
 40
0.220000
  1
C7 A C9
  7
TQS_CALIBRI
  0
TEXT
  8
1
  6
CONTINUOUS
 10
79.821375
 20
76.428668
 40
0.220000
  1
4 %%c 12.7
  7
TQS_CALIBRI
  0
TEXT
  8
1
  6
CONTINUOUS
 10
82.035772
 20
76.428668
 40
0.220000
  1
3
  7
TQS_CALIBRI
  0
TEXT
  8
1
  6
CONTINUOUS
 10
84.272355
 20
76.428668
 40
0.220000
  1
8.2
  7
TQS_CALIBRI
  0
TEXT
  8
1
  6
CONTINUOUS
 10
87.549188
 20
76.428668
 40
0.220000
  1
98.7
  7
TQS_CALIBRI
  0
TEXT
  8
1
  6
CONTINUOUS
 10
90.527160
 20
76.428668
 40
0.220000
  1
12
  7
TQS_CALIBRI
  0
TEXT
  8
1
  6
CONTINUOUS
 10
91.571976
 20
76.428668
 40
0.220000
  1
12
  7
TQS_CALIBRI
  0
TEXT
  8
1
  6
CONTINUOUS
 10
93.608799
 20
76.428668
 40
0.220000
  1
0
  7
TQS_CALIBRI
  0
TEXT
  8
1
  6
CONTINUOUS
 10
95.176023
 20
76.428668
 40
0.220000
  1
51
  7
TQS_CALIBRI
  0
TEXT
  8
1
  6
CONTINUOUS
 10
77.467894
 20
75.928667
 40
0.220000
  1
C10 A C12
  7
TQS_CALIBRI
  0
TEXT
  8
1
  6
CONTINUOUS
 10
79.821375
 20
75.928667
 40
0.220000
  1
   "
  7
TQS_CALIBRI
  0
TEXT
  8
1
  6
CONTINUOUS
 10
82.035772
 20
75.928667
 40
0.220000
  1
3
  7
TQS_CALIBRI
  0
TEXT
  8
1
  6
CONTINUOUS
 10
84.272355
 20
75.928667
 40
0.220000
  1
8.2
  7
TQS_CALIBRI
  0
TEXT
  8
1
  6
CONTINUOUS
 10
87.549188
 20
75.928667
 40
0.220000
  1
98.7
  7
TQS_CALIBRI
  0
TEXT
  8
1
  6
CONTINUOUS
 10
90.527160
 20
75.928667
 40
0.220000
  1
12
  7
TQS_CALIBRI
  0
TEXT
  8
1
  6
CONTINUOUS
 10
91.571976
 20
75.928667
 40
0.220000
  1
12
  7
TQS_CALIBRI
  0
TEXT
  8
1
  6
CONTINUOUS
 10
93.608799
 20
75.928667
 40
0.220000
  1
0
  7
TQS_CALIBRI
  0
TEXT
  8
1
  6
CONTINUOUS
 10
95.176023
 20
75.928667
 40
0.220000
  1
51
  7
TQS_CALIBRI
  0
TEXT
  8
1
  6
CONTINUOUS
 10
77.467894
 20
75.428667
 40
0.220000
  1
C13 A C15
  7
TQS_CALIBRI
  0
TEXT
  8
1
  6
CONTINUOUS
 10
79.821375
 20
75.428667
 40
0.220000
  1
   "
  7
TQS_CALIBRI
  0
TEXT
  8
1
  6
CONTINUOUS
 10
82.035772
 20
75.428667
 40
0.220000
  1
3
  7
TQS_CALIBRI
  0
TEXT
  8
1
  6
CONTINUOUS
 10
84.272355
 20
75.428667
 40
0.220000
  1
8.2
  7
TQS_CALIBRI
  0
TEXT
  8
1
  6
CONTINUOUS
 10
87.549188
 20
75.428667
 40
0.220000
  1
98.6
  7
TQS_CALIBRI
  0
TEXT
  8
1
  6
CONTINUOUS
 10
90.527160
 20
75.428667
 40
0.220000
  1
12
  7
TQS_CALIBRI
  0
TEXT
  8
1
  6
CONTINUOUS
 10
91.571976
 20
75.428667
 40
0.220000
  1
12
  7
TQS_CALIBRI
  0
TEXT
  8
1
  6
CONTINUOUS
 10
93.608799
 20
75.428667
 40
0.220000
  1
0
  7
TQS_CALIBRI
  0
TEXT
  8
1
  6
CONTINUOUS
 10
95.176023
 20
75.428667
 40
0.220000
  1
51
  7
TQS_CALIBRI
  0
TEXT
  8
1
  6
CONTINUOUS
 10
77.467894
 20
74.928666
 40
0.220000
  1
C16 A C18
  7
TQS_CALIBRI
  0
TEXT
  8
1
  6
CONTINUOUS
 10
79.821375
 20
74.928666
 40
0.220000
  1
   "
  7
TQS_CALIBRI
  0
TEXT
  8
1
  6
CONTINUOUS
 10
82.035772
 20
74.928666
 40
0.220000
  1
3
  7
TQS_CALIBRI
  0
TEXT
  8
1
  6
CONTINUOUS
 10
84.272355
 20
74.928666
 40
0.220000
  1
8.2
  7
TQS_CALIBRI
  0
TEXT
  8
1
  6
CONTINUOUS
 10
87.549188
 20
74.928666
 40
0.220000
  1
98.8
  7
TQS_CALIBRI
  0
TEXT
  8
1
  6
CONTINUOUS
 10
90.527160
 20
74.928666
 40
0.220000
  1
12
  7
TQS_CALIBRI
  0
TEXT
  8
1
  6
CONTINUOUS
 10
91.571976
 20
74.928666
 40
0.220000
  1
12
  7
TQS_CALIBRI
  0
TEXT
  8
1
  6
CONTINUOUS
 10
93.608799
 20
74.928666
 40
0.220000
  1
0
  7
TQS_CALIBRI
  0
TEXT
  8
1
  6
CONTINUOUS
 10
95.176023
 20
74.928666
 40
0.220000
  1
51
  7
TQS_CALIBRI
  0
TEXT
  8
1
  6
CONTINUOUS
 10
77.467894
 20
74.428665
 40
0.220000
  1
C19 A C21
  7
TQS_CALIBRI
  0
TEXT
  8
1
  6
CONTINUOUS
 10
79.821375
 20
74.428665
 40
0.220000
  1
3 %%c 12.7
  7
TQS_CALIBRI
  0
TEXT
  8
1
  6
CONTINUOUS
 10
82.035772
 20
74.428665
 40
0.220000
  1
3
  7
TQS_CALIBRI
  0
TEXT
  8
1
  6
CONTINUOUS
 10
84.272355
 20
74.428665
 40
0.220000
  1
8.2
  7
TQS_CALIBRI
  0
TEXT
  8
1
  6
CONTINUOUS
 10
87.549188
 20
74.428665
 40
0.220000
  1
74.1
  7
TQS_CALIBRI
  0
TEXT
  8
1
  6
CONTINUOUS
 10
90.527160
 20
74.428665
 40
0.220000
  1
9
  7
TQS_CALIBRI
  0
TEXT
  8
1
  6
CONTINUOUS
 10
91.571976
 20
74.428665
 40
0.220000
  1
9
  7
TQS_CALIBRI
  0
TEXT
  8
1
  6
CONTINUOUS
 10
93.608799
 20
74.428665
 40
0.220000
  1
0
  7
TQS_CALIBRI
  0
TEXT
  8
1
  6
CONTINUOUS
 10
95.176023
 20
74.428665
 40
0.220000
  1
51
  7
TQS_CALIBRI
  0
TEXT
  8
1
  6
CONTINUOUS
 10
77.467894
 20
73.928665
 40
0.220000
  1
C22 A C24
  7
TQS_CALIBRI
  0
TEXT
  8
1
  6
CONTINUOUS
 10
79.821375
 20
73.928665
 40
0.220000
  1
2 %%c 12.7
  7
TQS_CALIBRI
  0
TEXT
  8
1
  6
CONTINUOUS
 10
82.035772
 20
73.928665
 40
0.220000
  1
3
  7
TQS_CALIBRI
  0
TEXT
  8
1
  6
CONTINUOUS
 10
84.272355
 20
73.928665
 40
0.220000
  1
8.2
  7
TQS_CALIBRI
  0
TEXT
  8
1
  6
CONTINUOUS
 10
87.549188
 20
73.928665
 40
0.220000
  1
49.4
  7
TQS_CALIBRI
  0
TEXT
  8
1
  6
CONTINUOUS
 10
90.527160
 20
73.928665
 40
0.220000
  1
6
  7
TQS_CALIBRI
  0
TEXT
  8
1
  6
CONTINUOUS
 10
91.571976
 20
73.928665
 40
0.220000
  1
6
  7
TQS_CALIBRI
  0
TEXT
  8
1
  6
CONTINUOUS
 10
93.608799
 20
73.928665
 40
0.220000
  1
0
  7
TQS_CALIBRI
  0
TEXT
  8
1
  6
CONTINUOUS
 10
95.176023
 20
73.928665
 40
0.220000
  1
51
  7
TQS_CALIBRI
  0
TEXT
  8
1
  6
CONTINUOUS
 10
77.467894
 20
73.428664
 40
0.220000
  1
C25 A C27
  7
TQS_CALIBRI
  0
TEXT
  8
1
  6
CONTINUOUS
 10
79.821375
 20
73.428664
 40
0.220000
  1
   "
  7
TQS_CALIBRI
  0
TEXT
  8
1
  6
CONTINUOUS
 10
82.035772
 20
73.428664
 40
0.220000
  1
3
  7
TQS_CALIBRI
  0
TEXT
  8
1
  6
CONTINUOUS
 10
84.272355
 20
73.428664
 40
0.220000
  1
8.2
  7
TQS_CALIBRI
  0
TEXT
  8
1
  6
CONTINUOUS
 10
87.549188
 20
73.428664
 40
0.220000
  1
49.3
  7
TQS_CALIBRI
  0
TEXT
  8
1
  6
CONTINUOUS
 10
90.527160
 20
73.428664
 40
0.220000
  1
6
  7
TQS_CALIBRI
  0
TEXT
  8
1
  6
CONTINUOUS
 10
91.571976
 20
73.428664
 40
0.220000
  1
6
  7
TQS_CALIBRI
  0
TEXT
  8
1
  6
CONTINUOUS
 10
93.608799
 20
73.428664
 40
0.220000
  1
0
  7
TQS_CALIBRI
  0
TEXT
  8
1
  6
CONTINUOUS
 10
95.176023
 20
73.428664
 40
0.220000
  1
49
  7
TQS_CALIBRI
  0
TEXT
  8
1
  6
CONTINUOUS
 10
77.467894
 20
72.928663
 40
0.220000
  1
C28 A C30
  7
TQS_CALIBRI
  0
TEXT
  8
1
  6
CONTINUOUS
 10
79.821375
 20
72.928663
 40
0.220000
  1
   "
  7
TQS_CALIBRI
  0
TEXT
  8
1
  6
CONTINUOUS
 10
82.035772
 20
72.928663
 40
0.220000
  1
3
  7
TQS_CALIBRI
  0
TEXT
  8
1
  6
CONTINUOUS
 10
84.272355
 20
72.928663
 40
0.220000
  1
7.5
  7
TQS_CALIBRI
  0
TEXT
  8
1
  6
CONTINUOUS
 10
87.549188
 20
72.928663
 40
0.220000
  1
45.2
  7
TQS_CALIBRI
  0
TEXT
  8
1
  6
CONTINUOUS
 10
90.527160
 20
72.928663
 40
0.220000
  1
6
  7
TQS_CALIBRI
  0
TEXT
  8
1
  6
CONTINUOUS
 10
91.571976
 20
72.928663
 40
0.220000
  1
6
  7
TQS_CALIBRI
  0
TEXT
  8
1
  6
CONTINUOUS
 10
93.608799
 20
72.928663
 40
0.220000
  1
0
  7
TQS_CALIBRI
  0
TEXT
  8
1
  6
CONTINUOUS
 10
95.176023
 20
72.928663
 40
0.220000
  1
45
  7
TQS_CALIBRI
  0
TEXT
  8
1
  6
CONTINUOUS
 10
77.467894
 20
72.428662
 40
0.220000
  1
C31 A C32
  7
TQS_CALIBRI
  0
TEXT
  8
1
  6
CONTINUOUS
 10
79.821375
 20
72.428662
 40
0.220000
  1
   "
  7
TQS_CALIBRI
  0
TEXT
  8
1
  6
CONTINUOUS
 10
82.035772
 20
72.428662
 40
0.220000
  1
2
  7
TQS_CALIBRI
  0
TEXT
  8
1
  6
CONTINUOUS
 10
84.272355
 20
72.428662
 40
0.220000
  1
17.6
  7
TQS_CALIBRI
  0
TEXT
  8
1
  6
CONTINUOUS
 10
87.549188
 20
72.428662
 40
0.220000
  1
70.2
  7
TQS_CALIBRI
  0
TEXT
  8
1
  6
CONTINUOUS
 10
90.527160
 20
72.428662
 40
0.220000
  1
4
  7
TQS_CALIBRI
  0
TEXT
  8
1
  6
CONTINUOUS
 10
91.571976
 20
72.428662
 40
0.220000
  1
4
  7
TQS_CALIBRI
  0
TEXT
  8
1
  6
CONTINUOUS
 10
93.608799
 20
72.428662
 40
0.220000
  1
0
  7
TQS_CALIBRI
  0
TEXT
  8
1
  6
CONTINUOUS
 10
95.176023
 20
72.428662
 40
0.220000
  1
118
  7
TQS_CALIBRI
  0
TEXT
  8
1
  6
CONTINUOUS
 10
77.467894
 20
71.928662
 40
0.220000
  1
C33 A C36
  7
TQS_CALIBRI
  0
TEXT
  8
1
  6
CONTINUOUS
 10
79.821375
 20
71.928662
 40
0.220000
  1
   "
  7
TQS_CALIBRI
  0
TEXT
  8
1
  6
CONTINUOUS
 10
82.035772
 20
71.928662
 40
0.220000
  1
4
  7
TQS_CALIBRI
  0
TEXT
  8
1
  6
CONTINUOUS
 10
84.272355
 20
71.928662
 40
0.220000
  1
17.8
  7
TQS_CALIBRI
  0
TEXT
  8
1
  6
CONTINUOUS
 10
87.549188
 20
71.928662
 40
0.220000
  1
142.7
  7
TQS_CALIBRI
  0
TEXT
  8
1
  6
CONTINUOUS
 10
90.527160
 20
71.928662
 40
0.220000
  1
8
  7
TQS_CALIBRI
  0
TEXT
  8
1
  6
CONTINUOUS
 10
91.571976
 20
71.928662
 40
0.220000
  1
8
  7
TQS_CALIBRI
  0
TEXT
  8
1
  6
CONTINUOUS
 10
93.608799
 20
71.928662
 40
0.220000
  1
0
  7
TQS_CALIBRI
  0
TEXT
  8
1
  6
CONTINUOUS
 10
95.176023
 20
71.928662
 40
0.220000
  1
120
  7
TQS_CALIBRI
  0
TEXT
  8
1
  6
CONTINUOUS
 10
77.467894
 20
71.428661
 40
0.220000
  1
C37 A C43
  7
TQS_CALIBRI
  0
TEXT
  8
1
  6
CONTINUOUS
 10
79.821375
 20
71.428661
 40
0.220000
  1
   "
  7
TQS_CALIBRI
  0
TEXT
  8
1
  6
CONTINUOUS
 10
82.035772
 20
71.428661
 40
0.220000
  1
7
  7
TQS_CALIBRI
  0
TEXT
  8
1
  6
CONTINUOUS
 10
84.272355
 20
71.428661
 40
0.220000
  1
17.6
  7
TQS_CALIBRI
  0
TEXT
  8
1
  6
CONTINUOUS
 10
87.549188
 20
71.428661
 40
0.220000
  1
246.6
  7
TQS_CALIBRI
  0
TEXT
  8
1
  6
CONTINUOUS
 10
90.527160
 20
71.428661
 40
0.220000
  1
14
  7
TQS_CALIBRI
  0
TEXT
  8
1
  6
CONTINUOUS
 10
91.571976
 20
71.428661
 40
0.220000
  1
14
  7
TQS_CALIBRI
  0
TEXT
  8
1
  6
CONTINUOUS
 10
93.608799
 20
71.428661
 40
0.220000
  1
0
  7
TQS_CALIBRI
  0
TEXT
  8
1
  6
CONTINUOUS
 10
95.176023
 20
71.428661
 40
0.220000
  1
118
  7
TQS_CALIBRI
  0
TEXT
  8
1
  6
CONTINUOUS
 10
77.467894
 20
70.928660
 40
0.220000
  1
C44 A C49
  7
TQS_CALIBRI
  0
TEXT
  8
1
  6
CONTINUOUS
 10
79.821375
 20
70.928660
 40
0.220000
  1
   "
  7
TQS_CALIBRI
  0
TEXT
  8
1
  6
CONTINUOUS
 10
82.035772
 20
70.928660
 40
0.220000
  1
6
  7
TQS_CALIBRI
  0
TEXT
  8
1
  6
CONTINUOUS
 10
84.272355
 20
70.928660
 40
0.220000
  1
18.1
  7
TQS_CALIBRI
  0
TEXT
  8
1
  6
CONTINUOUS
 10
87.549188
 20
70.928660
 40
0.220000
  1
217.4
  7
TQS_CALIBRI
  0
TEXT
  8
1
  6
CONTINUOUS
 10
90.527160
 20
70.928660
 40
0.220000
  1
12
  7
TQS_CALIBRI
  0
TEXT
  8
1
  6
CONTINUOUS
 10
91.571976
 20
70.928660
 40
0.220000
  1
12
  7
TQS_CALIBRI
  0
TEXT
  8
1
  6
CONTINUOUS
 10
93.608799
 20
70.928660
 40
0.220000
  1
0
  7
TQS_CALIBRI
  0
TEXT
  8
1
  6
CONTINUOUS
 10
95.176023
 20
70.928660
 40
0.220000
  1
122
  7
TQS_CALIBRI
  0
TEXT
  8
1
  6
CONTINUOUS
 10
77.467894
 20
70.428659
 40
0.220000
  1
C50 A C52
  7
TQS_CALIBRI
  0
TEXT
  8
1
  6
CONTINUOUS
 10
79.821375
 20
70.428659
 40
0.220000
  1
1 %%c 12.7
  7
TQS_CALIBRI
  0
TEXT
  8
1
  6
CONTINUOUS
 10
82.035772
 20
70.428659
 40
0.220000
  1
3
  7
TQS_CALIBRI
  0
TEXT
  8
1
  6
CONTINUOUS
 10
84.272355
 20
70.428659
 40
0.220000
  1
10.8
  7
TQS_CALIBRI
  0
TEXT
  8
1
  6
CONTINUOUS
 10
87.549188
 20
70.428659
 40
0.220000
  1
32.3
  7
TQS_CALIBRI
  0
TEXT
  8
1
  6
CONTINUOUS
 10
90.527160
 20
70.428659
 40
0.220000
  1
3
  7
TQS_CALIBRI
  0
TEXT
  8
1
  6
CONTINUOUS
 10
91.571976
 20
70.428659
 40
0.220000
  1
3
  7
TQS_CALIBRI
  0
TEXT
  8
1
  6
CONTINUOUS
 10
93.608799
 20
70.428660
 40
0.220000
  1
0
  7
TQS_CALIBRI
  0
TEXT
  8
1
  6
CONTINUOUS
 10
95.176023
 20
70.428660
 40
0.220000
  1
69
  7
TQS_CALIBRI
  0
TEXT
  8
1
  6
CONTINUOUS
 10
77.954035
 20
67.428659
 40
0.220000
  1
%%c
  7
TQS_CALIBRI
  0
TEXT
  8
1
  6
CONTINUOUS
 10
81.527573
 20
67.928659
 40
0.220000
  1
CABO
  7
TQS_CALIBRI
  0
TEXT
  8
1
  6
CONTINUOUS
 10
87.712133
 20
67.178659
 40
0.220000
  1
A
  7
TQS_CALIBRI
  0
TEXT
  8
1
  6
CONTINUOUS
 10
88.756948
 20
67.178659
 40
0.220000
  1
P
  7
TQS_CALIBRI
  0
TEXT
  8
1
  6
CONTINUOUS
 10
89.801765
 20
67.178659
 40
0.220000
  1
I
  7
TQS_CALIBRI
  0
TEXT
  8
1
  6
CONTINUOUS
 10
84.023332
 20
67.428659
 40
0.220000
  1
PESO
  7
TQS_CALIBRI
  0
TEXT
  8
1
  6
CONTINUOUS
 10
87.782312
 20
67.928659
 40
0.220000
  1
ANCORAGENS
  7
TQS_CALIBRI
  0
TEXT
  8
1
  6
CONTINUOUS
 10
79.861092
 20
69.011991
 40
0.400000
  1
RESUMO DE PROTENSÃO
  7
TQS_CALIBRI
  0
TEXT
  8
1
  6
CONTINUOUS
 10
79.399229
 20
68.449292
 40
0.300000
  1
Monocordoalhas não aderentes
  7
TQS_CALIBRI
  0
TEXT
  8
1
  6
CONTINUOUS
 10
79.790330
 20
67.428659
 40
0.220000
  1
COMPR
  7
TQS_CALIBRI
  0
TEXT
  8
1
  6
CONTINUOUS
 10
81.640118
 20
66.928659
 40
0.220000
  1
kgf/m
  7
TQS_CALIBRI
  0
TEXT
  8
1
  6
CONTINUOUS
 10
83.791895
 20
66.928659
 40
0.220000
  1
kgf
  7
TQS_CALIBRI
  0
TEXT
  8
1
  6
CONTINUOUS
 10
85.606287
 20
66.928659
 40
0.220000
  1
kgf+4%
  7
TQS_CALIBRI
  0
TEXT
  8
1
  6
CONTINUOUS
 10
79.794876
 20
66.928659
 40
0.220000
  1
m
  7
TQS_CALIBRI
  0
TEXT
  8
1
  6
CONTINUOUS
 10
77.932415
 20
66.928659
 40
0.220000
  1
mm
  7
TQS_CALIBRI
  0
TEXT
  8
1
  6
CONTINUOUS
 10
79.520192
 20
66.428658
 40
0.220000
  1
871
  7
TQS_CALIBRI
  0
TEXT
  8
1
  6
CONTINUOUS
 10
88.565789
 20
66.428659
 40
0.220000
  1
62
  7
TQS_CALIBRI
  0
TEXT
  8
1
  6
CONTINUOUS
 10
87.520972
 20
66.428659
 40
0.220000
  1
62
  7
TQS_CALIBRI
  0
TEXT
  8
1
  6
CONTINUOUS
 10
81.640118
 20
66.428658
 40
0.220000
  1
0.886
  7
TQS_CALIBRI
  0
TEXT
  8
1
  6
CONTINUOUS
 10
83.229447
 20
66.428658
 40
0.220000
  1
771
  7
TQS_CALIBRI
  0
TEXT
  8
1
  6
CONTINUOUS
 10
85.289445
 20
66.428658
 40
0.220000
  1
802
  7
TQS_CALIBRI
  0
TEXT
  8
1
  6
CONTINUOUS
 10
77.332259
 20
66.428658
 40
0.220000
  1
2 %%c 12.7
  7
TQS_CALIBRI
  0
TEXT
  8
1
  6
CONTINUOUS
 10
79.520192
 20
65.928658
 40
0.220000
  1
148
  7
TQS_CALIBRI
  0
TEXT
  8
1
  6
CONTINUOUS
 10
88.565789
 20
65.928658
 40
0.220000
  1
18
  7
TQS_CALIBRI
  0
TEXT
  8
1
  6
CONTINUOUS
 10
87.520972
 20
65.928658
 40
0.220000
  1
18
  7
TQS_CALIBRI
  0
TEXT
  8
1
  6
CONTINUOUS
 10
81.640118
 20
65.928658
 40
0.220000
  1
0.886
  7
TQS_CALIBRI
  0
TEXT
  8
1
  6
CONTINUOUS
 10
83.229447
 20
65.928658
 40
0.220000
  1
131
  7
TQS_CALIBRI
  0
TEXT
  8
1
  6
CONTINUOUS
 10
85.289445
 20
65.928658
 40
0.220000
  1
137
  7
TQS_CALIBRI
  0
TEXT
  8
1
  6
CONTINUOUS
 10
77.332259
 20
65.928658
 40
0.220000
  1
3 %%c 12.7
  7
TQS_CALIBRI
  0
TEXT
  8
1
  6
CONTINUOUS
 10
79.520192
 20
65.428657
 40
0.220000
  1
395
  7
TQS_CALIBRI
  0
TEXT
  8
1
  6
CONTINUOUS
 10
88.565789
 20
65.428657
 40
0.220000
  1
48
  7
TQS_CALIBRI
  0
TEXT
  8
1
  6
CONTINUOUS
 10
87.520972
 20
65.428657
 40
0.220000
  1
48
  7
TQS_CALIBRI
  0
TEXT
  8
1
  6
CONTINUOUS
 10
81.640118
 20
65.428657
 40
0.220000
  1
0.886
  7
TQS_CALIBRI
  0
TEXT
  8
1
  6
CONTINUOUS
 10
83.229447
 20
65.428657
 40
0.220000
  1
350
  7
TQS_CALIBRI
  0
TEXT
  8
1
  6
CONTINUOUS
 10
85.289445
 20
65.428657
 40
0.220000
  1
364
  7
TQS_CALIBRI
  0
TEXT
  8
1
  6
CONTINUOUS
 10
77.332259
 20
65.428657
 40
0.220000
  1
4 %%c 12.7
  7
TQS_CALIBRI
  0
TEXT
  8
1
  6
CONTINUOUS
 10
79.520192
 20
64.928656
 40
0.220000
  1
32
  7
TQS_CALIBRI
  0
TEXT
  8
1
  6
CONTINUOUS
 10
88.565789
 20
64.928657
 40
0.220000
  1
3
  7
TQS_CALIBRI
  0
TEXT
  8
1
  6
CONTINUOUS
 10
87.520972
 20
64.928657
 40
0.220000
  1
3
  7
TQS_CALIBRI
  0
TEXT
  8
1
  6
CONTINUOUS
 10
81.640118
 20
64.928656
 40
0.220000
  1
0.886
  7
TQS_CALIBRI
  0
TEXT
  8
1
  6
CONTINUOUS
 10
83.229447
 20
64.928656
 40
0.220000
  1
29
  7
TQS_CALIBRI
  0
TEXT
  8
1
  6
CONTINUOUS
 10
85.289445
 20
64.928656
 40
0.220000
  1
30
  7
TQS_CALIBRI
  0
TEXT
  8
1
  6
CONTINUOUS
 10
77.332259
 20
64.928656
 40
0.220000
  1
1 %%c 12.7
  7
TQS_CALIBRI
  0
TEXT
  8
1
  6
CONTINUOUS
 10
101.932386
 20
23.396411
 40
0.350000
  1
NOTAS:
  7
TQS_CALIBRI
  0
TEXT
  8
2
  6
CONTINUOUS
 10
101.965840
 20
22.812661
 40
0.240000
  1
1) CONFERIR INFORMAÇÕES DA TABELA ACIMA (TABELA DE FERRERAGEM) NA OBRA
  7
TQS_CALIBRI
  0
TEXT
  8
2
  6
CONTINUOUS
 10
101.965840
 20
22.343353
 40
0.240000
  1
ANTES DA COMPRA DAS ARMADURAS.
  7
TQS_CALIBRI
  0
TEXT
  8
1
  6
CONTINUOUS
 10
102.073109
 20
8.835799
 40
0.455000
  1
ENGENHARIA
  7
TQS_CALIBRI
  0
TEXT
  8
1
  6
CONTINUOUS
 10
101.876737
 20
16.222571
 40
0.250000
  1
REV
  7
TQS_CALIBRI
  0
TEXT
  8
1
  6
CONTINUOUS
 10
103.356169
 20
16.222571
 40
0.250000
  1
DATA
  7
TQS_CALIBRI
  0
TEXT
  8
1
  6
CONTINUOUS
 10
105.030516
 20
16.222571
 40
0.250000
  1
ASSUNTO
  7
TQS_CALIBRI
  0
TEXT
  8
1
  6
CONTINUOUS
 10
101.832253
 20
14.047181
 40
0.250000
  1
PROPRIETÁRIO - 
  7
TQS_CALIBRI
  0
TEXT
  8
1
  6
CONTINUOUS
 10
108.042444
 20
2.579059
 40
0.250000
  1
ENGENHEIRO:
  7
TQS_CALIBRI
  0
TEXT
  8
1
  6
CONTINUOUS
 10
108.046365
 20
2.149652
 40
0.250000
  1
CREA REG.:
  7
TQS_CALIBRI
  0
TEXT
  8
1
  6
CONTINUOUS
 10
110.430567
 20
2.160333
 40
0.250000
  1
020930945-8
  7
TQS_CALIBRI
  0
TEXT
  8
1
  6
CONTINUOUS
 10
103.739739
 20
9.759850
 40
1.000000
  1
VGF
  7
TQS_CALIBRI
  0
TEXT
  8
1
  6
CONTINUOUS
 10
101.832253
 20
12.147181
 40
0.250000
  1
PROJETO              Eng. Civil - CREA:020930945-8
  7
TQS_CALIBRI
  0
TEXT
  8
1
  6
CONTINUOUS
 10
101.800510
 20
2.752624
 40
0.150000
  1
DATA:
  7
TQS_CALIBRI
  0
TEXT
  8
1
  6
CONTINUOUS
 10
101.788178
 20
1.752624
 40
0.150000
  1
FASE:
  7
TQS_CALIBRI
  0
TEXT
  8
1
  6
CONTINUOUS
 10
105.124829
 20
2.752624
 40
0.150000
  1
ESCALA:
  7
TQS_CALIBRI
  0
TEXT
  8
1
  6
CONTINUOUS
 10
105.112497
 20
1.752624
 40
0.150000
  1
PLANTA:
  7
TQS_CALIBRI
  0
TEXT
  8
1
  6
CONTINUOUS
 10
101.800510
 20
6.352624
 40
0.150000
  1
TÍTULO:
  7
TQS_CALIBRI
  0
TEXT
  8
1
  6
CONTINUOUS
 10
101.787482
 20
5.577767
 40
0.150000
  1
ELEMENTOS DA PRANCHA:
  7
TQS_CALIBRI
  0
TEXT
  8
1
  6
CONTINUOUS
 10
101.800510
 20
8.252624
 40
0.150000
  1
EMPREENDIMENTO/LOCAL:
  7
TQS_CALIBRI
  0
TEXT
  8
1
  6
CONTINUOUS
 10
106.761120
 20
11.025301
 40
0.150000
  1
CONTATOS:
  7
TQS_CALIBRI
  0
TEXT
  8
1
  6
CONTINUOUS
 10
114.224829
 20
2.752624
 40
0.150000
  1
PLANTA-REVISÃO:
  7
TQS_CALIBRI
  0
TEXT
  8
1
  6
CONTINUOUS
 10
102.041441
 20
16.843956
 40
0.200000
  1
00
  7
TQS_CALIBRI
  0
TEXT
  8
1
  6
CONTINUOUS
 10
102.041441
 20
17.343956
 40
0.200000
  1
01
  7
TQS_CALIBRI
  0
TEXT
  8
1
  6
CONTINUOUS
 10
102.041441
 20
17.843956
 40
0.200000
  1
02
  7
TQS_CALIBRI
  0
TEXT
  8
1
  6
CONTINUOUS
 10
102.041441
 20
18.343956
 40
0.200000
  1
03
  7
TQS_CALIBRI
  0
TEXT
  8
1
  6
CONTINUOUS
 10
102.041441
 20
18.843956
 40
0.200000
  1
04
  7
TQS_CALIBRI
  0
TEXT
  8
1
  6
CONTINUOUS
 10
102.041441
 20
19.343956
 40
0.200000
  1
05
  7
TQS_CALIBRI
  0
TEXT
  8
1
  6
CONTINUOUS
 10
102.041441
 20
19.843956
 40
0.200000
  1
06
  7
TQS_CALIBRI
  0
TEXT
  8
1
  6
CONTINUOUS
 10
102.041441
 20
20.343956
 40
0.200000
  1
07
  7
TQS_CALIBRI
  0
TEXT
  8
1
  6
CONTINUOUS
 10
102.041441
 20
20.843956
 40
0.200000
  1
08
  7
TQS_CALIBRI
  0
TEXT
  8
1
  6
CONTINUOUS
 10
102.041441
 20
21.343956
 40
0.200000
  1
09
  7
TQS_CALIBRI
  0
TEXT
  8
1
  6
CONTINUOUS
 10
102.041441
 20
21.843956
 40
0.200000
  1
10
  7
TQS_CALIBRI
  0
TEXT
  8
1
  6
CONTINUOUS
 10
116.437973
 20
16.222571
 40
0.250000
  1
AUTOR
  7
TQS_CALIBRI
  0
TEXT
  8
1
  6
CONTINUOUS
 10
106.749019
 20
10.335784
 40
0.195000
  1
Tel: 99928-2128
  7
TQS_CALIBRI
  0
TEXT
  8
1
  6
CONTINUOUS
 10
106.749019
 20
10.012284
 40
0.195000
  1
franciscogonca@hotmail.com 
  7
TQS_CALIBRI
  0
TEXT
  8
1
  6
CONTINUOUS
 10
106.749019
 20
9.680784
 40
0.195000
  1
Tel: 99981-6458
  7
TQS_CALIBRI
  0
TEXT
  8
1
  6
CONTINUOUS
 10
106.749019
 20
9.357284
 40
0.195000
  1
tiago@vgfengenharia.com.br 
  7
TQS_CALIBRI
  0
TEXT
  8
1
  6
CONTINUOUS
 10
106.749019
 20
9.025784
 40
0.195000
  1
Tel: 99912-8379
  7
TQS_CALIBRI
  0
TEXT
  8
1
  6
CONTINUOUS
 10
110.809443
 20
11.052624
 40
0.150000
  1
CLIENTE:
  7
TQS_CALIBRI
  0
TEXT
  8
1
  6
CONTINUOUS
 10
116.009770
 20
1.647683
 40
0.500000
  1
-R
  7
TQS_CALIBRI
  0
TEXT
  8
1
  6
CONTINUOUS
 10
101.832253
 20
12.547181
 40
0.250000
  1
RESPONSÁVEL -  Diego de Vasconcelos Gonçalves Ferreira
  7
TQS_CALIBRI
  0
TEXT
  8
1
  6
CONTINUOUS
 10
110.422141
 20
2.578345
 40
0.250000
  1
Diego Vasconcelos
  7
TQS_CALIBRI
  0
TEXT
  8
1
  6
CONTINUOUS
 10
106.749019
 20
10.667284
 40
0.195000
  1
diego@vgfengenharia.com.br 
  7
TQS_CALIBRI
  0
TEXT
  8
1
  6
CONTINUOUS
 10
104.982892
 20
16.853163
 40
0.200000
  1
Emissão inicial.
  7
TQS_CALIBRI
  0
TEXT
  8
1
  6
CONTINUOUS
 10
101.795719
 20
7.825700
 40
0.250000
  1
Assembléia Legislativa de Alagoas
  7
TQS_CALIBRI
  0
TEXT
  8
1
  6
CONTINUOUS
 10
104.517953
 20
14.045361
 40
0.250000
  1
ALA
  7
TQS_CALIBRI
  0
TEXT
  8
1
  6
CONTINUOUS
 10
101.789281
 20
2.263237
 40
0.250000
  1
26/02/2024
  7
TQS_CALIBRI
  0
TEXT
  8
1
  6
CONTINUOUS
 10
102.992347
 20
16.854551
 40
0.200000
  1
26/02/24
  7
TQS_CALIBRI
  0
TEXT
  8
1
  6
CONTINUOUS
 10
101.787954
 20
7.415393
 40
0.200000
  1
RUA SÁ E ALBUQUERQUE, NÚMERO 807, JARAGUÁ - MACEIÓ-AL
  7
TQS_CALIBRI
  0
TEXT
  8
1
  6
CONTINUOUS
 10
101.789859
 20
1.251887
 40
0.250000
  1
PE
  7
TQS_CALIBRI
  0
TEXT
  8
1
  6
CONTINUOUS
 10
105.114178
 20
1.251887
 40
0.250000
  1
CLA-EEM-EST-PE-0432-ARM-R00
  7
TQS_CALIBRI
  0
TEXT
  8
1
  6
CONTINUOUS
 10
116.547332
 20
16.842370
 40
0.200000
  1
DIEGO
  7
TQS_CALIBRI
  0
TEXT
  8
1
  6
CONTINUOUS
 10
114.396264
 20
1.644018
 40
0.500000
  1
0432
  7
TQS_CALIBRI
  0
TEXT
  8
1
  6
CONTINUOUS
 10
116.689770
 20
1.647683
 40
0.500000
  1
00
  7
TQS_CALIBRI
  0
TEXT
  8
1
  6
CONTINUOUS
 10
110.802729
 20
10.513659
 40
0.400000
  1
ALA
  7
TQS_CALIBRI
  0
TEXT
  8
1
  6
CONTINUOUS
 10
101.762319
 20
5.951739
 40
0.250000
  1
ARM. PROTENSÃO HORIZONTAL e VERTICAL(03-2Pavto) - 01 - F e I
  7
TQS_CALIBRI
  0
ENDSEC
  0
EOF
