  0
SECTION
  2
HEADER
  9
$ACADVER
  1
AC1002
  9
$USERI1
 70
0
  9
$INSBASE
 10
0.000000
 20
0.000000
  9
$EXTMIN
 10
0.000000
 20
0.000000
  9
$EXTMAX
 10
7.761771
 20
4.436620
  9
$LIMMIN
 10
0.000000
 20
0.000000
  9
$LIMMAX
 10
12.000000
 20
9.000000
  9
$VIEWCTR
 10
78.887138
 20
59.361758
  9
$VIEWSIZE
 40
127.522840
  9
$TEXTSIZE
 40
0.100000
  9
$TRACEWID
 40
0.010000
  9
$LTSCALE
 40
1.000000
  0
ENDSEC
  0
SECTION
  2
TABLES
  0
TABLE
  2
LTYPE
 70
     3
  0
LTYPE
  2
CONTINUOUS
 70
    64
  3
Solid line
 72
    65
 73
     0
 40
0.000000
  0
LTYPE
  2
ESTILO_TQS_0001
 70
    64
  3
-  -  -  -  -  -
 72
    65
 73
     2
 40
1.000000
 49
0.700000
 49
-0.300000
  0
LTYPE
  2
ESTILO_TQS_0002
 70
    64
  3
. . . . . . . .
 72
    65
 73
     2
 40
0.400000
 49
0.100000
 49
-0.300000
  0
LTYPE
  2
ESTILO_TQS_0003
 70
    64
  3
- . - . - . - .
 72
    65
 73
     4
 40
0.910000
 49
0.500000
 49
-0.200000
 49
0.010000
 49
-0.200000
  0
LTYPE
  2
ESTILO_TQS_0004
 70
    64
  3
- .. - .. - ..
 72
    65
 73
     6
 40
1.120000
 49
0.500000
 49
-0.200000
 49
0.010000
 49
-0.200000
 49
0.010000
 49
-0.200000
  0
LTYPE
  2
CONTINUOUS
 70
    64
  3
- - - - - - - -
 72
    65
 73
     2
 40
0.400000
 49
0.300000
 49
-0.100000
  0
ENDTAB
  0
TABLE
  2
LAYER
 70
    89
  0
LAYER
  2
0
 70
     0
 62
     7
  6
CONTINUOUS
  0
LAYER
  2
1
 70
     0
 62
     1
  6
CONTINUOUS
  0
LAYER
  2
2
 70
     0
 62
     2
  6
CONTINUOUS
  0
LAYER
  2
3
 70
     0
 62
     3
  6
CONTINUOUS
  0
LAYER
  2
4
 70
     0
 62
     4
  6
CONTINUOUS
  0
LAYER
  2
5
 70
     0
 62
     5
  6
CONTINUOUS
  0
LAYER
  2
6
 70
     0
 62
     6
  6
CONTINUOUS
  0
LAYER
  2
7
 70
     0
 62
     7
  6
CONTINUOUS
  0
LAYER
  2
8
 70
     0
 62
     8
  6
CONTINUOUS
  0
LAYER
  2
9
 70
     0
 62
     9
  6
CONTINUOUS
  0
LAYER
  2
10
 70
     0
 62
    10
  6
CONTINUOUS
  0
LAYER
  2
11
 70
     0
 62
    11
  6
CONTINUOUS
  0
LAYER
  2
12
 70
     0
 62
    12
  6
CONTINUOUS
  0
LAYER
  2
13
 70
     0
 62
    13
  6
CONTINUOUS
  0
LAYER
  2
14
 70
     0
 62
    14
  6
CONTINUOUS
  0
LAYER
  2
15
 70
     0
 62
    15
  6
CONTINUOUS
  0
LAYER
  2
16
 70
     0
 62
     7
  6
CONTINUOUS
  0
LAYER
  2
17
 70
     0
 62
     2
  6
CONTINUOUS
  0
LAYER
  2
18
 70
     0
 62
     4
  6
CONTINUOUS
  0
LAYER
  2
19
 70
     0
 62
     5
  6
CONTINUOUS
  0
LAYER
  2
20
 70
     0
 62
     4
  6
CONTINUOUS
  0
LAYER
  2
21
 70
     0
 62
     2
  6
CONTINUOUS
  0
LAYER
  2
22
 70
     0
 62
     1
  6
CONTINUOUS
  0
LAYER
  2
23
 70
     0
 62
     7
  6
CONTINUOUS
  0
LAYER
  2
24
 70
     0
 62
     6
  6
CONTINUOUS
  0
LAYER
  2
25
 70
     0
 62
     1
  6
CONTINUOUS
  0
LAYER
  2
26
 70
     0
 62
     3
  6
CONTINUOUS
  0
LAYER
  2
27
 70
     0
 62
     4
  6
CONTINUOUS
  0
LAYER
  2
28
 70
     0
 62
     4
  6
CONTINUOUS
  0
LAYER
  2
30
 70
     0
 62
     4
  6
CONTINUOUS
  0
LAYER
  2
100
 70
     0
 62
     1
  6
CONTINUOUS
  0
LAYER
  2
101
 70
     0
 62
     9
  6
CONTINUOUS
  0
LAYER
  2
102
 70
     0
 62
     7
  6
CONTINUOUS
  0
LAYER
  2
103
 70
     0
 62
     2
  6
CONTINUOUS
  0
LAYER
  2
104
 70
     0
 62
    11
  6
CONTINUOUS
  0
LAYER
  2
105
 70
     0
 62
     3
  6
CONTINUOUS
  0
LAYER
  2
106
 70
     0
 62
     5
  6
CONTINUOUS
  0
LAYER
  2
107
 70
     0
 62
     3
  6
CONTINUOUS
  0
LAYER
  2
108
 70
     0
 62
     5
  6
CONTINUOUS
  0
LAYER
  2
109
 70
     0
 62
     3
  6
CONTINUOUS
  0
LAYER
  2
197
 70
     0
 62
     3
  6
CONTINUOUS
  0
LAYER
  2
198
 70
     0
 62
     2
  6
CONTINUOUS
  0
LAYER
  2
199
 70
     0
 62
     6
  6
CONTINUOUS
  0
LAYER
  2
200
 70
     0
 62
     7
  6
ESTILO_TQS_0002
  0
LAYER
  2
201
 70
     0
 62
     7
  6
ESTILO_TQS_0001
  0
LAYER
  2
202
 70
     0
 62
     7
  6
CONTINUOUS
  0
LAYER
  2
203
 70
     0
 62
     7
  6
ESTILO_TQS_0001
  0
LAYER
  2
204
 70
     0
 62
     7
  6
ESTILO_TQS_0003
  0
LAYER
  2
205
 70
     0
 62
     5
  6
ESTILO_TQS_0004
  0
LAYER
  2
206
 70
     0
 62
    15
  6
CONTINUOUS
  0
LAYER
  2
207
 70
     0
 62
     2
  6
CONTINUOUS
  0
LAYER
  2
208
 70
     0
 62
     5
  6
CONTINUOUS
  0
LAYER
  2
210
 70
     0
 62
    15
  6
ESTILO_TQS_0002
  0
LAYER
  2
211
 70
     0
 62
     7
  6
ESTILO_TQS_0001
  0
LAYER
  2
214
 70
     0
 62
    15
  6
CONTINUOUS
  0
LAYER
  2
215
 70
     0
 62
     2
  6
CONTINUOUS
  0
LAYER
  2
216
 70
     0
 62
     3
  6
CONTINUOUS
  0
LAYER
  2
217
 70
     0
 62
     3
  6
CONTINUOUS
  0
LAYER
  2
218
 70
     0
 62
     2
  6
CONTINUOUS
  0
LAYER
  2
219
 70
     0
 62
    15
  6
CONTINUOUS
  0
LAYER
  2
220
 70
     0
 62
    10
  6
CONTINUOUS
  0
LAYER
  2
221
 70
     0
 62
    11
  6
CONTINUOUS
  0
LAYER
  2
222
 70
     0
 62
    12
  6
CONTINUOUS
  0
LAYER
  2
223
 70
     0
 62
     6
  6
CONTINUOUS
  0
LAYER
  2
224
 70
     0
 62
     1
  6
CONTINUOUS
  0
LAYER
  2
225
 70
     0
 62
    15
  6
CONTINUOUS
  0
LAYER
  2
226
 70
     0
 62
     2
  6
CONTINUOUS
  0
LAYER
  2
227
 70
     0
 62
    10
  6
CONTINUOUS
  0
LAYER
  2
228
 70
     0
 62
    11
  6
CONTINUOUS
  0
LAYER
  2
229
 70
     0
 62
    12
  6
CONTINUOUS
  0
LAYER
  2
230
 70
     0
 62
     6
  6
CONTINUOUS
  0
LAYER
  2
231
 70
     0
 62
     3
  6
CONTINUOUS
  0
LAYER
  2
232
 70
     0
 62
    12
  6
CONTINUOUS
  0
LAYER
  2
233
 70
     0
 62
     4
  6
CONTINUOUS
  0
LAYER
  2
234
 70
     0
 62
    13
  6
CONTINUOUS
  0
LAYER
  2
235
 70
     0
 62
     5
  6
CONTINUOUS
  0
LAYER
  2
236
 70
     0
 62
     2
  6
CONTINUOUS
  0
LAYER
  2
237
 70
     0
 62
     6
  6
CONTINUOUS
  0
LAYER
  2
238
 70
     0
 62
    12
  6
CONTINUOUS
  0
LAYER
  2
239
 70
     0
 62
    11
  6
CONTINUOUS
  0
LAYER
  2
240
 70
     0
 62
    11
  6
CONTINUOUS
  0
LAYER
  2
241
 70
     0
 62
    12
  6
CONTINUOUS
  0
ENDTAB
  0
TABLE
  2
STYLE
 70
     1
  0
STYLE
  2
STANDARD
 70
    64
 40
0.000000
 41
1.000000
 50
0.000000
 71
     0
 42
0.200000
  3
ROMANS.SHX
  4

  0
STYLE
  2
TQS_CALIBRI
 70
     0
 40
0.000000
 41
1.000000
 50
0.000000
 71
     0
 42
0.200000
  3
calibri.ttf
  0
STYLE
  2
TQS_CALIBRI_U
 70
     0
 40
0.000000
 41
1.000000
 50
0.000000
 71
     0
 42
0.200000
  3
calibri.ttf
  0
STYLE
  2
TQS_CALIBRI_I
 70
     0
 40
0.000000
 41
1.000000
 50
0.000000
 71
     0
 42
0.200000
  3
calibri.ttf
  0
STYLE
  2
TQS_CALIBRI_I_U
 70
     0
 40
0.000000
 41
1.000000
 50
0.000000
 71
     0
 42
0.200000
  3
calibri.ttf
  0
STYLE
  2
TQS_CALIBRI_B
 70
     0
 40
0.000000
 41
1.000000
 50
0.000000
 71
     0
 42
0.200000
  3
calibri.ttf
  0
STYLE
  2
TQS_CALIBRI_B_U
 70
     0
 40
0.000000
 41
1.000000
 50
0.000000
 71
     0
 42
0.200000
  3
calibri.ttf
  0
STYLE
  2
TQS_CALIBRI_B_I
 70
     0
 40
0.000000
 41
1.000000
 50
0.000000
 71
     0
 42
0.200000
  3
calibri.ttf
  0
STYLE
  2
TQS_CALIBRI_B_I_U
 70
     0
 40
0.000000
 41
1.000000
 50
0.000000
 71
     0
 42
0.200000
  3
calibri.ttf
  0
ENDTAB
  0
TABLE
  2
VIEW
 70
     0
  0
ENDTAB
  0
ENDSEC
  0
SECTION
  2
BLOCKS
  0
BLOCK
  8
0
  2
_PLWTQS
 70
    64
 10
0.000000
 20
0.000000
  0
TEXT
  8
0
  6
CONTINUOUS
 10
0.000000
 20
0.000000
 40
0.200000
  1
$PLWDWGGlBMVwAAAAAAAChABAAAAMHC82deG7a4TWoBHUHqWtcv6Bg3JIPQjrztgqoJlAPE3FwK8DAVmUH86r3NenaEBaSE41n2PGgUpQO/n+ccYoS75UwpQ0eBTvCl1brdNHw9gt1q/75/3PxxkKp+G9WzoCYWWnRsYJl56APHj+foFO8=
  7
TQS_CALIBRI
  0
TEXT
  8
0
  6
CONTINUOUS
 10
0.000000
 20
-0.250000
 40
0.200000
  1
$PLWDWGIrr/tPJxeLTfgirGL+aXjB4TfmIBbOjOh0jNHQ4kUYdT2NoPmrbFYt8Zq/IJDUcBt8J5UwVyb1qJuQSgrGP87BOpxXFiAsQWpGFsDYP6XneZ2X+Astb021Z5kGLIb9VzFIyr5aswdJy41UeSLCSmcvvmYUHtcDLpkB8HEIuPbpI=
  7
TQS_CALIBRI
  0
TEXT
  8
0
  6
CONTINUOUS
 10
0.000000
 20
-0.500000
 40
0.200000
  1
$PLWDWGLibzGoG2Tnvarb3Gn5OIF5G8QQ3hBQRitcaCSj0wxfx2xzwk3foUVjH/JrGcEpyPCRWfSFSa/YbpchuLYkUag186Ext7Xw6qANvCedZoA2wWfaj1ivlbQPQUA/UwF+2Fyp+ThlNJq9dC9pGC3rDr2SolgessBiqjTCU6wPOFkgA=
  7
TQS_CALIBRI
  0
TEXT
  8
0
  6
CONTINUOUS
 10
0.000000
 20
-0.750000
 40
0.200000
  1
$PLWDWGneCa5G+QNhcysESGBuTQSKo/NoYQozu3EicjCOwQEaBcELi45EU8H3Q8EKdCEP/FuE7Im7aFZ+wFIrXLslUOGziH0IX+6Xsv+R7/1XJwlFtevcIPyDMmilXA2Oa6mla6CbEbbrzo+DyvKWS34Ccp8Ul5CQzjgnpg2BdtIepyZ8g=
  7
TQS_CALIBRI
  0
TEXT
  8
0
  6
CONTINUOUS
 10
0.000000
 20
-1.000000
 40
0.200000
  1
$PLWDWGNBUpQA5iGu7sXKfTPH+xKyjEKFAljuxkO0zx4M8ravYrkwmKyVc99qDLf/CWqSnx6qn40XBjKEsaxyuocnHP58piwqti2kldEmaitSPk1gK7NbCkrQdn1LTkBpE53P9FyASDB1V4vRwm4thjY+QkVf59lY9A8Os8mL6IpyTbMV0=
  7
TQS_CALIBRI
  0
TEXT
  8
0
  6
CONTINUOUS
 10
0.000000
 20
-1.250000
 40
0.200000
  1
$PLWDWGPKNEeBX3EMdRqLsilswShKqzV59a5o1ye84O26adR4AfEFllv3KzMdjQrZuzMMqvpQ+UDcEog3rBwED7mrT5nj37dRHg7D8agy/I046WWoOPBkPARmQvF0srkMBX8x6ntrF8KZBM+7eh+Fg+FW7OprGSGv8h2orUxF/UiYxwLmY=
  7
TQS_CALIBRI
  0
TEXT
  8
0
  6
CONTINUOUS
 10
0.000000
 20
-1.500000
 40
0.200000
  1
$PLWDWGoaIUxbr+iONC4lezrET29vJNvo1GcJybN/CCj4d8mYuo/t+QxHhoh4lgzj7I06NOC31hDaBuDJzm9Wf2wLlBj+DLaoiYi+i7EPBeCfAPkxyTtXrWa6AkAT52tAjanP0zo+q5Cf43oo0xPN0ByAKGxxLatOwgM/W4/bEnSxwcaRs=
  7
TQS_CALIBRI
  0
TEXT
  8
0
  6
CONTINUOUS
 10
0.000000
 20
-1.750000
 40
0.200000
  1
$PLWDWGwPfW+im7bP2iH0evh1ZdonJWGLjpKIw1VUN1jrNHAi7WexCjyRIqdJIqu876hzA1msHNUkysCTcAAAAAyJOJIweRomDgo2wIjE2GFprBzVJMrAk3AAAAAA==
  7
TQS_CALIBRI
  0
ENDBLK
  8
0
  0
ENDSEC
  0
SECTION
  2
ENTITIES
  0
SOLID
  8
13
  6
CONTINUOUS
 10
102.095046
 20
10.244446
 11
102.095046
 21
9.498246
 12
101.971546
 22
9.498246
 13
101.971546
 23
9.498246
  0
SOLID
  8
13
  6
CONTINUOUS
 10
102.095046
 20
10.244446
 11
101.971546
 21
9.498246
 12
101.971546
 22
11.162246
 13
101.971546
 23
11.162246
  0
SOLID
  8
13
  6
CONTINUOUS
 10
102.095046
 20
10.244446
 11
101.971546
 21
11.162246
 12
102.095046
 22
11.162246
 13
102.095046
 23
11.162246
  0
SOLID
  8
13
  6
CONTINUOUS
 10
102.095046
 20
10.244446
 11
102.095046
 21
11.162246
 12
102.095046
 22
10.244446
 13
102.095046
 23
10.244446
  0
SOLID
  8
13
  6
CONTINUOUS
 10
102.522746
 20
10.230979
 11
102.522746
 21
9.498246
 12
102.095046
 22
9.498246
 13
102.095046
 23
9.498246
  0
SOLID
  8
13
  6
CONTINUOUS
 10
102.522746
 20
10.230979
 11
102.095046
 21
9.498246
 12
102.095046
 22
10.244446
 13
102.095046
 23
10.244446
  0
SOLID
  8
13
  6
CONTINUOUS
 10
102.522746
 20
10.230979
 11
102.095046
 21
10.244446
 12
102.143544
 22
10.248642
 13
102.143544
 23
10.248642
  0
SOLID
  8
13
  6
CONTINUOUS
 10
102.522746
 20
10.230979
 11
102.143544
 21
10.248642
 12
102.211078
 22
10.252071
 13
102.211078
 23
10.252071
  0
SOLID
  8
13
  6
CONTINUOUS
 10
102.522746
 20
10.230979
 11
102.211078
 21
10.252071
 12
102.259959
 22
10.252484
 13
102.259959
 23
10.252484
  0
SOLID
  8
13
  6
CONTINUOUS
 10
102.522746
 20
10.230979
 11
102.259959
 21
10.252484
 12
102.290321
 22
10.252141
 13
102.290321
 23
10.252141
  0
SOLID
  8
13
  6
CONTINUOUS
 10
102.522746
 20
10.230979
 11
102.290321
 21
10.252141
 12
102.334203
 22
10.250668
 13
102.334203
 23
10.250668
  0
SOLID
  8
13
  6
CONTINUOUS
 10
102.522746
 20
10.230979
 11
102.334203
 21
10.250668
 12
102.394518
 22
10.246747
 13
102.394518
 23
10.246747
  0
SOLID
  8
13
  6
CONTINUOUS
 10
102.522746
 20
10.230979
 11
102.394518
 21
10.246747
 12
102.446340
 22
10.241621
 13
102.446340
 23
10.241621
  0
SOLID
  8
13
  6
CONTINUOUS
 10
102.522746
 20
10.230979
 11
102.446340
 21
10.241621
 12
102.490083
 22
10.235974
 13
102.490083
 23
10.235974
  0
SOLID
  8
13
  6
CONTINUOUS
 10
102.522746
 20
10.230979
 11
102.490083
 21
10.235974
 12
102.522746
 22
10.230979
 13
102.522746
 23
10.230979
  0
SOLID
  8
13
  6
CONTINUOUS
 10
102.594246
 20
10.217654
 11
102.594246
 21
9.498246
 12
103.021946
 22
9.498246
 13
103.021946
 23
9.498246
  0
SOLID
  8
13
  6
CONTINUOUS
 10
102.594246
 20
10.217654
 11
103.021946
 21
9.498246
 12
103.021946
 22
10.064184
 13
103.021946
 23
10.064184
  0
SOLID
  8
13
  6
CONTINUOUS
 10
102.594246
 20
10.217654
 11
103.021946
 21
10.064184
 12
103.003898
 22
10.073542
 13
103.003898
 23
10.073542
  0
SOLID
  8
13
  6
CONTINUOUS
 10
102.594246
 20
10.217654
 11
103.003898
 21
10.073542
 12
102.981716
 22
10.084501
 13
102.981716
 23
10.084501
  0
SOLID
  8
13
  6
CONTINUOUS
 10
102.594246
 20
10.217654
 11
102.981716
 21
10.084501
 12
102.953307
 22
10.098271
 13
102.953307
 23
10.098271
  0
SOLID
  8
13
  6
CONTINUOUS
 10
102.594246
 20
10.217654
 11
102.953307
 21
10.098271
 12
102.912865
 22
10.116383
 13
102.912865
 23
10.116383
  0
SOLID
  8
13
  6
CONTINUOUS
 10
102.594246
 20
10.217654
 11
102.912865
 21
10.116383
 12
102.885024
 22
10.128001
 13
102.885024
 23
10.128001
  0
SOLID
  8
13
  6
CONTINUOUS
 10
102.594246
 20
10.217654
 11
102.885024
 21
10.128001
 12
102.844071
 22
10.144755
 13
102.844071
 23
10.144755
  0
SOLID
  8
13
  6
CONTINUOUS
 10
102.594246
 20
10.217654
 11
102.844071
 21
10.144755
 12
102.813490
 22
10.155923
 13
102.813490
 23
10.155923
  0
SOLID
  8
13
  6
CONTINUOUS
 10
102.594246
 20
10.217654
 11
102.813490
 21
10.155923
 12
102.778388
 22
10.168156
 13
102.778388
 23
10.168156
  0
SOLID
  8
13
  6
CONTINUOUS
 10
102.594246
 20
10.217654
 11
102.778388
 21
10.168156
 12
102.744083
 22
10.178793
 13
102.744083
 23
10.178793
  0
SOLID
  8
13
  6
CONTINUOUS
 10
102.594246
 20
10.217654
 11
102.744083
 21
10.178793
 12
102.703465
 22
10.191172
 13
102.703465
 23
10.191172
  0
SOLID
  8
13
  6
CONTINUOUS
 10
102.594246
 20
10.217654
 11
102.703465
 21
10.191172
 12
102.665141
 22
10.201162
 13
102.665141
 23
10.201162
  0
SOLID
  8
13
  6
CONTINUOUS
 10
102.594246
 20
10.217654
 11
102.665141
 21
10.201162
 12
102.624819
 22
10.210970
 13
102.624819
 23
10.210970
  0
SOLID
  8
13
  6
CONTINUOUS
 10
102.594246
 20
10.217654
 11
102.624819
 21
10.210970
 12
102.594246
 22
10.217654
 13
102.594246
 23
10.217654
  0
SOLID
  8
13
  6
CONTINUOUS
 10
103.093446
 20
10.024343
 11
103.093446
 21
9.498246
 12
103.521146
 22
9.498246
 13
103.521146
 23
9.498246
  0
SOLID
  8
13
  6
CONTINUOUS
 10
103.093446
 20
10.024343
 11
103.521146
 21
9.498246
 12
103.521146
 22
9.661030
 13
103.521146
 23
9.661030
  0
SOLID
  8
13
  6
CONTINUOUS
 10
103.093446
 20
10.024343
 11
103.521146
 21
9.661030
 12
103.507797
 22
9.676793
 13
103.507797
 23
9.676793
  0
SOLID
  8
13
  6
CONTINUOUS
 10
103.093446
 20
10.024343
 11
103.507797
 21
9.676793
 12
103.495964
 22
9.690528
 13
103.495964
 23
9.690528
  0
SOLID
  8
13
  6
CONTINUOUS
 10
103.093446
 20
10.024343
 11
103.495964
 21
9.690528
 12
103.473877
 22
9.715277
 13
103.473877
 23
9.715277
  0
SOLID
  8
13
  6
CONTINUOUS
 10
103.093446
 20
10.024343
 11
103.473877
 21
9.715277
 12
103.454164
 22
9.736530
 13
103.454164
 23
9.736530
  0
SOLID
  8
13
  6
CONTINUOUS
 10
103.093446
 20
10.024343
 11
103.454164
 21
9.736530
 12
103.434048
 22
9.757502
 13
103.434048
 23
9.757502
  0
SOLID
  8
13
  6
CONTINUOUS
 10
103.093446
 20
10.024343
 11
103.434048
 21
9.757502
 12
103.410015
 22
9.781535
 13
103.410015
 23
9.781535
  0
SOLID
  8
13
  6
CONTINUOUS
 10
103.093446
 20
10.024343
 11
103.410015
 21
9.781535
 12
103.399294
 22
9.791943
 13
103.399294
 23
9.791943
  0
SOLID
  8
13
  6
CONTINUOUS
 10
103.093446
 20
10.024343
 11
103.399294
 21
9.791943
 12
103.388429
 22
9.802406
 13
103.388429
 23
9.802406
  0
SOLID
  8
13
  6
CONTINUOUS
 10
103.093446
 20
10.024343
 11
103.388429
 21
9.802406
 12
103.359952
 22
9.828752
 13
103.359952
 23
9.828752
  0
SOLID
  8
13
  6
CONTINUOUS
 10
103.093446
 20
10.024343
 11
103.359952
 21
9.828752
 12
103.325139
 22
9.859181
 13
103.325139
 23
9.859181
  0
SOLID
  8
13
  6
CONTINUOUS
 10
103.093446
 20
10.024343
 11
103.325139
 21
9.859181
 12
103.286846
 22
9.890826
 13
103.286846
 23
9.890826
  0
SOLID
  8
13
  6
CONTINUOUS
 10
103.093446
 20
10.024343
 11
103.286846
 21
9.890826
 12
103.251036
 22
9.918745
 13
103.251036
 23
9.918745
  0
SOLID
  8
13
  6
CONTINUOUS
 10
103.093446
 20
10.024343
 11
103.251036
 21
9.918745
 12
103.200839
 22
9.955427
 13
103.200839
 23
9.955427
  0
SOLID
  8
13
  6
CONTINUOUS
 10
103.093446
 20
10.024343
 11
103.200839
 21
9.955427
 12
103.134352
 22
9.999676
 13
103.134352
 23
9.999676
  0
SOLID
  8
13
  6
CONTINUOUS
 10
103.093446
 20
10.024343
 11
103.134352
 21
9.999676
 12
103.093446
 22
10.024343
 13
103.093446
 23
10.024343
  0
SOLID
  8
13
  6
CONTINUOUS
 10
102.522746
 20
10.635283
 11
102.522746
 21
11.162246
 12
102.095046
 22
11.162246
 13
102.095046
 23
11.162246
  0
SOLID
  8
13
  6
CONTINUOUS
 10
102.522746
 20
10.635283
 11
102.095046
 21
11.162246
 12
102.095046
 22
10.995122
 13
102.095046
 23
10.995122
  0
SOLID
  8
13
  6
CONTINUOUS
 10
102.522746
 20
10.635283
 11
102.095046
 21
10.995122
 12
102.153689
 22
10.929235
 13
102.153689
 23
10.929235
  0
SOLID
  8
13
  6
CONTINUOUS
 10
102.522746
 20
10.635283
 11
102.153689
 21
10.929235
 12
102.237359
 22
10.846559
 13
102.237359
 23
10.846559
  0
SOLID
  8
13
  6
CONTINUOUS
 10
102.522746
 20
10.635283
 11
102.237359
 21
10.846559
 12
102.308389
 22
10.784730
 13
102.308389
 23
10.784730
  0
SOLID
  8
13
  6
CONTINUOUS
 10
102.522746
 20
10.635283
 11
102.308389
 21
10.784730
 12
102.366624
 22
10.739274
 13
102.366624
 23
10.739274
  0
SOLID
  8
13
  6
CONTINUOUS
 10
102.522746
 20
10.635283
 11
102.366624
 21
10.739274
 12
102.406322
 22
10.710064
 13
102.406322
 23
10.710064
  0
SOLID
  8
13
  6
CONTINUOUS
 10
102.522746
 20
10.635283
 11
102.406322
 21
10.710064
 12
102.455827
 22
10.676682
 13
102.455827
 23
10.676682
  0
SOLID
  8
13
  6
CONTINUOUS
 10
102.522746
 20
10.635283
 11
102.455827
 21
10.676682
 12
102.493954
 22
10.652515
 13
102.493954
 23
10.652515
  0
SOLID
  8
13
  6
CONTINUOUS
 10
102.522746
 20
10.635283
 11
102.493954
 21
10.652515
 12
102.522746
 22
10.635283
 13
102.522746
 23
10.635283
  0
SOLID
  8
13
  6
CONTINUOUS
 10
103.021946
 20
10.443678
 11
103.021946
 21
11.162246
 12
102.594246
 22
11.162246
 13
102.594246
 23
11.162246
  0
SOLID
  8
13
  6
CONTINUOUS
 10
103.021946
 20
10.443678
 11
102.594246
 21
11.162246
 12
102.594246
 22
10.595859
 13
102.594246
 23
10.595859
  0
SOLID
  8
13
  6
CONTINUOUS
 10
103.021946
 20
10.443678
 11
102.594246
 21
10.595859
 12
102.663800
 22
10.561766
 13
102.663800
 23
10.561766
  0
SOLID
  8
13
  6
CONTINUOUS
 10
103.021946
 20
10.443678
 11
102.663800
 21
10.561766
 12
102.744359
 22
10.527375
 13
102.744359
 23
10.527375
  0
SOLID
  8
13
  6
CONTINUOUS
 10
103.021946
 20
10.443678
 11
102.744359
 21
10.527375
 12
102.812197
 22
10.501464
 13
102.812197
 23
10.501464
  0
SOLID
  8
13
  6
CONTINUOUS
 10
103.021946
 20
10.443678
 11
102.812197
 21
10.501464
 12
102.889458
 22
10.476967
 13
102.889458
 23
10.476967
  0
SOLID
  8
13
  6
CONTINUOUS
 10
103.021946
 20
10.443678
 11
102.889458
 21
10.476967
 12
102.950702
 22
10.460007
 13
102.950702
 23
10.460007
  0
SOLID
  8
13
  6
CONTINUOUS
 10
103.021946
 20
10.443678
 11
102.950702
 21
10.460007
 12
103.021946
 22
10.443678
 13
103.021946
 23
10.443678
  0
SOLID
  8
13
  6
CONTINUOUS
 10
103.093446
 20
10.430307
 11
103.093446
 21
11.162246
 12
103.521146
 22
11.162246
 13
103.521146
 23
11.162246
  0
SOLID
  8
13
  6
CONTINUOUS
 10
103.093446
 20
10.430307
 11
103.521146
 21
11.162246
 12
103.521146
 22
10.417580
 13
103.521146
 23
10.417580
  0
SOLID
  8
13
  6
CONTINUOUS
 10
103.093446
 20
10.430307
 11
103.521146
 21
10.417580
 12
103.476372
 22
10.413637
 13
103.476372
 23
10.413637
  0
SOLID
  8
13
  6
CONTINUOUS
 10
103.093446
 20
10.430307
 11
103.476372
 21
10.413637
 12
103.416577
 22
10.410480
 13
103.416577
 23
10.410480
  0
SOLID
  8
13
  6
CONTINUOUS
 10
103.093446
 20
10.430307
 11
103.416577
 21
10.410480
 12
103.366788
 22
10.409453
 13
103.366788
 23
10.409453
  0
SOLID
  8
13
  6
CONTINUOUS
 10
103.093446
 20
10.430307
 11
103.366788
 21
10.409453
 12
103.336830
 22
10.409453
 13
103.336830
 23
10.409453
  0
SOLID
  8
13
  6
CONTINUOUS
 10
103.093446
 20
10.430307
 11
103.336830
 21
10.409453
 12
103.286182
 22
10.410821
 13
103.286182
 23
10.410821
  0
SOLID
  8
13
  6
CONTINUOUS
 10
103.093446
 20
10.430307
 11
103.286182
 21
10.410821
 12
103.241261
 22
10.413321
 13
103.241261
 23
10.413321
  0
SOLID
  8
13
  6
CONTINUOUS
 10
103.093446
 20
10.430307
 11
103.241261
 21
10.413321
 12
103.205545
 22
10.416539
 13
103.205545
 23
10.416539
  0
SOLID
  8
13
  6
CONTINUOUS
 10
103.093446
 20
10.430307
 11
103.205545
 21
10.416539
 12
103.155349
 22
10.421044
 13
103.155349
 23
10.421044
  0
SOLID
  8
13
  6
CONTINUOUS
 10
103.093446
 20
10.430307
 11
103.155349
 21
10.421044
 12
103.093446
 22
10.430307
 13
103.093446
 23
10.430307
  0
SOLID
  8
13
  6
CONTINUOUS
 10
102.594246
 20
9.498246
 11
102.594246
 21
11.162246
 12
102.522746
 22
11.162246
 13
102.522746
 23
11.162246
  0
SOLID
  8
13
  6
CONTINUOUS
 10
102.594246
 20
9.498246
 11
102.522746
 21
11.162246
 12
102.522746
 22
9.498246
 13
102.522746
 23
9.498246
  0
SOLID
  8
13
  6
CONTINUOUS
 10
102.594246
 20
9.498246
 11
102.522746
 21
9.498246
 12
102.522746
 22
9.498246
 13
102.522746
 23
9.498246
  0
SOLID
  8
13
  6
CONTINUOUS
 10
103.021946
 20
11.162246
 11
103.093446
 21
11.162246
 12
103.093446
 22
9.498246
 13
103.093446
 23
9.498246
  0
SOLID
  8
13
  6
CONTINUOUS
 10
103.021946
 20
11.162246
 11
103.093446
 21
9.498246
 12
103.021946
 22
9.498246
 13
103.021946
 23
9.498246
  0
SOLID
  8
13
  6
CONTINUOUS
 10
103.021946
 20
11.162246
 11
103.021946
 21
9.498246
 12
103.021946
 22
11.162246
 13
103.021946
 23
11.162246
  0
SOLID
  8
13
  6
CONTINUOUS
 10
103.521146
 20
9.498246
 11
103.635546
 21
9.498246
 12
103.635546
 22
11.162246
 13
103.635546
 23
11.162246
  0
SOLID
  8
13
  6
CONTINUOUS
 10
103.521146
 20
9.498246
 11
103.635546
 21
11.162246
 12
103.521146
 22
11.162246
 13
103.521146
 23
11.162246
  0
SOLID
  8
13
  6
CONTINUOUS
 10
103.521146
 20
9.498246
 11
103.521146
 21
11.162246
 12
103.521146
 22
9.498246
 13
103.521146
 23
9.498246
  0
POLYLINE
  8
1
  6
CONTINUOUS
 66
     1
  0
VERTEX
  8
1
  6
CONTINUOUS
 10
98.931624
 20
50.085663
  0
VERTEX
  8
1
  6
CONTINUOUS
 10
100.256890
 20
49.973500
  0
SEQEND
  8
1
  6
CONTINUOUS
  0
POLYLINE
  8
1
  6
CONTINUOUS
 66
     1
  0
VERTEX
  8
1
  6
CONTINUOUS
 10
100.299056
 20
50.471718
  0
VERTEX
  8
1
  6
CONTINUOUS
 10
98.973706
 20
50.583888
  0
SEQEND
  8
1
  6
CONTINUOUS
  0
POLYLINE
  8
1
  6
CONTINUOUS
 66
     1
  0
VERTEX
  8
1
  6
CONTINUOUS
 10
89.100257
 20
50.917733
  0
VERTEX
  8
1
  6
CONTINUOUS
 10
97.769113
 20
50.184051
  0
SEQEND
  8
1
  6
CONTINUOUS
  0
POLYLINE
  8
1
  6
CONTINUOUS
 66
     1
  0
VERTEX
  8
1
  6
CONTINUOUS
 10
97.811196
 20
50.682277
  0
VERTEX
  8
1
  6
CONTINUOUS
 10
89.142340
 20
51.415959
  0
SEQEND
  8
1
  6
CONTINUOUS
  0
POLYLINE
  8
1
  6
CONTINUOUS
 66
     1
  0
VERTEX
  8
1
  6
CONTINUOUS
 10
78.305516
 20
51.831338
  0
VERTEX
  8
1
  6
CONTINUOUS
 10
88.602039
 20
50.959900
  0
SEQEND
  8
1
  6
CONTINUOUS
  0
POLYLINE
  8
1
  6
CONTINUOUS
 66
     1
  0
VERTEX
  8
1
  6
CONTINUOUS
 10
88.644121
 20
51.458125
  0
VERTEX
  8
1
  6
CONTINUOUS
 10
78.347599
 20
52.329564
  0
SEQEND
  8
1
  6
CONTINUOUS
  0
POLYLINE
  8
1
  6
CONTINUOUS
 66
     1
  0
VERTEX
  8
1
  6
CONTINUOUS
 10
69.171505
 20
52.604389
  0
VERTEX
  8
1
  6
CONTINUOUS
 10
77.807298
 20
51.873505
  0
SEQEND
  8
1
  6
CONTINUOUS
  0
POLYLINE
  8
1
  6
CONTINUOUS
 66
     1
  0
VERTEX
  8
1
  6
CONTINUOUS
 10
77.849380
 20
52.371731
  0
VERTEX
  8
1
  6
CONTINUOUS
 10
69.213587
 20
53.102615
  0
SEQEND
  8
1
  6
CONTINUOUS
  0
POLYLINE
  8
1
  6
CONTINUOUS
 66
     1
  0
VERTEX
  8
1
  6
CONTINUOUS
 10
61.242750
 20
53.275433
  0
VERTEX
  8
1
  6
CONTINUOUS
 10
68.673286
 20
52.646555
  0
SEQEND
  8
1
  6
CONTINUOUS
  0
POLYLINE
  8
1
  6
CONTINUOUS
 66
     1
  0
VERTEX
  8
1
  6
CONTINUOUS
 10
68.715368
 20
53.144781
  0
VERTEX
  8
1
  6
CONTINUOUS
 10
61.284833
 20
53.773659
  0
SEQEND
  8
1
  6
CONTINUOUS
  0
POLYLINE
  8
1
  6
CONTINUOUS
 66
     1
  0
VERTEX
  8
1
  6
CONTINUOUS
 10
52.564211
 20
54.009935
  0
VERTEX
  8
1
  6
CONTINUOUS
 10
60.080240
 20
53.373821
  0
SEQEND
  8
1
  6
CONTINUOUS
  0
POLYLINE
  8
1
  6
CONTINUOUS
 66
     1
  0
VERTEX
  8
1
  6
CONTINUOUS
 10
60.122322
 20
53.872047
  0
VERTEX
  8
1
  6
CONTINUOUS
 10
52.606293
 20
54.508161
  0
SEQEND
  8
1
  6
CONTINUOUS
  0
POLYLINE
  8
1
  6
CONTINUOUS
 66
     1
  0
VERTEX
  8
1
  6
CONTINUOUS
 10
45.921293
 20
54.572154
  0
VERTEX
  8
1
  6
CONTINUOUS
 10
52.065992
 20
54.052102
  0
SEQEND
  8
1
  6
CONTINUOUS
  0
POLYLINE
  8
1
  6
CONTINUOUS
 66
     1
  0
VERTEX
  8
1
  6
CONTINUOUS
 10
52.108074
 20
54.550327
  0
VERTEX
  8
1
  6
CONTINUOUS
 10
45.963376
 20
55.070380
  0
SEQEND
  8
1
  6
CONTINUOUS
  0
POLYLINE
  8
1
  6
CONTINUOUS
 66
     1
  0
VERTEX
  8
1
  6
CONTINUOUS
 10
37.720197
 20
55.266248
  0
VERTEX
  8
1
  6
CONTINUOUS
 10
45.423075
 20
54.614320
  0
SEQEND
  8
1
  6
CONTINUOUS
  0
POLYLINE
  8
1
  6
CONTINUOUS
 66
     1
  0
VERTEX
  8
1
  6
CONTINUOUS
 10
45.465157
 20
55.112546
  0
VERTEX
  8
1
  6
CONTINUOUS
 10
37.762280
 20
55.764473
  0
SEQEND
  8
1
  6
CONTINUOUS
  0
POLYLINE
  8
1
  6
CONTINUOUS
 66
     1
  0
VERTEX
  8
1
  6
CONTINUOUS
 10
28.254040
 20
56.067409
  0
VERTEX
  8
1
  6
CONTINUOUS
 10
36.557687
 20
55.364636
  0
SEQEND
  8
1
  6
CONTINUOUS
  0
POLYLINE
  8
1
  6
CONTINUOUS
 66
     1
  0
VERTEX
  8
1
  6
CONTINUOUS
 10
36.599769
 20
55.862862
  0
VERTEX
  8
1
  6
CONTINUOUS
 10
28.296122
 20
56.565635
  0
SEQEND
  8
1
  6
CONTINUOUS
  0
POLYLINE
  8
1
  6
CONTINUOUS
 66
     1
  0
VERTEX
  8
1
  6
CONTINUOUS
 10
18.669344
 20
56.878603
  0
VERTEX
  8
1
  6
CONTINUOUS
 10
27.755821
 20
56.109575
  0
SEQEND
  8
1
  6
CONTINUOUS
  0
POLYLINE
  8
1
  6
CONTINUOUS
 66
     1
  0
VERTEX
  8
1
  6
CONTINUOUS
 10
27.797903
 20
56.607801
  0
VERTEX
  8
1
  6
CONTINUOUS
 10
18.711427
 20
57.376829
  0
SEQEND
  8
1
  6
CONTINUOUS
  0
POLYLINE
  8
1
  6
CONTINUOUS
 66
     1
  0
VERTEX
  8
1
  6
CONTINUOUS
 10
9.867478
 20
57.623542
  0
VERTEX
  8
1
  6
CONTINUOUS
 10
18.171125
 20
56.920769
  0
SEQEND
  8
1
  6
CONTINUOUS
  0
POLYLINE
  8
1
  6
CONTINUOUS
 66
     1
  0
VERTEX
  8
1
  6
CONTINUOUS
 10
18.213208
 20
57.418995
  0
VERTEX
  8
1
  6
CONTINUOUS
 10
9.909561
 20
58.121768
  0
SEQEND
  8
1
  6
CONTINUOUS
  0
POLYLINE
  8
1
  6
CONTINUOUS
 66
     1
  0
VERTEX
  8
1
  6
CONTINUOUS
 10
7.627578
 20
57.813115
  0
VERTEX
  8
1
  6
CONTINUOUS
 10
8.704968
 20
57.721931
  0
SEQEND
  8
1
  6
CONTINUOUS
  0
POLYLINE
  8
1
  6
CONTINUOUS
 66
     1
  0
VERTEX
  8
1
  6
CONTINUOUS
 10
8.747050
 20
58.220157
  0
VERTEX
  8
1
  6
CONTINUOUS
 10
7.128659
 20
58.357128
  0
SEQEND
  8
1
  6
CONTINUOUS
  0
POLYLINE
  8
1
  6
CONTINUOUS
 66
     1
  0
VERTEX
  8
1
  6
CONTINUOUS
 10
100.256890
 20
49.973500
  0
VERTEX
  8
1
  6
CONTINUOUS
 10
100.299056
 20
50.471718
  0
SEQEND
  8
1
  6
CONTINUOUS
  0
POLYLINE
  8
1
  6
CONTINUOUS
 66
     1
  0
VERTEX
  8
1
  6
CONTINUOUS
 10
95.339749
 20
7.653693
  0
VERTEX
  8
1
  6
CONTINUOUS
 10
96.664956
 20
7.541502
  0
SEQEND
  8
1
  6
CONTINUOUS
  0
POLYLINE
  8
1
  6
CONTINUOUS
 66
     1
  0
VERTEX
  8
1
  6
CONTINUOUS
 10
96.707135
 20
8.039720
  0
VERTEX
  8
1
  6
CONTINUOUS
 10
95.381927
 20
8.151911
  0
SEQEND
  8
1
  6
CONTINUOUS
  0
POLYLINE
  8
1
  6
CONTINUOUS
 66
     1
  0
VERTEX
  8
1
  6
CONTINUOUS
 10
82.443583
 20
8.745475
  0
VERTEX
  8
1
  6
CONTINUOUS
 10
94.841531
 20
7.695872
  0
SEQEND
  8
1
  6
CONTINUOUS
  0
POLYLINE
  8
1
  6
CONTINUOUS
 66
     1
  0
VERTEX
  8
1
  6
CONTINUOUS
 10
94.883709
 20
8.194090
  0
VERTEX
  8
1
  6
CONTINUOUS
 10
82.485761
 20
9.243693
  0
SEQEND
  8
1
  6
CONTINUOUS
  0
POLYLINE
  8
1
  6
CONTINUOUS
 66
     1
  0
VERTEX
  8
1
  6
CONTINUOUS
 10
72.479228
 20
9.589052
  0
VERTEX
  8
1
  6
CONTINUOUS
 10
81.945365
 20
8.787654
  0
SEQEND
  8
1
  6
CONTINUOUS
  0
POLYLINE
  8
1
  6
CONTINUOUS
 66
     1
  0
VERTEX
  8
1
  6
CONTINUOUS
 10
81.987543
 20
9.285872
  0
VERTEX
  8
1
  6
CONTINUOUS
 10
72.521406
 20
10.087270
  0
SEQEND
  8
1
  6
CONTINUOUS
  0
POLYLINE
  8
1
  6
CONTINUOUS
 66
     1
  0
VERTEX
  8
1
  6
CONTINUOUS
 10
62.420673
 20
10.440604
  0
VERTEX
  8
1
  6
CONTINUOUS
 10
71.981010
 20
9.631231
  0
SEQEND
  8
1
  6
CONTINUOUS
  0
POLYLINE
  8
1
  6
CONTINUOUS
 66
     1
  0
VERTEX
  8
1
  6
CONTINUOUS
 10
72.023188
 20
10.129449
  0
VERTEX
  8
1
  6
CONTINUOUS
 10
62.462843
 20
10.938822
  0
SEQEND
  8
1
  6
CONTINUOUS
  0
POLYLINE
  8
1
  6
CONTINUOUS
 66
     1
  0
VERTEX
  8
1
  6
CONTINUOUS
 10
61.889252
 20
10.485594
  0
VERTEX
  8
1
  6
CONTINUOUS
 10
61.922455
 20
10.482783
  0
SEQEND
  8
1
  6
CONTINUOUS
  0
POLYLINE
  8
1
  6
CONTINUOUS
 66
     1
  0
VERTEX
  8
1
  6
CONTINUOUS
 10
61.964625
 20
10.981001
  0
VERTEX
  8
1
  6
CONTINUOUS
 10
61.931421
 20
10.983812
  0
SEQEND
  8
1
  6
CONTINUOUS
  0
POLYLINE
  8
1
  6
CONTINUOUS
 66
     1
  0
VERTEX
  8
1
  6
CONTINUOUS
 10
52.024442
 20
11.320743
  0
VERTEX
  8
1
  6
CONTINUOUS
 10
61.391034
 20
10.527772
  0
SEQEND
  8
1
  6
CONTINUOUS
  0
POLYLINE
  8
1
  6
CONTINUOUS
 66
     1
  0
VERTEX
  8
1
  6
CONTINUOUS
 10
61.433203
 20
11.025991
  0
VERTEX
  8
1
  6
CONTINUOUS
 10
52.066612
 20
11.818961
  0
SEQEND
  8
1
  6
CONTINUOUS
  0
POLYLINE
  8
1
  6
CONTINUOUS
 66
     1
  0
VERTEX
  8
1
  6
CONTINUOUS
 10
42.317703
 20
12.142510
  0
VERTEX
  8
1
  6
CONTINUOUS
 10
51.194079
 20
11.391041
  0
SEQEND
  8
1
  6
CONTINUOUS
  0
POLYLINE
  8
1
  6
CONTINUOUS
 66
     1
  0
VERTEX
  8
1
  6
CONTINUOUS
 10
51.236249
 20
11.889260
  0
VERTEX
  8
1
  6
CONTINUOUS
 10
42.359873
 20
12.640729
  0
SEQEND
  8
1
  6
CONTINUOUS
  0
POLYLINE
  8
1
  6
CONTINUOUS
 66
     1
  0
VERTEX
  8
1
  6
CONTINUOUS
 10
96.664956
 20
7.541502
  0
VERTEX
  8
1
  6
CONTINUOUS
 10
96.707135
 20
8.039720
  0
SEQEND
  8
1
  6
CONTINUOUS
  0
POLYLINE
  8
1
  6
CONTINUOUS
 66
     1
  0
VERTEX
  8
1
  6
CONTINUOUS
 10
32.064244
 20
13.545805
  0
VERTEX
  8
1
  6
CONTINUOUS
 10
41.000889
 20
12.789234
  0
SEQEND
  8
1
  6
CONTINUOUS
  0
POLYLINE
  8
1
  6
CONTINUOUS
 66
     1
  0
VERTEX
  8
1
  6
CONTINUOUS
 10
41.040247
 20
13.254238
  0
VERTEX
  8
1
  6
CONTINUOUS
 10
32.103602
 20
14.010809
  0
SEQEND
  8
1
  6
CONTINUOUS
  0
POLYLINE
  8
1
  6
CONTINUOUS
 66
     1
  0
VERTEX
  8
1
  6
CONTINUOUS
 10
22.732903
 20
14.335791
  0
VERTEX
  8
1
  6
CONTINUOUS
 10
31.566026
 20
13.587984
  0
SEQEND
  8
1
  6
CONTINUOUS
  0
POLYLINE
  8
1
  6
CONTINUOUS
 66
     1
  0
VERTEX
  8
1
  6
CONTINUOUS
 10
31.605384
 20
14.052988
  0
VERTEX
  8
1
  6
CONTINUOUS
 10
22.772261
 20
14.800795
  0
SEQEND
  8
1
  6
CONTINUOUS
  0
POLYLINE
  8
1
  6
CONTINUOUS
 66
     1
  0
VERTEX
  8
1
  6
CONTINUOUS
 10
15.218118
 20
14.971989
  0
VERTEX
  8
1
  6
CONTINUOUS
 10
22.234685
 20
14.377970
  0
SEQEND
  8
1
  6
CONTINUOUS
  0
POLYLINE
  8
1
  6
CONTINUOUS
 66
     1
  0
VERTEX
  8
1
  6
CONTINUOUS
 10
22.274043
 20
14.842974
  0
VERTEX
  8
1
  6
CONTINUOUS
 10
15.257476
 20
15.436993
  0
SEQEND
  8
1
  6
CONTINUOUS
  0
POLYLINE
  8
1
  6
CONTINUOUS
 66
     1
  0
VERTEX
  8
1
  6
CONTINUOUS
 10
7.575637
 20
15.618997
  0
VERTEX
  8
1
  6
CONTINUOUS
 10
14.719900
 20
15.014167
  0
SEQEND
  8
1
  6
CONTINUOUS
  0
POLYLINE
  8
1
  6
CONTINUOUS
 66
     1
  0
VERTEX
  8
1
  6
CONTINUOUS
 10
14.759258
 20
15.479171
  0
VERTEX
  8
1
  6
CONTINUOUS
 10
8.043142
 20
16.047754
  0
SEQEND
  8
1
  6
CONTINUOUS
  0
POLYLINE
  8
1
  6
CONTINUOUS
 66
     1
  0
VERTEX
  8
1
  6
CONTINUOUS
 10
7.577124
 20
16.379724
  0
VERTEX
  8
1
  6
CONTINUOUS
 10
7.575637
 20
15.618997
  0
SEQEND
  8
1
  6
CONTINUOUS
  0
POLYLINE
  8
1
  6
CONTINUOUS
 66
     1
  0
VERTEX
  8
1
  6
CONTINUOUS
 10
8.043142
 20
16.047754
  0
VERTEX
  8
1
  6
CONTINUOUS
 10
8.043789
 20
16.378812
  0
SEQEND
  8
1
  6
CONTINUOUS
  0
POLYLINE
  8
1
  6
CONTINUOUS
 66
     1
  0
VERTEX
  8
1
  6
CONTINUOUS
 10
7.595069
 20
25.560178
  0
VERTEX
  8
1
  6
CONTINUOUS
 10
7.578101
 20
16.879723
  0
SEQEND
  8
1
  6
CONTINUOUS
  0
POLYLINE
  8
1
  6
CONTINUOUS
 66
     1
  0
VERTEX
  8
1
  6
CONTINUOUS
 10
8.044767
 20
16.878811
  0
VERTEX
  8
1
  6
CONTINUOUS
 10
8.061735
 20
25.559266
  0
SEQEND
  8
1
  6
CONTINUOUS
  0
POLYLINE
  8
1
  6
CONTINUOUS
 66
     1
  0
VERTEX
  8
1
  6
CONTINUOUS
 10
7.084144
 20
35.961197
  0
VERTEX
  8
1
  6
CONTINUOUS
 10
7.065527
 20
26.594549
  0
SEQEND
  8
1
  6
CONTINUOUS
  0
POLYLINE
  8
1
  6
CONTINUOUS
 66
     1
  0
VERTEX
  8
1
  6
CONTINUOUS
 10
7.565526
 20
26.593571
  0
VERTEX
  8
1
  6
CONTINUOUS
 10
7.584143
 20
35.960219
  0
SEQEND
  8
1
  6
CONTINUOUS
  0
POLYLINE
  8
1
  6
CONTINUOUS
 66
     1
  0
VERTEX
  8
1
  6
CONTINUOUS
 10
7.099648
 20
43.761181
  0
VERTEX
  8
1
  6
CONTINUOUS
 10
7.085138
 20
36.461196
  0
SEQEND
  8
1
  6
CONTINUOUS
  0
POLYLINE
  8
1
  6
CONTINUOUS
 66
     1
  0
VERTEX
  8
1
  6
CONTINUOUS
 10
7.585137
 20
36.460218
  0
VERTEX
  8
1
  6
CONTINUOUS
 10
7.599647
 20
43.760204
  0
SEQEND
  8
1
  6
CONTINUOUS
  0
POLYLINE
  8
1
  6
CONTINUOUS
 66
     1
  0
VERTEX
  8
1
  6
CONTINUOUS
 10
7.121540
 20
54.775763
  0
VERTEX
  8
1
  6
CONTINUOUS
 10
7.100641
 20
44.261180
  0
SEQEND
  8
1
  6
CONTINUOUS
  0
POLYLINE
  8
1
  6
CONTINUOUS
 66
     1
  0
VERTEX
  8
1
  6
CONTINUOUS
 10
7.600640
 20
44.260203
  0
VERTEX
  8
1
  6
CONTINUOUS
 10
7.621166
 20
54.586875
  0
SEQEND
  8
1
  6
CONTINUOUS
  0
POLYLINE
  8
1
  6
CONTINUOUS
 66
     1
  0
VERTEX
  8
1
  6
CONTINUOUS
 10
7.124327
 20
56.177824
  0
VERTEX
  8
1
  6
CONTINUOUS
 10
7.121540
 20
54.775763
  0
SEQEND
  8
1
  6
CONTINUOUS
  0
POLYLINE
  8
1
  6
CONTINUOUS
 66
     1
  0
VERTEX
  8
1
  6
CONTINUOUS
 10
7.621831
 20
54.921344
  0
VERTEX
  8
1
  6
CONTINUOUS
 10
7.624326
 20
56.176846
  0
SEQEND
  8
1
  6
CONTINUOUS
  0
POLYLINE
  8
1
  6
CONTINUOUS
 66
     1
  0
VERTEX
  8
1
  6
CONTINUOUS
 10
7.128659
 20
58.357128
  0
VERTEX
  8
1
  6
CONTINUOUS
 10
7.125321
 20
56.677823
  0
SEQEND
  8
1
  6
CONTINUOUS
  0
POLYLINE
  8
1
  6
CONTINUOUS
 66
     1
  0
VERTEX
  8
1
  6
CONTINUOUS
 10
7.625320
 20
56.676845
  0
VERTEX
  8
1
  6
CONTINUOUS
 10
7.627578
 20
57.813115
  0
SEQEND
  8
1
  6
CONTINUOUS
  0
POLYLINE
  8
1
  6
ESTILO_TQS_0001
 66
     1
  0
VERTEX
  8
1
  6
ESTILO_TQS_0001
 10
60.141786
 20
50.141515
  0
VERTEX
  8
1
  6
ESTILO_TQS_0001
 10
99.985611
 20
46.769122
  0
SEQEND
  8
1
  6
ESTILO_TQS_0001
  0
POLYLINE
  8
1
  6
ESTILO_TQS_0001
 66
     1
  0
VERTEX
  8
1
  6
ESTILO_TQS_0001
 10
100.013724
 20
47.101268
  0
VERTEX
  8
1
  6
ESTILO_TQS_0001
 10
60.169899
 20
50.473661
  0
SEQEND
  8
1
  6
ESTILO_TQS_0001
  0
POLYLINE
  8
1
  6
ESTILO_TQS_0001
 66
     1
  0
VERTEX
  8
1
  6
ESTILO_TQS_0001
 10
48.795066
 20
51.101905
  0
VERTEX
  8
1
  6
ESTILO_TQS_0001
 10
59.809640
 20
50.169628
  0
SEQEND
  8
1
  6
ESTILO_TQS_0001
  0
POLYLINE
  8
1
  6
ESTILO_TQS_0001
 66
     1
  0
VERTEX
  8
1
  6
ESTILO_TQS_0001
 10
59.837753
 20
50.501774
  0
VERTEX
  8
1
  6
ESTILO_TQS_0001
 10
48.823179
 20
51.434050
  0
SEQEND
  8
1
  6
ESTILO_TQS_0001
  0
POLYLINE
  8
1
  6
ESTILO_TQS_0001
 66
     1
  0
VERTEX
  8
1
  6
ESTILO_TQS_0001
 10
37.449511
 20
52.062196
  0
VERTEX
  8
1
  6
ESTILO_TQS_0001
 10
48.462921
 20
51.130017
  0
SEQEND
  8
1
  6
ESTILO_TQS_0001
  0
POLYLINE
  8
1
  6
ESTILO_TQS_0001
 66
     1
  0
VERTEX
  8
1
  6
ESTILO_TQS_0001
 10
48.491033
 20
51.462163
  0
VERTEX
  8
1
  6
ESTILO_TQS_0001
 10
37.477624
 20
52.394341
  0
SEQEND
  8
1
  6
ESTILO_TQS_0001
  0
POLYLINE
  8
1
  6
ESTILO_TQS_0001
 66
     1
  0
VERTEX
  8
1
  6
ESTILO_TQS_0001
 10
7.621166
 20
54.586875
  0
VERTEX
  8
1
  6
ESTILO_TQS_0001
 10
37.117365
 20
52.090309
  0
SEQEND
  8
1
  6
ESTILO_TQS_0001
  0
POLYLINE
  8
1
  6
ESTILO_TQS_0001
 66
     1
  0
VERTEX
  8
1
  6
ESTILO_TQS_0001
 10
37.145478
 20
52.422454
  0
VERTEX
  8
1
  6
ESTILO_TQS_0001
 10
7.621831
 20
54.921344
  0
SEQEND
  8
1
  6
ESTILO_TQS_0001
  0
POLYLINE
  8
1
  6
CONTINUOUS
 66
     1
  0
VERTEX
  8
1
  6
CONTINUOUS
 10
99.985611
 20
46.769122
  0
VERTEX
  8
1
  6
CONTINUOUS
 10
100.013724
 20
47.101268
  0
SEQEND
  8
1
  6
CONTINUOUS
  0
POLYLINE
  8
1
  6
CONTINUOUS
 66
     1
  0
VERTEX
  8
1
  6
CONTINUOUS
 10
7.621831
 20
54.921344
  0
VERTEX
  8
1
  6
CONTINUOUS
 10
7.621166
 20
54.586875
  0
SEQEND
  8
1
  6
CONTINUOUS
  0
POLYLINE
  8
1
  6
CONTINUOUS
 66
     1
  0
VERTEX
  8
1
  6
CONTINUOUS
 10
46.964317
 20
50.129308
  0
VERTEX
  8
1
  6
CONTINUOUS
 10
50.285778
 20
49.848236
  0
VERTEX
  8
1
  6
CONTINUOUS
 10
50.566905
 20
53.169628
  0
VERTEX
  8
1
  6
CONTINUOUS
 10
47.245451
 20
53.450799
  0
VERTEX
  8
1
  6
CONTINUOUS
 10
46.964317
 20
50.129308
  0
SEQEND
  8
1
  6
CONTINUOUS
  0
POLYLINE
  8
1
  6
CONTINUOUS
 66
     1
  0
VERTEX
  8
1
  6
CONTINUOUS
 10
58.201044
 20
48.509179
  0
VERTEX
  8
1
  6
CONTINUOUS
 10
61.522501
 20
48.228042
  0
VERTEX
  8
1
  6
CONTINUOUS
 10
61.859859
 20
52.213789
  0
VERTEX
  8
1
  6
CONTINUOUS
 10
58.538403
 20
52.494926
  0
VERTEX
  8
1
  6
CONTINUOUS
 10
58.201044
 20
48.509179
  0
SEQEND
  8
1
  6
CONTINUOUS
  0
POLYLINE
  8
1
  6
CONTINUOUS
 66
     1
  0
VERTEX
  8
1
  6
CONTINUOUS
 10
35.615139
 20
50.420857
  0
VERTEX
  8
1
  6
CONTINUOUS
 10
38.936596
 20
50.139719
  0
VERTEX
  8
1
  6
CONTINUOUS
 10
39.217725
 20
53.461176
  0
VERTEX
  8
1
  6
CONTINUOUS
 10
35.896268
 20
53.742314
  0
VERTEX
  8
1
  6
CONTINUOUS
 10
35.615136
 20
50.420858
  0
SEQEND
  8
1
  6
CONTINUOUS
  0
LINE
  8
1
  6
CONTINUOUS
 10
96.707272
 20
8.040219
 11
100.256855
 21
49.973503
  0
LINE
  8
1
  6
CONTINUOUS
 10
41.861629
 20
12.682608
 11
41.828415
 21
12.685420
  0
LINE
  8
1
  6
CONTINUOUS
 10
41.828415
 20
12.685420
 11
41.831206
 21
12.718384
  0
LINE
  8
1
  6
CONTINUOUS
 10
7.596059
 20
26.060177
 11
7.562726
 21
26.060242
  0
LINE
  8
1
  6
CONTINUOUS
 10
7.562726
 20
26.060242
 11
7.562726
 21
26.093576
  0
LINE
  8
1
  6
CONTINUOUS
 10
78.988974
 20
19.993483
 11
78.988974
 21
19.993483
  0
POLYLINE
  8
1
  6
CONTINUOUS
 66
     1
  0
VERTEX
  8
1
  6
CONTINUOUS
 10
79.369015
 20
19.543159
  0
VERTEX
  8
1
  6
CONTINUOUS
 10
79.439297
 20
20.373524
  0
VERTEX
  8
1
  6
CONTINUOUS
 10
78.608933
 20
20.443806
  0
VERTEX
  8
1
  6
CONTINUOUS
 10
78.538651
 20
19.613442
  0
VERTEX
  8
1
  6
CONTINUOUS
 10
79.369015
 20
19.543159
  0
SEQEND
  8
1
  6
CONTINUOUS
  0
LINE
  8
1
  6
CONTINUOUS
 10
79.904949
 20
30.814442
 11
79.904949
 21
30.814442
  0
POLYLINE
  8
1
  6
CONTINUOUS
 66
     1
  0
VERTEX
  8
1
  6
CONTINUOUS
 10
80.284990
 20
30.364119
  0
VERTEX
  8
1
  6
CONTINUOUS
 10
80.355273
 20
31.194483
  0
VERTEX
  8
1
  6
CONTINUOUS
 10
79.524908
 20
31.264765
  0
VERTEX
  8
1
  6
CONTINUOUS
 10
79.454626
 20
30.434401
  0
VERTEX
  8
1
  6
CONTINUOUS
 10
80.284990
 20
30.364119
  0
SEQEND
  8
1
  6
CONTINUOUS
  0
LINE
  8
1
  6
CONTINUOUS
 10
80.781378
 20
41.168192
 11
80.781378
 21
41.168192
  0
POLYLINE
  8
1
  6
CONTINUOUS
 66
     1
  0
VERTEX
  8
1
  6
CONTINUOUS
 10
81.161419
 20
40.717869
  0
VERTEX
  8
1
  6
CONTINUOUS
 10
81.231701
 20
41.548233
  0
VERTEX
  8
1
  6
CONTINUOUS
 10
80.401337
 20
41.618516
  0
VERTEX
  8
1
  6
CONTINUOUS
 10
80.331054
 20
40.788151
  0
VERTEX
  8
1
  6
CONTINUOUS
 10
81.161419
 20
40.717869
  0
SEQEND
  8
1
  6
CONTINUOUS
  0
LINE
  8
1
  6
CONTINUOUS
 10
62.381699
 20
21.399255
 11
62.381699
 21
21.399255
  0
POLYLINE
  8
1
  6
CONTINUOUS
 66
     1
  0
VERTEX
  8
1
  6
CONTINUOUS
 10
62.761740
 20
20.948932
  0
VERTEX
  8
1
  6
CONTINUOUS
 10
62.832023
 20
21.779296
  0
VERTEX
  8
1
  6
CONTINUOUS
 10
62.001658
 20
21.849579
  0
VERTEX
  8
1
  6
CONTINUOUS
 10
61.931376
 20
21.019214
  0
VERTEX
  8
1
  6
CONTINUOUS
 10
62.761740
 20
20.948932
  0
SEQEND
  8
1
  6
CONTINUOUS
  0
LINE
  8
1
  6
CONTINUOUS
 10
63.470776
 20
32.289195
 11
63.470776
 21
32.289195
  0
POLYLINE
  8
1
  6
CONTINUOUS
 66
     1
  0
VERTEX
  8
1
  6
CONTINUOUS
 10
63.850817
 20
31.838871
  0
VERTEX
  8
1
  6
CONTINUOUS
 10
63.921099
 20
32.669236
  0
VERTEX
  8
1
  6
CONTINUOUS
 10
63.090735
 20
32.739518
  0
VERTEX
  8
1
  6
CONTINUOUS
 10
63.020452
 20
31.909154
  0
VERTEX
  8
1
  6
CONTINUOUS
 10
63.850817
 20
31.838871
  0
SEQEND
  8
1
  6
CONTINUOUS
  0
LINE
  8
1
  6
CONTINUOUS
 10
64.340175
 20
42.559909
 11
64.340175
 21
42.559909
  0
POLYLINE
  8
1
  6
CONTINUOUS
 66
     1
  0
VERTEX
  8
1
  6
CONTINUOUS
 10
64.720216
 20
42.109585
  0
VERTEX
  8
1
  6
CONTINUOUS
 10
64.790499
 20
42.939950
  0
VERTEX
  8
1
  6
CONTINUOUS
 10
63.960134
 20
43.010232
  0
VERTEX
  8
1
  6
CONTINUOUS
 10
63.889852
 20
42.179868
  0
VERTEX
  8
1
  6
CONTINUOUS
 10
64.720216
 20
42.109585
  0
SEQEND
  8
1
  6
CONTINUOUS
  0
LINE
  8
1
  6
CONTINUOUS
 10
45.898328
 20
22.292753
 11
45.898328
 21
22.292753
  0
POLYLINE
  8
1
  6
CONTINUOUS
 66
     1
  0
VERTEX
  8
1
  6
CONTINUOUS
 10
46.098239
 20
21.690413
  0
VERTEX
  8
1
  6
CONTINUOUS
 10
46.196635
 20
22.852923
  0
VERTEX
  8
1
  6
CONTINUOUS
 10
45.698416
 20
22.895093
  0
VERTEX
  8
1
  6
CONTINUOUS
 10
45.600021
 20
21.732583
  0
VERTEX
  8
1
  6
CONTINUOUS
 10
46.098239
 20
21.690413
  0
SEQEND
  8
1
  6
CONTINUOUS
  0
LINE
  8
1
  6
CONTINUOUS
 10
46.898642
 20
34.110150
 11
46.898642
 21
34.110150
  0
POLYLINE
  8
1
  6
CONTINUOUS
 66
     1
  0
VERTEX
  8
1
  6
CONTINUOUS
 10
47.098553
 20
33.507810
  0
VERTEX
  8
1
  6
CONTINUOUS
 10
47.196949
 20
34.670320
  0
VERTEX
  8
1
  6
CONTINUOUS
 10
46.698730
 20
34.712489
  0
VERTEX
  8
1
  6
CONTINUOUS
 10
46.600335
 20
33.549979
  0
VERTEX
  8
1
  6
CONTINUOUS
 10
47.098553
 20
33.507810
  0
SEQEND
  8
1
  6
CONTINUOUS
  0
LINE
  8
1
  6
CONTINUOUS
 10
47.775070
 20
44.463900
 11
47.775070
 21
44.463900
  0
POLYLINE
  8
1
  6
CONTINUOUS
 66
     1
  0
VERTEX
  8
1
  6
CONTINUOUS
 10
47.974982
 20
43.861560
  0
VERTEX
  8
1
  6
CONTINUOUS
 10
48.073377
 20
45.024070
  0
VERTEX
  8
1
  6
CONTINUOUS
 10
47.575158
 20
45.066239
  0
VERTEX
  8
1
  6
CONTINUOUS
 10
47.476763
 20
43.903729
  0
VERTEX
  8
1
  6
CONTINUOUS
 10
47.974982
 20
43.861560
  0
SEQEND
  8
1
  6
CONTINUOUS
  0
LINE
  8
1
  6
CONTINUOUS
 10
16.921263
 20
24.745579
 11
16.921263
 21
24.745579
  0
POLYLINE
  8
1
  6
CONTINUOUS
 66
     1
  0
VERTEX
  8
1
  6
CONTINUOUS
 10
17.121175
 20
24.143240
  0
VERTEX
  8
1
  6
CONTINUOUS
 10
17.219570
 20
25.305750
  0
VERTEX
  8
1
  6
CONTINUOUS
 10
16.721352
 20
25.347919
  0
VERTEX
  8
1
  6
CONTINUOUS
 10
16.622957
 20
24.185409
  0
VERTEX
  8
1
  6
CONTINUOUS
 10
17.121175
 20
24.143240
  0
SEQEND
  8
1
  6
CONTINUOUS
  0
LINE
  8
1
  6
CONTINUOUS
 10
17.921577
 20
36.562976
 11
17.921577
 21
36.562976
  0
POLYLINE
  8
1
  6
CONTINUOUS
 66
     1
  0
VERTEX
  8
1
  6
CONTINUOUS
 10
18.121489
 20
35.960636
  0
VERTEX
  8
1
  6
CONTINUOUS
 10
18.219884
 20
37.123146
  0
VERTEX
  8
1
  6
CONTINUOUS
 10
17.721666
 20
37.165316
  0
VERTEX
  8
1
  6
CONTINUOUS
 10
17.623271
 20
36.002806
  0
VERTEX
  8
1
  6
CONTINUOUS
 10
18.121489
 20
35.960636
  0
SEQEND
  8
1
  6
CONTINUOUS
  0
LINE
  8
1
  6
CONTINUOUS
 10
95.953059
 20
18.851003
 11
95.953059
 21
18.851003
  0
POLYLINE
  8
1
  6
CONTINUOUS
 66
     1
  0
VERTEX
  8
1
  6
CONTINUOUS
 10
96.257092
 20
18.490745
  0
VERTEX
  8
1
  6
CONTINUOUS
 10
96.313318
 20
19.155036
  0
VERTEX
  8
1
  6
CONTINUOUS
 10
95.649027
 20
19.211262
  0
VERTEX
  8
1
  6
CONTINUOUS
 10
95.592801
 20
18.546971
  0
VERTEX
  8
1
  6
CONTINUOUS
 10
96.257092
 20
18.490745
  0
SEQEND
  8
1
  6
CONTINUOUS
  0
LINE
  8
1
  6
CONTINUOUS
 10
96.824495
 20
29.146790
 11
96.824495
 21
29.146790
  0
POLYLINE
  8
1
  6
CONTINUOUS
 66
     1
  0
VERTEX
  8
1
  6
CONTINUOUS
 10
97.128528
 20
28.786531
  0
VERTEX
  8
1
  6
CONTINUOUS
 10
97.184754
 20
29.450823
  0
VERTEX
  8
1
  6
CONTINUOUS
 10
96.520462
 20
29.507049
  0
VERTEX
  8
1
  6
CONTINUOUS
 10
96.464237
 20
28.842757
  0
VERTEX
  8
1
  6
CONTINUOUS
 10
97.128528
 20
28.786531
  0
SEQEND
  8
1
  6
CONTINUOUS
  0
LINE
  8
1
  6
CONTINUOUS
 10
97.695993
 20
39.443305
 11
97.695993
 21
39.443305
  0
POLYLINE
  8
1
  6
CONTINUOUS
 66
     1
  0
VERTEX
  8
1
  6
CONTINUOUS
 10
98.000026
 20
39.083047
  0
VERTEX
  8
1
  6
CONTINUOUS
 10
98.056251
 20
39.747338
  0
VERTEX
  8
1
  6
CONTINUOUS
 10
97.391960
 20
39.803564
  0
VERTEX
  8
1
  6
CONTINUOUS
 10
97.335734
 20
39.139273
  0
VERTEX
  8
1
  6
CONTINUOUS
 10
98.000026
 20
39.083047
  0
SEQEND
  8
1
  6
CONTINUOUS
  0
LINE
  8
1
  6
CONTINUOUS
 10
14.988594
 20
15.224472
 11
14.988594
 21
15.224472
  0
POLYLINE
  8
1
  6
CONTINUOUS
 66
     1
  0
VERTEX
  8
1
  6
CONTINUOUS
 10
15.257383
 20
15.435889
  0
VERTEX
  8
1
  6
CONTINUOUS
 10
14.759164
 20
15.478058
  0
VERTEX
  8
1
  6
CONTINUOUS
 10
14.719806
 20
15.013054
  0
VERTEX
  8
1
  6
CONTINUOUS
 10
15.218025
 20
14.970885
  0
VERTEX
  8
1
  6
CONTINUOUS
 10
15.257383
 20
15.435889
  0
SEQEND
  8
1
  6
CONTINUOUS
  0
LINE
  8
1
  6
CONTINUOUS
 10
98.371409
 20
50.383956
 11
98.371409
 21
50.383956
  0
POLYLINE
  8
1
  6
CONTINUOUS
 66
     1
  0
VERTEX
  8
1
  6
CONTINUOUS
 10
98.931631
 20
50.085747
  0
VERTEX
  8
1
  6
CONTINUOUS
 10
98.973713
 20
50.583972
  0
VERTEX
  8
1
  6
CONTINUOUS
 10
97.811186
 20
50.682165
  0
VERTEX
  8
1
  6
CONTINUOUS
 10
97.769104
 20
50.183939
  0
VERTEX
  8
1
  6
CONTINUOUS
 10
98.931631
 20
50.085747
  0
SEQEND
  8
1
  6
CONTINUOUS
  0
LINE
  8
1
  6
CONTINUOUS
 10
88.872197
 20
51.188016
 11
88.872197
 21
51.188016
  0
POLYLINE
  8
1
  6
CONTINUOUS
 66
     1
  0
VERTEX
  8
1
  6
CONTINUOUS
 10
89.100268
 20
50.917862
  0
VERTEX
  8
1
  6
CONTINUOUS
 10
89.142351
 20
51.416088
  0
VERTEX
  8
1
  6
CONTINUOUS
 10
88.644125
 20
51.458170
  0
VERTEX
  8
1
  6
CONTINUOUS
 10
88.602042
 20
50.959944
  0
VERTEX
  8
1
  6
CONTINUOUS
 10
89.100268
 20
50.917862
  0
SEQEND
  8
1
  6
CONTINUOUS
  0
LINE
  8
1
  6
CONTINUOUS
 10
78.077456
 20
52.101631
 11
78.077456
 21
52.101631
  0
POLYLINE
  8
1
  6
CONTINUOUS
 66
     1
  0
VERTEX
  8
1
  6
CONTINUOUS
 10
78.305528
 20
51.831477
  0
VERTEX
  8
1
  6
CONTINUOUS
 10
78.347611
 20
52.329703
  0
VERTEX
  8
1
  6
CONTINUOUS
 10
77.849385
 20
52.371785
  0
VERTEX
  8
1
  6
CONTINUOUS
 10
77.807302
 20
51.873559
  0
VERTEX
  8
1
  6
CONTINUOUS
 10
78.305528
 20
51.831477
  0
SEQEND
  8
1
  6
CONTINUOUS
  0
LINE
  8
1
  6
CONTINUOUS
 10
68.943445
 20
52.874690
 11
68.943445
 21
52.874690
  0
POLYLINE
  8
1
  6
CONTINUOUS
 66
     1
  0
VERTEX
  8
1
  6
CONTINUOUS
 10
69.171517
 20
52.604536
  0
VERTEX
  8
1
  6
CONTINUOUS
 10
69.213600
 20
53.102762
  0
VERTEX
  8
1
  6
CONTINUOUS
 10
68.715374
 20
53.144844
  0
VERTEX
  8
1
  6
CONTINUOUS
 10
68.673291
 20
52.646618
  0
VERTEX
  8
1
  6
CONTINUOUS
 10
69.171517
 20
52.604536
  0
SEQEND
  8
1
  6
CONTINUOUS
  0
LINE
  8
1
  6
CONTINUOUS
 10
52.336153
 20
54.280257
 11
52.336153
 21
54.280257
  0
POLYLINE
  8
1
  6
CONTINUOUS
 66
     1
  0
VERTEX
  8
1
  6
CONTINUOUS
 10
52.564225
 20
54.010103
  0
VERTEX
  8
1
  6
CONTINUOUS
 10
52.606307
 20
54.508329
  0
VERTEX
  8
1
  6
CONTINUOUS
 10
52.108082
 20
54.550411
  0
VERTEX
  8
1
  6
CONTINUOUS
 10
52.065999
 20
54.052185
  0
VERTEX
  8
1
  6
CONTINUOUS
 10
52.564225
 20
54.010103
  0
SEQEND
  8
1
  6
CONTINUOUS
  0
LINE
  8
1
  6
CONTINUOUS
 10
45.693236
 20
54.842476
 11
45.693236
 21
54.842476
  0
POLYLINE
  8
1
  6
CONTINUOUS
 66
     1
  0
VERTEX
  8
1
  6
CONTINUOUS
 10
45.921308
 20
54.572322
  0
VERTEX
  8
1
  6
CONTINUOUS
 10
45.963390
 20
55.070548
  0
VERTEX
  8
1
  6
CONTINUOUS
 10
45.465164
 20
55.112630
  0
VERTEX
  8
1
  6
CONTINUOUS
 10
45.423082
 20
54.614404
  0
VERTEX
  8
1
  6
CONTINUOUS
 10
45.921308
 20
54.572322
  0
SEQEND
  8
1
  6
CONTINUOUS
  0
LINE
  8
1
  6
CONTINUOUS
 10
28.025985
 20
56.337761
 11
28.025985
 21
56.337761
  0
POLYLINE
  8
1
  6
CONTINUOUS
 66
     1
  0
VERTEX
  8
1
  6
CONTINUOUS
 10
28.254056
 20
56.067607
  0
VERTEX
  8
1
  6
CONTINUOUS
 10
28.296139
 20
56.565833
  0
VERTEX
  8
1
  6
CONTINUOUS
 10
27.797913
 20
56.607916
  0
VERTEX
  8
1
  6
CONTINUOUS
 10
27.755830
 20
56.109690
  0
VERTEX
  8
1
  6
CONTINUOUS
 10
28.254056
 20
56.067607
  0
SEQEND
  8
1
  6
CONTINUOUS
  0
LINE
  8
1
  6
CONTINUOUS
 10
18.441290
 20
57.148961
 11
18.441290
 21
57.148961
  0
POLYLINE
  8
1
  6
CONTINUOUS
 66
     1
  0
VERTEX
  8
1
  6
CONTINUOUS
 10
18.669362
 20
56.878807
  0
VERTEX
  8
1
  6
CONTINUOUS
 10
18.711444
 20
57.377033
  0
VERTEX
  8
1
  6
CONTINUOUS
 10
18.213218
 20
57.419115
  0
VERTEX
  8
1
  6
CONTINUOUS
 10
18.171136
 20
56.920889
  0
VERTEX
  8
1
  6
CONTINUOUS
 10
18.669362
 20
56.878807
  0
SEQEND
  8
1
  6
CONTINUOUS
  0
LINE
  8
1
  6
CONTINUOUS
 10
9.307282
 20
57.922063
 11
9.307282
 21
57.922063
  0
POLYLINE
  8
1
  6
CONTINUOUS
 66
     1
  0
VERTEX
  8
1
  6
CONTINUOUS
 10
9.867505
 20
57.623854
  0
VERTEX
  8
1
  6
CONTINUOUS
 10
9.909587
 20
58.122080
  0
VERTEX
  8
1
  6
CONTINUOUS
 10
8.747060
 20
58.220272
  0
VERTEX
  8
1
  6
CONTINUOUS
 10
8.704978
 20
57.722046
  0
VERTEX
  8
1
  6
CONTINUOUS
 10
9.867505
 20
57.623854
  0
SEQEND
  8
1
  6
CONTINUOUS
  0
LINE
  8
1
  6
CONTINUOUS
 10
7.828903
 20
25.809722
 11
7.828903
 21
25.809722
  0
POLYLINE
  8
1
  6
CONTINUOUS
 66
     1
  0
VERTEX
  8
1
  6
CONTINUOUS
 10
8.061748
 20
25.559266
  0
VERTEX
  8
1
  6
CONTINUOUS
 10
8.062725
 20
26.059265
  0
VERTEX
  8
1
  6
CONTINUOUS
 10
7.596059
 20
26.060177
  0
VERTEX
  8
1
  6
CONTINUOUS
 10
7.595082
 20
25.560178
  0
VERTEX
  8
1
  6
CONTINUOUS
 10
8.061748
 20
25.559266
  0
SEQEND
  8
1
  6
CONTINUOUS
  0
LINE
  8
1
  6
CONTINUOUS
 10
7.347839
 20
44.010697
 11
7.347839
 21
44.010697
  0
POLYLINE
  8
1
  6
CONTINUOUS
 66
     1
  0
VERTEX
  8
1
  6
CONTINUOUS
 10
7.597350
 20
43.760209
  0
VERTEX
  8
1
  6
CONTINUOUS
 10
7.598327
 20
44.260208
  0
VERTEX
  8
1
  6
CONTINUOUS
 10
7.098328
 20
44.261185
  0
VERTEX
  8
1
  6
CONTINUOUS
 10
7.097351
 20
43.761186
  0
VERTEX
  8
1
  6
CONTINUOUS
 10
7.597350
 20
43.760209
  0
SEQEND
  8
1
  6
CONTINUOUS
  0
LINE
  8
1
  6
CONTINUOUS
 10
7.372127
 20
56.427340
 11
7.372127
 21
56.427340
  0
POLYLINE
  8
1
  6
CONTINUOUS
 66
     1
  0
VERTEX
  8
1
  6
CONTINUOUS
 10
7.621638
 20
56.176851
  0
VERTEX
  8
1
  6
CONTINUOUS
 10
7.622615
 20
56.676850
  0
VERTEX
  8
1
  6
CONTINUOUS
 10
7.122616
 20
56.677828
  0
VERTEX
  8
1
  6
CONTINUOUS
 10
7.121639
 20
56.177829
  0
VERTEX
  8
1
  6
CONTINUOUS
 10
7.621638
 20
56.176851
  0
SEQEND
  8
1
  6
CONTINUOUS
  0
LINE
  8
1
  6
CONTINUOUS
 10
60.682551
 20
53.573916
 11
60.682551
 21
53.573916
  0
POLYLINE
  8
1
  6
CONTINUOUS
 66
     1
  0
VERTEX
  8
1
  6
CONTINUOUS
 10
61.242773
 20
53.275707
  0
VERTEX
  8
1
  6
CONTINUOUS
 10
61.284856
 20
53.773933
  0
VERTEX
  8
1
  6
CONTINUOUS
 10
60.122329
 20
53.872126
  0
VERTEX
  8
1
  6
CONTINUOUS
 10
60.080246
 20
53.373900
  0
VERTEX
  8
1
  6
CONTINUOUS
 10
61.242773
 20
53.275707
  0
SEQEND
  8
1
  6
CONTINUOUS
  0
LINE
  8
1
  6
CONTINUOUS
 10
22.503393
 20
14.588438
 11
22.503393
 21
14.588438
  0
POLYLINE
  8
1
  6
CONTINUOUS
 66
     1
  0
VERTEX
  8
1
  6
CONTINUOUS
 10
22.772182
 20
14.799856
  0
VERTEX
  8
1
  6
CONTINUOUS
 10
22.273963
 20
14.842025
  0
VERTEX
  8
1
  6
CONTINUOUS
 10
22.234605
 20
14.377021
  0
VERTEX
  8
1
  6
CONTINUOUS
 10
22.732824
 20
14.334852
  0
VERTEX
  8
1
  6
CONTINUOUS
 10
22.772182
 20
14.799856
  0
SEQEND
  8
1
  6
CONTINUOUS
  0
LINE
  8
1
  6
CONTINUOUS
 10
72.251187
 20
9.859007
 11
72.251187
 21
9.859007
  0
POLYLINE
  8
1
  6
CONTINUOUS
 66
     1
  0
VERTEX
  8
1
  6
CONTINUOUS
 10
72.521385
 20
10.087027
  0
VERTEX
  8
1
  6
CONTINUOUS
 10
72.023167
 20
10.129205
  0
VERTEX
  8
1
  6
CONTINUOUS
 10
71.980989
 20
9.630987
  0
VERTEX
  8
1
  6
CONTINUOUS
 10
72.479207
 20
9.588809
  0
VERTEX
  8
1
  6
CONTINUOUS
 10
72.521385
 20
10.087027
  0
SEQEND
  8
1
  6
CONTINUOUS
  0
LINE
  8
1
  6
CONTINUOUS
 10
82.215563
 20
9.015674
 11
82.215563
 21
9.015674
  0
POLYLINE
  8
1
  6
CONTINUOUS
 66
     1
  0
VERTEX
  8
1
  6
CONTINUOUS
 10
82.485761
 20
9.243694
  0
VERTEX
  8
1
  6
CONTINUOUS
 10
81.987543
 20
9.285872
  0
VERTEX
  8
1
  6
CONTINUOUS
 10
81.945365
 20
8.787654
  0
VERTEX
  8
1
  6
CONTINUOUS
 10
82.443583
 20
8.745476
  0
VERTEX
  8
1
  6
CONTINUOUS
 10
82.485761
 20
9.243694
  0
SEQEND
  8
1
  6
CONTINUOUS
  0
LINE
  8
1
  6
CONTINUOUS
 10
95.111731
 20
7.923912
 11
95.111731
 21
7.923912
  0
POLYLINE
  8
1
  6
CONTINUOUS
 66
     1
  0
VERTEX
  8
1
  6
CONTINUOUS
 10
95.381929
 20
8.151932
  0
VERTEX
  8
1
  6
CONTINUOUS
 10
94.883711
 20
8.194110
  0
VERTEX
  8
1
  6
CONTINUOUS
 10
94.841533
 20
7.695892
  0
VERTEX
  8
1
  6
CONTINUOUS
 10
95.339751
 20
7.653714
  0
VERTEX
  8
1
  6
CONTINUOUS
 10
95.381929
 20
8.151932
  0
SEQEND
  8
1
  6
CONTINUOUS
  0
LINE
  8
1
  6
CONTINUOUS
 10
37.159988
 20
55.564616
 11
37.159988
 21
55.564616
  0
POLYLINE
  8
1
  6
CONTINUOUS
 66
     1
  0
VERTEX
  8
1
  6
CONTINUOUS
 10
37.720211
 20
55.266407
  0
VERTEX
  8
1
  6
CONTINUOUS
 10
37.762293
 20
55.764632
  0
VERTEX
  8
1
  6
CONTINUOUS
 10
36.599766
 20
55.862825
  0
VERTEX
  8
1
  6
CONTINUOUS
 10
36.557684
 20
55.364599
  0
VERTEX
  8
1
  6
CONTINUOUS
 10
37.720211
 20
55.266407
  0
SEQEND
  8
1
  6
CONTINUOUS
  0
LINE
  8
1
  6
CONTINUOUS
 10
51.651405
 20
11.853808
 11
51.651405
 21
11.853808
  0
POLYLINE
  8
1
  6
CONTINUOUS
 66
     1
  0
VERTEX
  8
1
  6
CONTINUOUS
 10
52.108756
 20
12.316885
  0
VERTEX
  8
1
  6
CONTINUOUS
 10
51.278392
 20
12.387167
  0
VERTEX
  8
1
  6
CONTINUOUS
 10
51.194053
 20
11.390730
  0
VERTEX
  8
1
  6
CONTINUOUS
 10
52.024417
 20
11.320448
  0
VERTEX
  8
1
  6
CONTINUOUS
 10
52.108756
 20
12.316885
  0
SEQEND
  8
1
  6
CONTINUOUS
  0
LINE
  8
1
  6
CONTINUOUS
 10
32.515373
 20
23.314952
 11
32.515373
 21
23.314952
  0
POLYLINE
  8
1
  6
CONTINUOUS
 66
     1
  0
VERTEX
  8
1
  6
CONTINUOUS
 10
32.715285
 20
22.712612
  0
VERTEX
  8
1
  6
CONTINUOUS
 10
32.813680
 20
23.875122
  0
VERTEX
  8
1
  6
CONTINUOUS
 10
32.315461
 20
23.917291
  0
VERTEX
  8
1
  6
CONTINUOUS
 10
32.217066
 20
22.754781
  0
VERTEX
  8
1
  6
CONTINUOUS
 10
32.715285
 20
22.712612
  0
SEQEND
  8
1
  6
CONTINUOUS
  0
LINE
  8
1
  6
CONTINUOUS
 10
33.515536
 20
35.132361
 11
33.515536
 21
35.132361
  0
POLYLINE
  8
1
  6
CONTINUOUS
 66
     1
  0
VERTEX
  8
1
  6
CONTINUOUS
 10
33.715448
 20
34.530021
  0
VERTEX
  8
1
  6
CONTINUOUS
 10
33.813843
 20
35.692531
  0
VERTEX
  8
1
  6
CONTINUOUS
 10
33.315624
 20
35.734701
  0
VERTEX
  8
1
  6
CONTINUOUS
 10
33.217229
 20
34.572191
  0
VERTEX
  8
1
  6
CONTINUOUS
 10
33.715448
 20
34.530021
  0
SEQEND
  8
1
  6
CONTINUOUS
  0
LINE
  8
1
  6
CONTINUOUS
 10
34.148151
 20
42.607097
 11
34.148151
 21
42.607097
  0
POLYLINE
  8
1
  6
CONTINUOUS
 66
     1
  0
VERTEX
  8
1
  6
CONTINUOUS
 10
34.348063
 20
42.004758
  0
VERTEX
  8
1
  6
CONTINUOUS
 10
34.446458
 20
43.167268
  0
VERTEX
  8
1
  6
CONTINUOUS
 10
33.948239
 20
43.209437
  0
VERTEX
  8
1
  6
CONTINUOUS
 10
33.849844
 20
42.046927
  0
VERTEX
  8
1
  6
CONTINUOUS
 10
34.348063
 20
42.004758
  0
SEQEND
  8
1
  6
CONTINUOUS
  0
LINE
  8
1
  6
CONTINUOUS
 10
18.755839
 20
46.418530
 11
18.755839
 21
46.418530
  0
POLYLINE
  8
1
  6
CONTINUOUS
 66
     1
  0
VERTEX
  8
1
  6
CONTINUOUS
 10
18.955750
 20
45.816191
  0
VERTEX
  8
1
  6
CONTINUOUS
 10
19.054146
 20
46.978701
  0
VERTEX
  8
1
  6
CONTINUOUS
 10
18.555927
 20
47.020870
  0
VERTEX
  8
1
  6
CONTINUOUS
 10
18.457532
 20
45.858360
  0
VERTEX
  8
1
  6
CONTINUOUS
 10
18.955750
 20
45.816191
  0
SEQEND
  8
1
  6
CONTINUOUS
  0
LINE
  8
1
  6
CONTINUOUS
 10
62.192647
 20
10.710784
 11
62.192647
 21
10.710784
  0
POLYLINE
  8
1
  6
CONTINUOUS
 66
     1
  0
VERTEX
  8
1
  6
CONTINUOUS
 10
62.462841
 20
10.938809
  0
VERTEX
  8
1
  6
CONTINUOUS
 10
61.964623
 20
10.980978
  0
VERTEX
  8
1
  6
CONTINUOUS
 10
61.922454
 20
10.482760
  0
VERTEX
  8
1
  6
CONTINUOUS
 10
62.420672
 20
10.440590
  0
VERTEX
  8
1
  6
CONTINUOUS
 10
62.462841
 20
10.938809
  0
SEQEND
  8
1
  6
CONTINUOUS
  0
LINE
  8
5
  6
CONTINUOUS
 10
61.964623
 20
10.980978
 11
61.812606
 21
11.161107
  0
LINE
  8
5
  6
CONTINUOUS
 10
61.922454
 20
10.482760
 11
61.742324
 21
10.330743
  0
LINE
  8
5
  6
CONTINUOUS
 10
62.420672
 20
10.440590
 11
62.572689
 21
10.260461
  0
LINE
  8
5
  6
CONTINUOUS
 10
62.462841
 20
10.938809
 11
62.642971
 21
11.090825
  0
LINE
  8
1
  6
CONTINUOUS
 10
42.089654
 20
12.412414
 11
42.089654
 21
12.412414
  0
POLYLINE
  8
1
  6
CONTINUOUS
 66
     1
  0
VERTEX
  8
1
  6
CONTINUOUS
 10
42.359848
 20
12.640438
  0
VERTEX
  8
1
  6
CONTINUOUS
 10
41.861629
 20
12.682608
  0
VERTEX
  8
1
  6
CONTINUOUS
 10
41.819460
 20
12.184389
  0
VERTEX
  8
1
  6
CONTINUOUS
 10
42.317679
 20
12.142220
  0
VERTEX
  8
1
  6
CONTINUOUS
 10
42.359848
 20
12.640438
  0
SEQEND
  8
1
  6
CONTINUOUS
  0
LINE
  8
1
  6
CONTINUOUS
 10
7.332580
 20
36.210712
 11
7.332580
 21
36.210712
  0
POLYLINE
  8
1
  6
CONTINUOUS
 66
     1
  0
VERTEX
  8
1
  6
CONTINUOUS
 10
7.582091
 20
35.960223
  0
VERTEX
  8
1
  6
CONTINUOUS
 10
7.583069
 20
36.460222
  0
VERTEX
  8
1
  6
CONTINUOUS
 10
7.083070
 20
36.461200
  0
VERTEX
  8
1
  6
CONTINUOUS
 10
7.082092
 20
35.961201
  0
VERTEX
  8
1
  6
CONTINUOUS
 10
7.582091
 20
35.960223
  0
SEQEND
  8
1
  6
CONTINUOUS
  0
LINE
  8
1
  6
CONTINUOUS
 10
61.682310
 20
11.004874
 11
61.682310
 21
11.004874
  0
POLYLINE
  8
1
  6
CONTINUOUS
 66
     1
  0
VERTEX
  8
1
  6
CONTINUOUS
 10
61.973588
 20
11.482008
  0
VERTEX
  8
1
  6
CONTINUOUS
 10
61.475370
 20
11.524177
  0
VERTEX
  8
1
  6
CONTINUOUS
 10
61.391031
 20
10.527740
  0
VERTEX
  8
1
  6
CONTINUOUS
 10
61.889250
 20
10.485571
  0
VERTEX
  8
1
  6
CONTINUOUS
 10
61.973588
 20
11.482008
  0
SEQEND
  8
1
  6
CONTINUOUS
  0
LINE
  8
1
  6
CONTINUOUS
 10
31.834782
 20
13.799016
 11
31.834782
 21
13.799016
  0
POLYLINE
  8
1
  6
CONTINUOUS
 66
     1
  0
VERTEX
  8
1
  6
CONTINUOUS
 10
32.103570
 20
14.010434
  0
VERTEX
  8
1
  6
CONTINUOUS
 10
31.605351
 20
14.052603
  0
VERTEX
  8
1
  6
CONTINUOUS
 10
31.565993
 20
13.587599
  0
VERTEX
  8
1
  6
CONTINUOUS
 10
32.064212
 20
13.545430
  0
VERTEX
  8
1
  6
CONTINUOUS
 10
32.103570
 20
14.010434
  0
SEQEND
  8
1
  6
CONTINUOUS
  0
LINE
  8
1
  6
CONTINUOUS
 10
7.313215
 20
26.344064
 11
7.313215
 21
26.344064
  0
POLYLINE
  8
1
  6
CONTINUOUS
 66
     1
  0
VERTEX
  8
1
  6
CONTINUOUS
 10
7.562726
 20
26.093576
  0
VERTEX
  8
1
  6
CONTINUOUS
 10
7.563703
 20
26.593575
  0
VERTEX
  8
1
  6
CONTINUOUS
 10
7.063704
 20
26.594552
  0
VERTEX
  8
1
  6
CONTINUOUS
 10
7.062727
 20
26.094553
  0
VERTEX
  8
1
  6
CONTINUOUS
 10
7.562726
 20
26.093576
  0
SEQEND
  8
1
  6
CONTINUOUS
  0
LINE
  8
1
  6
CONTINUOUS
 10
7.810945
 20
16.629268
 11
7.810945
 21
16.629268
  0
POLYLINE
  8
1
  6
CONTINUOUS
 66
     1
  0
VERTEX
  8
1
  6
CONTINUOUS
 10
8.043789
 20
16.378812
  0
VERTEX
  8
1
  6
CONTINUOUS
 10
8.044767
 20
16.878811
  0
VERTEX
  8
1
  6
CONTINUOUS
 10
7.578101
 20
16.879723
  0
VERTEX
  8
1
  6
CONTINUOUS
 10
7.577124
 20
16.379724
  0
VERTEX
  8
1
  6
CONTINUOUS
 10
8.043789
 20
16.378812
  0
SEQEND
  8
1
  6
CONTINUOUS
  0
LINE
  8
1
  6
CONTINUOUS
 10
37.297164
 20
52.238420
 11
37.297164
 21
52.238420
  0
POLYLINE
  8
1
  6
CONTINUOUS
 66
     1
  0
VERTEX
  8
1
  6
CONTINUOUS
 10
37.449180
 20
52.058291
  0
VERTEX
  8
1
  6
CONTINUOUS
 10
37.477293
 20
52.390437
  0
VERTEX
  8
1
  6
CONTINUOUS
 10
37.145148
 20
52.418550
  0
VERTEX
  8
1
  6
CONTINUOUS
 10
37.117035
 20
52.086404
  0
VERTEX
  8
1
  6
CONTINUOUS
 10
37.449180
 20
52.058291
  0
SEQEND
  8
1
  6
CONTINUOUS
  0
LINE
  8
5
  6
CONTINUOUS
 10
37.477293
 20
52.390437
 11
37.657423
 21
52.542453
  0
LINE
  8
5
  6
CONTINUOUS
 10
37.145148
 20
52.418550
 11
36.993131
 21
52.598679
  0
LINE
  8
5
  6
CONTINUOUS
 10
37.117035
 20
52.086404
 11
36.936905
 21
51.934388
  0
LINE
  8
5
  6
CONTINUOUS
 10
37.449180
 20
52.058291
 11
37.601197
 21
51.878162
  0
LINE
  8
1
  6
CONTINUOUS
 10
48.642882
 20
51.280054
 11
48.642882
 21
51.280054
  0
POLYLINE
  8
1
  6
CONTINUOUS
 66
     1
  0
VERTEX
  8
1
  6
CONTINUOUS
 10
48.794899
 20
51.099924
  0
VERTEX
  8
1
  6
CONTINUOUS
 10
48.823012
 20
51.432070
  0
VERTEX
  8
1
  6
CONTINUOUS
 10
48.490866
 20
51.460183
  0
VERTEX
  8
1
  6
CONTINUOUS
 10
48.462753
 20
51.128037
  0
VERTEX
  8
1
  6
CONTINUOUS
 10
48.794899
 20
51.099924
  0
SEQEND
  8
1
  6
CONTINUOUS
  0
LINE
  8
5
  6
CONTINUOUS
 10
48.823012
 20
51.432070
 11
49.003141
 21
51.584086
  0
LINE
  8
5
  6
CONTINUOUS
 10
48.490866
 20
51.460183
 11
48.338849
 21
51.640312
  0
LINE
  8
5
  6
CONTINUOUS
 10
48.462753
 20
51.128037
 11
48.282624
 21
50.976021
  0
LINE
  8
5
  6
CONTINUOUS
 10
48.794899
 20
51.099924
 11
48.946915
 21
50.919795
  0
LINE
  8
1
  6
CONTINUOUS
 10
59.989769
 20
50.321644
 11
59.989769
 21
50.321644
  0
POLYLINE
  8
1
  6
CONTINUOUS
 66
     1
  0
VERTEX
  8
1
  6
CONTINUOUS
 10
60.141786
 20
50.141515
  0
VERTEX
  8
1
  6
CONTINUOUS
 10
60.169899
 20
50.473661
  0
VERTEX
  8
1
  6
CONTINUOUS
 10
59.837753
 20
50.501774
  0
VERTEX
  8
1
  6
CONTINUOUS
 10
59.809640
 20
50.169628
  0
VERTEX
  8
1
  6
CONTINUOUS
 10
60.141786
 20
50.141515
  0
SEQEND
  8
1
  6
CONTINUOUS
  0
LINE
  8
5
  6
CONTINUOUS
 10
60.169899
 20
50.473661
 11
60.350028
 21
50.625677
  0
LINE
  8
5
  6
CONTINUOUS
 10
59.837753
 20
50.501774
 11
59.685736
 21
50.681903
  0
LINE
  8
5
  6
CONTINUOUS
 10
59.809640
 20
50.169628
 11
59.629511
 21
50.017612
  0
LINE
  8
5
  6
CONTINUOUS
 10
60.141786
 20
50.141515
 11
60.293802
 21
49.961386
  0
LINE
  8
1
  6
CONTINUOUS
 10
41.435723
 20
12.986277
 11
41.435723
 21
12.986277
  0
POLYLINE
  8
1
  6
CONTINUOUS
 66
     1
  0
VERTEX
  8
1
  6
CONTINUOUS
 10
41.870584
 20
13.183638
  0
VERTEX
  8
1
  6
CONTINUOUS
 10
41.040220
 20
13.253921
  0
VERTEX
  8
1
  6
CONTINUOUS
 10
41.000862
 20
12.788917
  0
VERTEX
  8
1
  6
CONTINUOUS
 10
41.831226
 20
12.718634
  0
VERTEX
  8
1
  6
CONTINUOUS
 10
41.870584
 20
13.183638
  0
SEQEND
  8
1
  6
CONTINUOUS
  0
POLYLINE
  8
1
  6
CONTINUOUS
 66
     1
  0
VERTEX
  8
1
  6
CONTINUOUS
 10
42.041899
 20
10.868419
  0
VERTEX
  8
1
  6
CONTINUOUS
 10
42.041899
 20
11.993419
  0
VERTEX
  8
1
  6
CONTINUOUS
 10
41.791069
 20
12.722033
  0
VERTEX
  8
1
  6
CONTINUOUS
 10
41.865426
 20
12.572873
  0
VERTEX
  8
1
  6
CONTINUOUS
 10
41.791069
 20
12.722033
  0
VERTEX
  8
1
  6
CONTINUOUS
 10
41.824287
 20
12.558710
  0
SEQEND
  8
1
  6
CONTINUOUS
  0
LINE
  8
4
  6
CONTINUOUS
 10
15.471190
 20
16.506092
 11
15.386851
 21
15.509655
  0
LINE
  8
4
  6
CONTINUOUS
 10
15.287207
 20
15.518089
 11
15.486495
 21
15.501221
  0
LINE
  8
4
  6
CONTINUOUS
 10
15.288894
 20
15.538018
 11
15.488181
 21
15.521150
  0
LINE
  8
4
  6
CONTINUOUS
 10
15.290581
 20
15.557946
 11
15.489868
 21
15.541079
  0
LINE
  8
4
  6
CONTINUOUS
 10
18.907872
 20
57.109485
 11
18.971126
 21
57.856813
  0
LINE
  8
4
  6
CONTINUOUS
 10
19.051598
 20
57.473661
 11
18.827400
 21
57.492637
  0
LINE
  8
4
  6
CONTINUOUS
 10
19.057924
 20
57.548394
 11
18.833725
 21
57.567370
  0
LINE
  8
4
  6
CONTINUOUS
 10
19.064249
 20
57.623126
 11
18.840051
 21
57.642103
  0
LINE
  8
4
  6
CONTINUOUS
 10
19.070574
 20
57.697859
 11
18.846376
 21
57.716835
  0
LINE
  8
4
  6
CONTINUOUS
 10
19.027176
 20
57.852069
 11
18.915076
 21
57.861557
  0
LINE
  8
4
  6
CONTINUOUS
 10
19.027176
 20
57.852069
 11
19.034380
 21
58.604141
  0
LINE
  8
4
  6
CONTINUOUS
 10
18.915076
 20
57.861557
 11
19.034380
 21
58.604141
  0
POLYLINE
  8
4
  6
CONTINUOUS
 66
     1
  0
VERTEX
  8
4
  6
CONTINUOUS
 10
15.471190
 20
16.506092
  0
VERTEX
  8
4
  6
CONTINUOUS
 10
18.907872
 20
57.109485
  0
SEQEND
  8
4
  6
CONTINUOUS
  0
LINE
  8
4
  6
CONTINUOUS
 10
15.969408
 20
16.463923
 11
15.885069
 21
15.467486
  0
LINE
  8
4
  6
CONTINUOUS
 10
15.785426
 20
15.475919
 11
15.984713
 21
15.459052
  0
LINE
  8
4
  6
CONTINUOUS
 10
15.787112
 20
15.495848
 11
15.986400
 21
15.478980
  0
LINE
  8
4
  6
CONTINUOUS
 10
15.788799
 20
15.515777
 11
15.988087
 21
15.498909
  0
LINE
  8
4
  6
CONTINUOUS
 10
19.406091
 20
57.067316
 11
19.469345
 21
57.814643
  0
LINE
  8
4
  6
CONTINUOUS
 10
19.549817
 20
57.431491
 11
19.325618
 21
57.450468
  0
LINE
  8
4
  6
CONTINUOUS
 10
19.556142
 20
57.506224
 11
19.331944
 21
57.525200
  0
LINE
  8
4
  6
CONTINUOUS
 10
19.562468
 20
57.580957
 11
19.338269
 21
57.599933
  0
LINE
  8
4
  6
CONTINUOUS
 10
19.568793
 20
57.655690
 11
19.344595
 21
57.674666
  0
LINE
  8
4
  6
CONTINUOUS
 10
19.525394
 20
57.809899
 11
19.413295
 21
57.819387
  0
LINE
  8
4
  6
CONTINUOUS
 10
19.525394
 20
57.809899
 11
19.532599
 21
58.561971
  0
LINE
  8
4
  6
CONTINUOUS
 10
19.413295
 20
57.819387
 11
19.532599
 21
58.561971
  0
POLYLINE
  8
4
  6
CONTINUOUS
 66
     1
  0
VERTEX
  8
4
  6
CONTINUOUS
 10
15.969408
 20
16.463923
  0
VERTEX
  8
4
  6
CONTINUOUS
 10
19.406091
 20
57.067316
  0
SEQEND
  8
4
  6
CONTINUOUS
  0
LINE
  8
4
  6
CONTINUOUS
 10
16.467627
 20
16.421753
 11
16.383288
 21
15.425316
  0
LINE
  8
4
  6
CONTINUOUS
 10
16.283644
 20
15.433750
 11
16.482932
 21
15.416882
  0
LINE
  8
4
  6
CONTINUOUS
 10
16.285331
 20
15.453679
 11
16.484618
 21
15.436811
  0
LINE
  8
4
  6
CONTINUOUS
 10
16.287018
 20
15.473608
 11
16.486305
 21
15.456740
  0
LINE
  8
4
  6
CONTINUOUS
 10
19.904309
 20
57.025146
 11
19.967563
 21
57.772474
  0
LINE
  8
4
  6
CONTINUOUS
 10
20.048035
 20
57.389322
 11
19.823837
 21
57.408298
  0
LINE
  8
4
  6
CONTINUOUS
 10
20.054361
 20
57.464055
 11
19.830162
 21
57.483031
  0
LINE
  8
4
  6
CONTINUOUS
 10
20.060686
 20
57.538788
 11
19.836488
 21
57.557764
  0
LINE
  8
4
  6
CONTINUOUS
 10
20.067012
 20
57.613520
 11
19.842813
 21
57.632497
  0
LINE
  8
4
  6
CONTINUOUS
 10
20.023613
 20
57.767730
 11
19.911514
 21
57.777218
  0
LINE
  8
4
  6
CONTINUOUS
 10
20.023613
 20
57.767730
 11
20.030817
 21
58.519802
  0
LINE
  8
4
  6
CONTINUOUS
 10
19.911514
 20
57.777218
 11
20.030817
 21
58.519802
  0
POLYLINE
  8
4
  6
CONTINUOUS
 66
     1
  0
VERTEX
  8
4
  6
CONTINUOUS
 10
16.467627
 20
16.421753
  0
VERTEX
  8
4
  6
CONTINUOUS
 10
19.904309
 20
57.025146
  0
SEQEND
  8
4
  6
CONTINUOUS
  0
LINE
  8
4
  6
CONTINUOUS
 10
16.965845
 20
16.379584
 11
16.881507
 21
15.383147
  0
LINE
  8
4
  6
CONTINUOUS
 10
16.781863
 20
15.391581
 11
16.981150
 21
15.374713
  0
LINE
  8
4
  6
CONTINUOUS
 10
16.783550
 20
15.411509
 11
16.982837
 21
15.394642
  0
LINE
  8
4
  6
CONTINUOUS
 10
16.785236
 20
15.431438
 11
16.984524
 21
15.414570
  0
LINE
  8
4
  6
CONTINUOUS
 10
20.402528
 20
56.982977
 11
20.465782
 21
57.730305
  0
LINE
  8
4
  6
CONTINUOUS
 10
20.546254
 20
57.347153
 11
20.322056
 21
57.366129
  0
LINE
  8
4
  6
CONTINUOUS
 10
20.552579
 20
57.421885
 11
20.328381
 21
57.440862
  0
LINE
  8
4
  6
CONTINUOUS
 10
20.558905
 20
57.496618
 11
20.334706
 21
57.515594
  0
LINE
  8
4
  6
CONTINUOUS
 10
20.565230
 20
57.571351
 11
20.341032
 21
57.590327
  0
LINE
  8
4
  6
CONTINUOUS
 10
20.521831
 20
57.725561
 11
20.409732
 21
57.735049
  0
LINE
  8
4
  6
CONTINUOUS
 10
20.521831
 20
57.725561
 11
20.529036
 21
58.477633
  0
LINE
  8
4
  6
CONTINUOUS
 10
20.409732
 20
57.735049
 11
20.529036
 21
58.477633
  0
POLYLINE
  8
4
  6
CONTINUOUS
 66
     1
  0
VERTEX
  8
4
  6
CONTINUOUS
 10
16.965845
 20
16.379584
  0
VERTEX
  8
4
  6
CONTINUOUS
 10
20.402528
 20
56.982977
  0
SEQEND
  8
4
  6
CONTINUOUS
  0
LINE
  8
4
  6
CONTINUOUS
 10
31.004963
 20
14.956049
 11
30.920625
 21
13.959611
  0
LINE
  8
4
  6
CONTINUOUS
 10
30.820981
 20
13.968045
 11
31.020268
 21
13.951178
  0
LINE
  8
4
  6
CONTINUOUS
 10
30.822668
 20
13.987974
 11
31.021955
 21
13.971106
  0
LINE
  8
4
  6
CONTINUOUS
 10
30.824355
 20
14.007903
 11
31.023642
 21
13.991035
  0
LINE
  8
4
  6
CONTINUOUS
 10
34.461417
 20
55.793028
 11
34.524671
 21
56.540356
  0
LINE
  8
4
  6
CONTINUOUS
 10
34.605143
 20
56.157204
 11
34.380945
 21
56.176180
  0
LINE
  8
4
  6
CONTINUOUS
 10
34.611469
 20
56.231937
 11
34.387270
 21
56.250913
  0
LINE
  8
4
  6
CONTINUOUS
 10
34.617794
 20
56.306670
 11
34.393596
 21
56.325646
  0
LINE
  8
4
  6
CONTINUOUS
 10
34.624120
 20
56.381403
 11
34.399921
 21
56.400379
  0
LINE
  8
4
  6
CONTINUOUS
 10
34.580721
 20
56.535612
 11
34.468622
 21
56.545100
  0
LINE
  8
4
  6
CONTINUOUS
 10
34.580721
 20
56.535612
 11
34.587925
 21
57.287684
  0
LINE
  8
4
  6
CONTINUOUS
 10
34.468622
 20
56.545100
 11
34.587925
 21
57.287684
  0
POLYLINE
  8
4
  6
CONTINUOUS
 66
     1
  0
VERTEX
  8
4
  6
CONTINUOUS
 10
31.004963
 20
14.956049
  0
VERTEX
  8
4
  6
CONTINUOUS
 10
34.461417
 20
55.793028
  0
SEQEND
  8
4
  6
CONTINUOUS
  0
LINE
  8
4
  6
CONTINUOUS
 10
31.403538
 20
14.922313
 11
31.319200
 21
13.925876
  0
LINE
  8
4
  6
CONTINUOUS
 10
31.219556
 20
13.934310
 11
31.418843
 21
13.917442
  0
LINE
  8
4
  6
CONTINUOUS
 10
31.221243
 20
13.954239
 11
31.420530
 21
13.937371
  0
LINE
  8
4
  6
CONTINUOUS
 10
31.222929
 20
13.974167
 11
31.422217
 21
13.957300
  0
LINE
  8
4
  6
CONTINUOUS
 10
34.859992
 20
55.759293
 11
34.923246
 21
56.506621
  0
LINE
  8
4
  6
CONTINUOUS
 10
35.003718
 20
56.123469
 11
34.779520
 21
56.142445
  0
LINE
  8
4
  6
CONTINUOUS
 10
35.010044
 20
56.198202
 11
34.785845
 21
56.217178
  0
LINE
  8
4
  6
CONTINUOUS
 10
35.016369
 20
56.272934
 11
34.792171
 21
56.291911
  0
LINE
  8
4
  6
CONTINUOUS
 10
35.022694
 20
56.347667
 11
34.798496
 21
56.366643
  0
LINE
  8
4
  6
CONTINUOUS
 10
34.979296
 20
56.501877
 11
34.867196
 21
56.511365
  0
LINE
  8
4
  6
CONTINUOUS
 10
34.979296
 20
56.501877
 11
34.986500
 21
57.253949
  0
LINE
  8
4
  6
CONTINUOUS
 10
34.867196
 20
56.511365
 11
34.986500
 21
57.253949
  0
POLYLINE
  8
4
  6
CONTINUOUS
 66
     1
  0
VERTEX
  8
4
  6
CONTINUOUS
 10
31.403538
 20
14.922313
  0
VERTEX
  8
4
  6
CONTINUOUS
 10
34.859992
 20
55.759293
  0
SEQEND
  8
4
  6
CONTINUOUS
  0
LINE
  8
4
  6
CONTINUOUS
 10
31.802113
 20
14.888578
 11
31.717774
 21
13.892141
  0
LINE
  8
4
  6
CONTINUOUS
 10
31.618131
 20
13.900574
 11
31.817418
 21
13.883707
  0
LINE
  8
4
  6
CONTINUOUS
 10
31.619818
 20
13.920503
 11
31.819105
 21
13.903635
  0
LINE
  8
4
  6
CONTINUOUS
 10
31.621504
 20
13.940432
 11
31.820792
 21
13.923564
  0
LINE
  8
4
  6
CONTINUOUS
 10
35.258567
 20
55.725557
 11
35.321821
 21
56.472885
  0
LINE
  8
4
  6
CONTINUOUS
 10
35.402293
 20
56.089733
 11
35.178095
 21
56.108710
  0
LINE
  8
4
  6
CONTINUOUS
 10
35.408618
 20
56.164466
 11
35.184420
 21
56.183442
  0
LINE
  8
4
  6
CONTINUOUS
 10
35.414944
 20
56.239199
 11
35.190745
 21
56.258175
  0
LINE
  8
4
  6
CONTINUOUS
 10
35.421269
 20
56.313932
 11
35.197071
 21
56.332908
  0
LINE
  8
4
  6
CONTINUOUS
 10
35.377870
 20
56.468141
 11
35.265771
 21
56.477629
  0
LINE
  8
4
  6
CONTINUOUS
 10
35.377870
 20
56.468141
 11
35.385075
 21
57.220213
  0
LINE
  8
4
  6
CONTINUOUS
 10
35.265771
 20
56.477629
 11
35.385075
 21
57.220213
  0
POLYLINE
  8
4
  6
CONTINUOUS
 66
     1
  0
VERTEX
  8
4
  6
CONTINUOUS
 10
31.802113
 20
14.888578
  0
VERTEX
  8
4
  6
CONTINUOUS
 10
35.258567
 20
55.725557
  0
SEQEND
  8
4
  6
CONTINUOUS
  0
LINE
  8
4
  6
CONTINUOUS
 10
32.200688
 20
14.854842
 11
32.116349
 21
13.858405
  0
LINE
  8
4
  6
CONTINUOUS
 10
32.016706
 20
13.866839
 11
32.215993
 21
13.849971
  0
LINE
  8
4
  6
CONTINUOUS
 10
32.018392
 20
13.886768
 11
32.217680
 21
13.869900
  0
LINE
  8
4
  6
CONTINUOUS
 10
32.020079
 20
13.906696
 11
32.219367
 21
13.889829
  0
LINE
  8
4
  6
CONTINUOUS
 10
35.657142
 20
55.691822
 11
35.720396
 21
56.439150
  0
LINE
  8
4
  6
CONTINUOUS
 10
35.800868
 20
56.055998
 11
35.576670
 21
56.074974
  0
LINE
  8
4
  6
CONTINUOUS
 10
35.807193
 20
56.130731
 11
35.582995
 21
56.149707
  0
LINE
  8
4
  6
CONTINUOUS
 10
35.813519
 20
56.205463
 11
35.589320
 21
56.224440
  0
LINE
  8
4
  6
CONTINUOUS
 10
35.819844
 20
56.280196
 11
35.595646
 21
56.299172
  0
LINE
  8
4
  6
CONTINUOUS
 10
35.776445
 20
56.434406
 11
35.664346
 21
56.443894
  0
LINE
  8
4
  6
CONTINUOUS
 10
35.776445
 20
56.434406
 11
35.783650
 21
57.186478
  0
LINE
  8
4
  6
CONTINUOUS
 10
35.664346
 20
56.443894
 11
35.783650
 21
57.186478
  0
POLYLINE
  8
4
  6
CONTINUOUS
 66
     1
  0
VERTEX
  8
4
  6
CONTINUOUS
 10
32.200688
 20
14.854842
  0
VERTEX
  8
4
  6
CONTINUOUS
 10
35.657142
 20
55.691822
  0
SEQEND
  8
4
  6
CONTINUOUS
  0
LINE
  8
4
  6
CONTINUOUS
 10
32.599263
 20
14.821107
 11
32.514924
 21
13.824670
  0
LINE
  8
4
  6
CONTINUOUS
 10
32.415280
 20
13.833103
 11
32.614568
 21
13.816236
  0
LINE
  8
4
  6
CONTINUOUS
 10
32.416967
 20
13.853032
 11
32.616255
 21
13.836164
  0
LINE
  8
4
  6
CONTINUOUS
 10
32.418654
 20
13.872961
 11
32.617941
 21
13.856093
  0
LINE
  8
4
  6
CONTINUOUS
 10
36.055717
 20
55.658086
 11
36.118971
 21
56.405414
  0
LINE
  8
4
  6
CONTINUOUS
 10
36.199443
 20
56.022262
 11
35.975244
 21
56.041239
  0
LINE
  8
4
  6
CONTINUOUS
 10
36.205768
 20
56.096995
 11
35.981570
 21
56.115971
  0
LINE
  8
4
  6
CONTINUOUS
 10
36.212094
 20
56.171728
 11
35.987895
 21
56.190704
  0
LINE
  8
4
  6
CONTINUOUS
 10
36.218419
 20
56.246461
 11
35.994221
 21
56.265437
  0
LINE
  8
4
  6
CONTINUOUS
 10
36.175020
 20
56.400670
 11
36.062921
 21
56.410158
  0
LINE
  8
4
  6
CONTINUOUS
 10
36.175020
 20
56.400670
 11
36.182225
 21
57.152742
  0
LINE
  8
4
  6
CONTINUOUS
 10
36.062921
 20
56.410158
 11
36.182225
 21
57.152742
  0
POLYLINE
  8
4
  6
CONTINUOUS
 66
     1
  0
VERTEX
  8
4
  6
CONTINUOUS
 10
32.599263
 20
14.821107
  0
VERTEX
  8
4
  6
CONTINUOUS
 10
36.055717
 20
55.658086
  0
SEQEND
  8
4
  6
CONTINUOUS
  0
LINE
  8
4
  6
CONTINUOUS
 10
44.302089
 20
13.312312
 11
44.217751
 21
12.315875
  0
LINE
  8
4
  6
CONTINUOUS
 10
44.118107
 20
12.324309
 11
44.317394
 21
12.307441
  0
LINE
  8
4
  6
CONTINUOUS
 10
44.119794
 20
12.344238
 11
44.319081
 21
12.327370
  0
LINE
  8
4
  6
CONTINUOUS
 10
44.121480
 20
12.364167
 11
44.320768
 21
12.347299
  0
LINE
  8
4
  6
CONTINUOUS
 10
47.802097
 20
54.663870
 11
47.865351
 21
55.411197
  0
LINE
  8
4
  6
CONTINUOUS
 10
47.921401
 20
55.406453
 11
47.809301
 21
55.415941
  0
LINE
  8
4
  6
CONTINUOUS
 10
47.921401
 20
55.406453
 11
47.928605
 21
56.158525
  0
LINE
  8
4
  6
CONTINUOUS
 10
47.809301
 20
55.415941
 11
47.928605
 21
56.158525
  0
LINE
  8
4
  6
CONTINUOUS
 10
47.964799
 20
55.252244
 11
47.740601
 21
55.271220
  0
LINE
  8
4
  6
CONTINUOUS
 10
47.956893
 20
55.158828
 11
47.732694
 21
55.177804
  0
LINE
  8
4
  6
CONTINUOUS
 10
47.948986
 20
55.065412
 11
47.724787
 21
55.084388
  0
POLYLINE
  8
4
  6
CONTINUOUS
 66
     1
  0
VERTEX
  8
4
  6
CONTINUOUS
 10
44.302089
 20
13.312312
  0
VERTEX
  8
4
  6
CONTINUOUS
 10
47.802097
 20
54.663870
  0
SEQEND
  8
4
  6
CONTINUOUS
  0
LINE
  8
4
  6
CONTINUOUS
 10
44.634235
 20
13.284199
 11
44.549896
 21
12.287762
  0
LINE
  8
4
  6
CONTINUOUS
 10
44.450253
 20
12.296196
 11
44.649540
 21
12.279328
  0
LINE
  8
4
  6
CONTINUOUS
 10
44.451939
 20
12.316125
 11
44.651227
 21
12.299257
  0
LINE
  8
4
  6
CONTINUOUS
 10
44.453626
 20
12.336054
 11
44.652914
 21
12.319186
  0
LINE
  8
4
  6
CONTINUOUS
 10
48.134243
 20
54.635757
 11
48.197497
 21
55.383084
  0
LINE
  8
4
  6
CONTINUOUS
 10
48.253546
 20
55.378340
 11
48.141447
 21
55.387829
  0
LINE
  8
4
  6
CONTINUOUS
 10
48.253546
 20
55.378340
 11
48.260751
 21
56.130412
  0
LINE
  8
4
  6
CONTINUOUS
 10
48.141447
 20
55.387829
 11
48.260751
 21
56.130412
  0
LINE
  8
4
  6
CONTINUOUS
 10
48.296945
 20
55.224131
 11
48.072747
 21
55.243107
  0
LINE
  8
4
  6
CONTINUOUS
 10
48.289038
 20
55.130715
 11
48.064840
 21
55.149691
  0
LINE
  8
4
  6
CONTINUOUS
 10
48.281132
 20
55.037299
 11
48.056933
 21
55.056275
  0
POLYLINE
  8
4
  6
CONTINUOUS
 66
     1
  0
VERTEX
  8
4
  6
CONTINUOUS
 10
44.634235
 20
13.284199
  0
VERTEX
  8
4
  6
CONTINUOUS
 10
48.134243
 20
54.635757
  0
SEQEND
  8
4
  6
CONTINUOUS
  0
LINE
  8
4
  6
CONTINUOUS
 10
44.966381
 20
13.256087
 11
44.882042
 21
12.259649
  0
LINE
  8
4
  6
CONTINUOUS
 10
44.782398
 20
12.268083
 11
44.981686
 21
12.251216
  0
LINE
  8
4
  6
CONTINUOUS
 10
44.784085
 20
12.288012
 11
44.983372
 21
12.271144
  0
LINE
  8
4
  6
CONTINUOUS
 10
44.785772
 20
12.307941
 11
44.985059
 21
12.291073
  0
LINE
  8
4
  6
CONTINUOUS
 10
48.466388
 20
54.607644
 11
48.529642
 21
55.354972
  0
LINE
  8
4
  6
CONTINUOUS
 10
48.585692
 20
55.350228
 11
48.473593
 21
55.359716
  0
LINE
  8
4
  6
CONTINUOUS
 10
48.585692
 20
55.350228
 11
48.592896
 21
56.102299
  0
LINE
  8
4
  6
CONTINUOUS
 10
48.473593
 20
55.359716
 11
48.592896
 21
56.102299
  0
LINE
  8
4
  6
CONTINUOUS
 10
48.629091
 20
55.196018
 11
48.404892
 21
55.214994
  0
LINE
  8
4
  6
CONTINUOUS
 10
48.621184
 20
55.102602
 11
48.396986
 21
55.121578
  0
LINE
  8
4
  6
CONTINUOUS
 10
48.613277
 20
55.009186
 11
48.389079
 21
55.028162
  0
POLYLINE
  8
4
  6
CONTINUOUS
 66
     1
  0
VERTEX
  8
4
  6
CONTINUOUS
 10
44.966381
 20
13.256087
  0
VERTEX
  8
4
  6
CONTINUOUS
 10
48.466388
 20
54.607644
  0
SEQEND
  8
4
  6
CONTINUOUS
  0
LINE
  8
4
  6
CONTINUOUS
 10
45.298526
 20
13.227974
 11
45.214188
 21
12.231536
  0
LINE
  8
4
  6
CONTINUOUS
 10
45.114544
 20
12.239970
 11
45.313831
 21
12.223103
  0
LINE
  8
4
  6
CONTINUOUS
 10
45.116231
 20
12.259899
 11
45.315518
 21
12.243031
  0
LINE
  8
4
  6
CONTINUOUS
 10
45.117918
 20
12.279828
 11
45.317205
 21
12.262960
  0
LINE
  8
4
  6
CONTINUOUS
 10
48.798534
 20
54.579531
 11
48.861788
 21
55.326859
  0
LINE
  8
4
  6
CONTINUOUS
 10
48.917838
 20
55.322115
 11
48.805738
 21
55.331603
  0
LINE
  8
4
  6
CONTINUOUS
 10
48.917838
 20
55.322115
 11
48.925042
 21
56.074187
  0
LINE
  8
4
  6
CONTINUOUS
 10
48.805738
 20
55.331603
 11
48.925042
 21
56.074187
  0
LINE
  8
4
  6
CONTINUOUS
 10
48.961236
 20
55.167905
 11
48.737038
 21
55.186881
  0
LINE
  8
4
  6
CONTINUOUS
 10
48.953330
 20
55.074489
 11
48.729131
 21
55.093465
  0
LINE
  8
4
  6
CONTINUOUS
 10
48.945423
 20
54.981073
 11
48.721225
 21
55.000049
  0
POLYLINE
  8
4
  6
CONTINUOUS
 66
     1
  0
VERTEX
  8
4
  6
CONTINUOUS
 10
45.298526
 20
13.227974
  0
VERTEX
  8
4
  6
CONTINUOUS
 10
48.798534
 20
54.579531
  0
SEQEND
  8
4
  6
CONTINUOUS
  0
LINE
  8
4
  6
CONTINUOUS
 10
45.630672
 20
13.199861
 11
45.546333
 21
12.203424
  0
LINE
  8
4
  6
CONTINUOUS
 10
45.446690
 20
12.211857
 11
45.645977
 21
12.194990
  0
LINE
  8
4
  6
CONTINUOUS
 10
45.448376
 20
12.231786
 11
45.647664
 21
12.214918
  0
LINE
  8
4
  6
CONTINUOUS
 10
45.450063
 20
12.251715
 11
45.649351
 21
12.234847
  0
LINE
  8
4
  6
CONTINUOUS
 10
49.130680
 20
54.551418
 11
49.193934
 21
55.298746
  0
LINE
  8
4
  6
CONTINUOUS
 10
49.249983
 20
55.294002
 11
49.137884
 21
55.303490
  0
LINE
  8
4
  6
CONTINUOUS
 10
49.249983
 20
55.294002
 11
49.257188
 21
56.046074
  0
LINE
  8
4
  6
CONTINUOUS
 10
49.137884
 20
55.303490
 11
49.257188
 21
56.046074
  0
LINE
  8
4
  6
CONTINUOUS
 10
49.293382
 20
55.139792
 11
49.069184
 21
55.158768
  0
LINE
  8
4
  6
CONTINUOUS
 10
49.285475
 20
55.046376
 11
49.061277
 21
55.065352
  0
LINE
  8
4
  6
CONTINUOUS
 10
49.277569
 20
54.952960
 11
49.053370
 21
54.971936
  0
POLYLINE
  8
4
  6
CONTINUOUS
 66
     1
  0
VERTEX
  8
4
  6
CONTINUOUS
 10
45.630672
 20
13.199861
  0
VERTEX
  8
4
  6
CONTINUOUS
 10
49.130680
 20
54.551418
  0
SEQEND
  8
4
  6
CONTINUOUS
  0
LINE
  8
4
  6
CONTINUOUS
 10
45.962818
 20
13.171748
 11
45.878479
 21
12.175311
  0
LINE
  8
4
  6
CONTINUOUS
 10
45.778835
 20
12.183745
 11
45.978123
 21
12.166877
  0
LINE
  8
4
  6
CONTINUOUS
 10
45.780522
 20
12.203673
 11
45.979810
 21
12.186806
  0
LINE
  8
4
  6
CONTINUOUS
 10
45.782209
 20
12.223602
 11
45.981496
 21
12.206734
  0
LINE
  8
4
  6
CONTINUOUS
 10
49.462825
 20
54.523305
 11
49.526080
 21
55.270633
  0
LINE
  8
4
  6
CONTINUOUS
 10
49.582129
 20
55.265889
 11
49.470030
 21
55.275377
  0
LINE
  8
4
  6
CONTINUOUS
 10
49.582129
 20
55.265889
 11
49.589334
 21
56.017961
  0
LINE
  8
4
  6
CONTINUOUS
 10
49.470030
 20
55.275377
 11
49.589334
 21
56.017961
  0
LINE
  8
4
  6
CONTINUOUS
 10
49.625528
 20
55.111679
 11
49.401330
 21
55.130655
  0
LINE
  8
4
  6
CONTINUOUS
 10
49.617621
 20
55.018263
 11
49.393423
 21
55.037239
  0
LINE
  8
4
  6
CONTINUOUS
 10
49.609714
 20
54.924847
 11
49.385516
 21
54.943823
  0
POLYLINE
  8
4
  6
CONTINUOUS
 66
     1
  0
VERTEX
  8
4
  6
CONTINUOUS
 10
45.962818
 20
13.171748
  0
VERTEX
  8
4
  6
CONTINUOUS
 10
49.462825
 20
54.523305
  0
SEQEND
  8
4
  6
CONTINUOUS
  0
LINE
  8
4
  6
CONTINUOUS
 10
60.942489
 20
11.903806
 11
60.858150
 21
10.907368
  0
LINE
  8
4
  6
CONTINUOUS
 10
60.758506
 20
10.915802
 11
60.957794
 21
10.898935
  0
LINE
  8
4
  6
CONTINUOUS
 10
60.760193
 20
10.935731
 11
60.959481
 21
10.918863
  0
LINE
  8
4
  6
CONTINUOUS
 10
60.761880
 20
10.955660
 11
60.961167
 21
10.938792
  0
LINE
  8
4
  6
CONTINUOUS
 10
64.442501
 20
53.255421
 11
64.505755
 21
54.002749
  0
LINE
  8
4
  6
CONTINUOUS
 10
64.586228
 20
53.619597
 11
64.362029
 21
53.638573
  0
LINE
  8
4
  6
CONTINUOUS
 10
64.592553
 20
53.694330
 11
64.368355
 21
53.713306
  0
LINE
  8
4
  6
CONTINUOUS
 10
64.598878
 20
53.769062
 11
64.374680
 21
53.788039
  0
LINE
  8
4
  6
CONTINUOUS
 10
64.605204
 20
53.843795
 11
64.381005
 21
53.862771
  0
LINE
  8
4
  6
CONTINUOUS
 10
64.561805
 20
53.998005
 11
64.449706
 21
54.007493
  0
LINE
  8
4
  6
CONTINUOUS
 10
64.561805
 20
53.998005
 11
64.569009
 21
54.750077
  0
LINE
  8
4
  6
CONTINUOUS
 10
64.449706
 20
54.007493
 11
64.569009
 21
54.750077
  0
POLYLINE
  8
4
  6
CONTINUOUS
 66
     1
  0
VERTEX
  8
4
  6
CONTINUOUS
 10
60.942489
 20
11.903806
  0
VERTEX
  8
4
  6
CONTINUOUS
 10
64.442501
 20
53.255421
  0
SEQEND
  8
4
  6
CONTINUOUS
  0
LINE
  8
4
  6
CONTINUOUS
 10
61.341064
 20
11.870070
 11
61.256725
 21
10.873633
  0
LINE
  8
4
  6
CONTINUOUS
 10
61.157081
 20
10.882067
 11
61.356369
 21
10.865199
  0
LINE
  8
4
  6
CONTINUOUS
 10
61.158768
 20
10.901996
 11
61.358055
 21
10.885128
  0
LINE
  8
4
  6
CONTINUOUS
 10
61.160455
 20
10.921924
 11
61.359742
 21
10.905057
  0
LINE
  8
4
  6
CONTINUOUS
 10
64.841076
 20
53.221685
 11
64.904330
 21
53.969013
  0
LINE
  8
4
  6
CONTINUOUS
 10
64.984802
 20
53.585861
 11
64.760604
 21
53.604837
  0
LINE
  8
4
  6
CONTINUOUS
 10
64.991128
 20
53.660594
 11
64.766930
 21
53.679570
  0
LINE
  8
4
  6
CONTINUOUS
 10
64.997453
 20
53.735327
 11
64.773255
 21
53.754303
  0
LINE
  8
4
  6
CONTINUOUS
 10
65.003779
 20
53.810060
 11
64.779580
 21
53.829036
  0
LINE
  8
4
  6
CONTINUOUS
 10
64.960380
 20
53.964269
 11
64.848281
 21
53.973757
  0
LINE
  8
4
  6
CONTINUOUS
 10
64.960380
 20
53.964269
 11
64.967584
 21
54.716341
  0
LINE
  8
4
  6
CONTINUOUS
 10
64.848281
 20
53.973757
 11
64.967584
 21
54.716341
  0
POLYLINE
  8
4
  6
CONTINUOUS
 66
     1
  0
VERTEX
  8
4
  6
CONTINUOUS
 10
61.341064
 20
11.870070
  0
VERTEX
  8
4
  6
CONTINUOUS
 10
64.841076
 20
53.221685
  0
SEQEND
  8
4
  6
CONTINUOUS
  0
LINE
  8
4
  6
CONTINUOUS
 10
61.739639
 20
11.836335
 11
61.655300
 21
10.839897
  0
LINE
  8
4
  6
CONTINUOUS
 10
61.555656
 20
10.848331
 11
61.754944
 21
10.831464
  0
LINE
  8
4
  6
CONTINUOUS
 10
61.557343
 20
10.868260
 11
61.756630
 21
10.851392
  0
LINE
  8
4
  6
CONTINUOUS
 10
61.559030
 20
10.888189
 11
61.758317
 21
10.871321
  0
LINE
  8
4
  6
CONTINUOUS
 10
65.239651
 20
53.187950
 11
65.302905
 21
53.935278
  0
LINE
  8
4
  6
CONTINUOUS
 10
65.383377
 20
53.552126
 11
65.159179
 21
53.571102
  0
LINE
  8
4
  6
CONTINUOUS
 10
65.389703
 20
53.626859
 11
65.165504
 21
53.645835
  0
LINE
  8
4
  6
CONTINUOUS
 10
65.396028
 20
53.701591
 11
65.171830
 21
53.720568
  0
LINE
  8
4
  6
CONTINUOUS
 10
65.402354
 20
53.776324
 11
65.178155
 21
53.795300
  0
LINE
  8
4
  6
CONTINUOUS
 10
65.358955
 20
53.930534
 11
65.246856
 21
53.940022
  0
LINE
  8
4
  6
CONTINUOUS
 10
65.358955
 20
53.930534
 11
65.366159
 21
54.682606
  0
LINE
  8
4
  6
CONTINUOUS
 10
65.246856
 20
53.940022
 11
65.366159
 21
54.682606
  0
POLYLINE
  8
4
  6
CONTINUOUS
 66
     1
  0
VERTEX
  8
4
  6
CONTINUOUS
 10
61.739639
 20
11.836335
  0
VERTEX
  8
4
  6
CONTINUOUS
 10
65.239651
 20
53.187950
  0
SEQEND
  8
4
  6
CONTINUOUS
  0
LINE
  8
4
  6
CONTINUOUS
 10
62.138213
 20
11.802599
 11
62.053875
 21
10.806162
  0
LINE
  8
4
  6
CONTINUOUS
 10
61.954231
 20
10.814596
 11
62.153518
 21
10.797728
  0
LINE
  8
4
  6
CONTINUOUS
 10
61.955918
 20
10.834525
 11
62.155205
 21
10.817657
  0
LINE
  8
4
  6
CONTINUOUS
 10
61.957605
 20
10.854453
 11
62.156892
 21
10.837586
  0
LINE
  8
4
  6
CONTINUOUS
 10
65.638226
 20
53.154214
 11
65.701480
 21
53.901542
  0
LINE
  8
4
  6
CONTINUOUS
 10
65.781952
 20
53.518390
 11
65.557754
 21
53.537366
  0
LINE
  8
4
  6
CONTINUOUS
 10
65.788278
 20
53.593123
 11
65.564079
 21
53.612099
  0
LINE
  8
4
  6
CONTINUOUS
 10
65.794603
 20
53.667856
 11
65.570405
 21
53.686832
  0
LINE
  8
4
  6
CONTINUOUS
 10
65.800928
 20
53.742589
 11
65.576730
 21
53.761565
  0
LINE
  8
4
  6
CONTINUOUS
 10
65.757530
 20
53.896798
 11
65.645430
 21
53.906286
  0
LINE
  8
4
  6
CONTINUOUS
 10
65.757530
 20
53.896798
 11
65.764734
 21
54.648870
  0
LINE
  8
4
  6
CONTINUOUS
 10
65.645430
 20
53.906286
 11
65.764734
 21
54.648870
  0
POLYLINE
  8
4
  6
CONTINUOUS
 66
     1
  0
VERTEX
  8
4
  6
CONTINUOUS
 10
62.138213
 20
11.802599
  0
VERTEX
  8
4
  6
CONTINUOUS
 10
65.638226
 20
53.154214
  0
SEQEND
  8
4
  6
CONTINUOUS
  0
LINE
  8
4
  6
CONTINUOUS
 10
62.536788
 20
11.768864
 11
62.452450
 21
10.772426
  0
LINE
  8
4
  6
CONTINUOUS
 10
62.352806
 20
10.780860
 11
62.552093
 21
10.763993
  0
LINE
  8
4
  6
CONTINUOUS
 10
62.354493
 20
10.800789
 11
62.553780
 21
10.783921
  0
LINE
  8
4
  6
CONTINUOUS
 10
62.356179
 20
10.820718
 11
62.555467
 21
10.803850
  0
LINE
  8
4
  6
CONTINUOUS
 10
66.036801
 20
53.120479
 11
66.100055
 21
53.867807
  0
LINE
  8
4
  6
CONTINUOUS
 10
66.180527
 20
53.484655
 11
65.956329
 21
53.503631
  0
LINE
  8
4
  6
CONTINUOUS
 10
66.186852
 20
53.559388
 11
65.962654
 21
53.578364
  0
LINE
  8
4
  6
CONTINUOUS
 10
66.193178
 20
53.634120
 11
65.968979
 21
53.653097
  0
LINE
  8
4
  6
CONTINUOUS
 10
66.199503
 20
53.708853
 11
65.975305
 21
53.727829
  0
LINE
  8
4
  6
CONTINUOUS
 10
66.156104
 20
53.863063
 11
66.044005
 21
53.872551
  0
LINE
  8
4
  6
CONTINUOUS
 10
66.156104
 20
53.863063
 11
66.163309
 21
54.615135
  0
LINE
  8
4
  6
CONTINUOUS
 10
66.044005
 20
53.872551
 11
66.163309
 21
54.615135
  0
POLYLINE
  8
4
  6
CONTINUOUS
 66
     1
  0
VERTEX
  8
4
  6
CONTINUOUS
 10
62.536788
 20
11.768864
  0
VERTEX
  8
4
  6
CONTINUOUS
 10
66.036801
 20
53.120479
  0
SEQEND
  8
4
  6
CONTINUOUS
  0
LINE
  8
4
  6
CONTINUOUS
 10
77.383622
 20
10.512223
 11
77.299283
 21
9.515786
  0
LINE
  8
4
  6
CONTINUOUS
 10
77.199639
 20
9.524220
 11
77.398927
 21
9.507352
  0
LINE
  8
4
  6
CONTINUOUS
 10
77.201326
 20
9.544149
 11
77.400614
 21
9.527281
  0
LINE
  8
4
  6
CONTINUOUS
 10
77.203013
 20
9.564078
 11
77.402300
 21
9.547210
  0
LINE
  8
4
  6
CONTINUOUS
 10
80.883634
 20
51.863839
 11
80.946888
 21
52.611167
  0
LINE
  8
4
  6
CONTINUOUS
 10
81.027361
 20
52.228015
 11
80.803162
 21
52.246991
  0
LINE
  8
4
  6
CONTINUOUS
 10
81.033686
 20
52.302747
 11
80.809488
 21
52.321724
  0
LINE
  8
4
  6
CONTINUOUS
 10
81.040011
 20
52.377480
 11
80.815813
 21
52.396456
  0
LINE
  8
4
  6
CONTINUOUS
 10
81.046337
 20
52.452213
 11
80.822138
 21
52.471189
  0
LINE
  8
4
  6
CONTINUOUS
 10
81.002938
 20
52.606423
 11
80.890839
 21
52.615911
  0
LINE
  8
4
  6
CONTINUOUS
 10
81.002938
 20
52.606423
 11
81.010143
 21
53.358494
  0
LINE
  8
4
  6
CONTINUOUS
 10
80.890839
 20
52.615911
 11
81.010143
 21
53.358494
  0
POLYLINE
  8
4
  6
CONTINUOUS
 66
     1
  0
VERTEX
  8
4
  6
CONTINUOUS
 10
77.383622
 20
10.512223
  0
VERTEX
  8
4
  6
CONTINUOUS
 10
80.883634
 20
51.863839
  0
SEQEND
  8
4
  6
CONTINUOUS
  0
LINE
  8
4
  6
CONTINUOUS
 10
77.782197
 20
10.478488
 11
77.697858
 21
9.482051
  0
LINE
  8
4
  6
CONTINUOUS
 10
77.598214
 20
9.490485
 11
77.797502
 21
9.473617
  0
LINE
  8
4
  6
CONTINUOUS
 10
77.599901
 20
9.510413
 11
77.799189
 21
9.493546
  0
LINE
  8
4
  6
CONTINUOUS
 10
77.601588
 20
9.530342
 11
77.800875
 21
9.513474
  0
LINE
  8
4
  6
CONTINUOUS
 10
81.282209
 20
51.830103
 11
81.345463
 21
52.577431
  0
LINE
  8
4
  6
CONTINUOUS
 10
81.425935
 20
52.194279
 11
81.201737
 21
52.213255
  0
LINE
  8
4
  6
CONTINUOUS
 10
81.432261
 20
52.269012
 11
81.208063
 21
52.287988
  0
LINE
  8
4
  6
CONTINUOUS
 10
81.438586
 20
52.343745
 11
81.214388
 21
52.362721
  0
LINE
  8
4
  6
CONTINUOUS
 10
81.444912
 20
52.418477
 11
81.220713
 21
52.437454
  0
LINE
  8
4
  6
CONTINUOUS
 10
81.401513
 20
52.572687
 11
81.289414
 21
52.582175
  0
LINE
  8
4
  6
CONTINUOUS
 10
81.401513
 20
52.572687
 11
81.408717
 21
53.324759
  0
LINE
  8
4
  6
CONTINUOUS
 10
81.289414
 20
52.582175
 11
81.408717
 21
53.324759
  0
POLYLINE
  8
4
  6
CONTINUOUS
 66
     1
  0
VERTEX
  8
4
  6
CONTINUOUS
 10
77.782197
 20
10.478488
  0
VERTEX
  8
4
  6
CONTINUOUS
 10
81.282209
 20
51.830103
  0
SEQEND
  8
4
  6
CONTINUOUS
  0
LINE
  8
4
  6
CONTINUOUS
 10
78.180772
 20
10.444752
 11
78.096433
 21
9.448315
  0
LINE
  8
4
  6
CONTINUOUS
 10
77.996789
 20
9.456749
 11
78.196077
 21
9.439881
  0
LINE
  8
4
  6
CONTINUOUS
 10
77.998476
 20
9.476678
 11
78.197763
 21
9.459810
  0
LINE
  8
4
  6
CONTINUOUS
 10
78.000163
 20
9.496607
 11
78.199450
 21
9.479739
  0
LINE
  8
4
  6
CONTINUOUS
 10
81.680784
 20
51.796368
 11
81.744038
 21
52.543696
  0
LINE
  8
4
  6
CONTINUOUS
 10
81.824510
 20
52.160544
 11
81.600312
 21
52.179520
  0
LINE
  8
4
  6
CONTINUOUS
 10
81.830836
 20
52.235276
 11
81.606637
 21
52.254253
  0
LINE
  8
4
  6
CONTINUOUS
 10
81.837161
 20
52.310009
 11
81.612963
 21
52.328985
  0
LINE
  8
4
  6
CONTINUOUS
 10
81.843487
 20
52.384742
 11
81.619288
 21
52.403718
  0
LINE
  8
4
  6
CONTINUOUS
 10
81.800088
 20
52.538952
 11
81.687989
 21
52.548440
  0
LINE
  8
4
  6
CONTINUOUS
 10
81.800088
 20
52.538952
 11
81.807292
 21
53.291023
  0
LINE
  8
4
  6
CONTINUOUS
 10
81.687989
 20
52.548440
 11
81.807292
 21
53.291023
  0
POLYLINE
  8
4
  6
CONTINUOUS
 66
     1
  0
VERTEX
  8
4
  6
CONTINUOUS
 10
78.180772
 20
10.444752
  0
VERTEX
  8
4
  6
CONTINUOUS
 10
81.680784
 20
51.796368
  0
SEQEND
  8
4
  6
CONTINUOUS
  0
LINE
  8
4
  6
CONTINUOUS
 10
78.579346
 20
10.411017
 11
78.495008
 21
9.414580
  0
LINE
  8
4
  6
CONTINUOUS
 10
78.395364
 20
9.423014
 11
78.594651
 21
9.406146
  0
LINE
  8
4
  6
CONTINUOUS
 10
78.397051
 20
9.442942
 11
78.596338
 21
9.426075
  0
LINE
  8
4
  6
CONTINUOUS
 10
78.398738
 20
9.462871
 11
78.598025
 21
9.446003
  0
LINE
  8
4
  6
CONTINUOUS
 10
82.079359
 20
51.762632
 11
82.142613
 21
52.509960
  0
LINE
  8
4
  6
CONTINUOUS
 10
82.223085
 20
52.126808
 11
81.998887
 21
52.145784
  0
LINE
  8
4
  6
CONTINUOUS
 10
82.229411
 20
52.201541
 11
82.005212
 21
52.220517
  0
LINE
  8
4
  6
CONTINUOUS
 10
82.235736
 20
52.276274
 11
82.011538
 21
52.295250
  0
LINE
  8
4
  6
CONTINUOUS
 10
82.242061
 20
52.351006
 11
82.017863
 21
52.369983
  0
LINE
  8
4
  6
CONTINUOUS
 10
82.198663
 20
52.505216
 11
82.086563
 21
52.514704
  0
LINE
  8
4
  6
CONTINUOUS
 10
82.198663
 20
52.505216
 11
82.205867
 21
53.257288
  0
LINE
  8
4
  6
CONTINUOUS
 10
82.086563
 20
52.514704
 11
82.205867
 21
53.257288
  0
POLYLINE
  8
4
  6
CONTINUOUS
 66
     1
  0
VERTEX
  8
4
  6
CONTINUOUS
 10
78.579346
 20
10.411017
  0
VERTEX
  8
4
  6
CONTINUOUS
 10
82.079359
 20
51.762632
  0
SEQEND
  8
4
  6
CONTINUOUS
  0
LINE
  8
4
  6
CONTINUOUS
 10
78.977921
 20
10.377281
 11
78.893583
 21
9.380844
  0
LINE
  8
4
  6
CONTINUOUS
 10
78.793939
 20
9.389278
 11
78.993226
 21
9.372410
  0
LINE
  8
4
  6
CONTINUOUS
 10
78.795626
 20
9.409207
 11
78.994913
 21
9.392339
  0
LINE
  8
4
  6
CONTINUOUS
 10
78.797312
 20
9.429136
 11
78.996600
 21
9.412268
  0
LINE
  8
4
  6
CONTINUOUS
 10
82.477934
 20
51.728897
 11
82.541188
 21
52.476225
  0
LINE
  8
4
  6
CONTINUOUS
 10
82.621660
 20
52.093073
 11
82.397462
 21
52.112049
  0
LINE
  8
4
  6
CONTINUOUS
 10
82.627985
 20
52.167805
 11
82.403787
 21
52.186782
  0
LINE
  8
4
  6
CONTINUOUS
 10
82.634311
 20
52.242538
 11
82.410112
 21
52.261514
  0
LINE
  8
4
  6
CONTINUOUS
 10
82.640636
 20
52.317271
 11
82.416438
 21
52.336247
  0
LINE
  8
4
  6
CONTINUOUS
 10
82.597237
 20
52.471481
 11
82.485138
 21
52.480969
  0
LINE
  8
4
  6
CONTINUOUS
 10
82.597237
 20
52.471481
 11
82.604442
 21
53.223553
  0
LINE
  8
4
  6
CONTINUOUS
 10
82.485138
 20
52.480969
 11
82.604442
 21
53.223553
  0
POLYLINE
  8
4
  6
CONTINUOUS
 66
     1
  0
VERTEX
  8
4
  6
CONTINUOUS
 10
78.977921
 20
10.377281
  0
VERTEX
  8
4
  6
CONTINUOUS
 10
82.477934
 20
51.728897
  0
SEQEND
  8
4
  6
CONTINUOUS
  0
LINE
  8
4
  6
CONTINUOUS
 10
94.771445
 20
9.040513
 11
94.687106
 21
8.044076
  0
LINE
  8
4
  6
CONTINUOUS
 10
94.587463
 20
8.052510
 11
94.786750
 21
8.035642
  0
LINE
  8
4
  6
CONTINUOUS
 10
94.589149
 20
8.072439
 11
94.788437
 21
8.055571
  0
LINE
  8
4
  6
CONTINUOUS
 10
94.590836
 20
8.092367
 11
94.790124
 21
8.075500
  0
LINE
  8
4
  6
CONTINUOUS
 10
98.271457
 20
50.392128
 11
98.334712
 21
51.139456
  0
LINE
  8
4
  6
CONTINUOUS
 10
98.415184
 20
50.756304
 11
98.190985
 21
50.775280
  0
LINE
  8
4
  6
CONTINUOUS
 10
98.421509
 20
50.831037
 11
98.197311
 21
50.850013
  0
LINE
  8
4
  6
CONTINUOUS
 10
98.427835
 20
50.905770
 11
98.203636
 21
50.924746
  0
LINE
  8
4
  6
CONTINUOUS
 10
98.434160
 20
50.980503
 11
98.209962
 21
50.999479
  0
LINE
  8
4
  6
CONTINUOUS
 10
98.390761
 20
51.134712
 11
98.278662
 21
51.144200
  0
LINE
  8
4
  6
CONTINUOUS
 10
98.390761
 20
51.134712
 11
98.397966
 21
51.886784
  0
LINE
  8
4
  6
CONTINUOUS
 10
98.278662
 20
51.144200
 11
98.397966
 21
51.886784
  0
POLYLINE
  8
4
  6
CONTINUOUS
 66
     1
  0
VERTEX
  8
4
  6
CONTINUOUS
 10
94.771445
 20
9.040513
  0
VERTEX
  8
4
  6
CONTINUOUS
 10
98.271457
 20
50.392128
  0
SEQEND
  8
4
  6
CONTINUOUS
  0
LINE
  8
4
  6
CONTINUOUS
 10
95.203234
 20
9.003966
 11
95.118896
 21
8.007529
  0
LINE
  8
4
  6
CONTINUOUS
 10
95.019252
 20
8.015963
 11
95.218539
 21
7.999095
  0
LINE
  8
4
  6
CONTINUOUS
 10
95.020939
 20
8.035892
 11
95.220226
 21
8.019024
  0
LINE
  8
4
  6
CONTINUOUS
 10
95.022626
 20
8.055821
 11
95.221913
 21
8.038953
  0
LINE
  8
4
  6
CONTINUOUS
 10
98.703247
 20
50.355582
 11
98.766501
 21
51.102910
  0
LINE
  8
4
  6
CONTINUOUS
 10
98.846973
 20
50.719757
 11
98.622775
 21
50.738734
  0
LINE
  8
4
  6
CONTINUOUS
 10
98.853299
 20
50.794490
 11
98.629100
 21
50.813466
  0
LINE
  8
4
  6
CONTINUOUS
 10
98.859624
 20
50.869223
 11
98.635426
 21
50.888199
  0
LINE
  8
4
  6
CONTINUOUS
 10
98.865949
 20
50.943956
 11
98.641751
 21
50.962932
  0
LINE
  8
4
  6
CONTINUOUS
 10
98.822551
 20
51.098165
 11
98.710451
 21
51.107654
  0
LINE
  8
4
  6
CONTINUOUS
 10
98.822551
 20
51.098165
 11
98.829755
 21
51.850237
  0
LINE
  8
4
  6
CONTINUOUS
 10
98.710451
 20
51.107654
 11
98.829755
 21
51.850237
  0
POLYLINE
  8
4
  6
CONTINUOUS
 66
     1
  0
VERTEX
  8
4
  6
CONTINUOUS
 10
95.203234
 20
9.003966
  0
VERTEX
  8
4
  6
CONTINUOUS
 10
98.703247
 20
50.355582
  0
SEQEND
  8
4
  6
CONTINUOUS
  0
LINE
  8
4
  6
CONTINUOUS
 10
95.635024
 20
8.967420
 11
95.550685
 21
7.970982
  0
LINE
  8
4
  6
CONTINUOUS
 10
95.451041
 20
7.979416
 11
95.650329
 21
7.962549
  0
LINE
  8
4
  6
CONTINUOUS
 10
95.452728
 20
7.999345
 11
95.652016
 21
7.982477
  0
LINE
  8
4
  6
CONTINUOUS
 10
95.454415
 20
8.019274
 11
95.653702
 21
8.002406
  0
LINE
  8
4
  6
CONTINUOUS
 10
99.135036
 20
50.319035
 11
99.198290
 21
51.066363
  0
LINE
  8
4
  6
CONTINUOUS
 10
99.278763
 20
50.683211
 11
99.054564
 21
50.702187
  0
LINE
  8
4
  6
CONTINUOUS
 10
99.285088
 20
50.757943
 11
99.060890
 21
50.776920
  0
LINE
  8
4
  6
CONTINUOUS
 10
99.291413
 20
50.832676
 11
99.067215
 21
50.851652
  0
LINE
  8
4
  6
CONTINUOUS
 10
99.297739
 20
50.907409
 11
99.073540
 21
50.926385
  0
LINE
  8
4
  6
CONTINUOUS
 10
99.254340
 20
51.061619
 11
99.142241
 21
51.071107
  0
LINE
  8
4
  6
CONTINUOUS
 10
99.254340
 20
51.061619
 11
99.261544
 21
51.813691
  0
LINE
  8
4
  6
CONTINUOUS
 10
99.142241
 20
51.071107
 11
99.261544
 21
51.813691
  0
POLYLINE
  8
4
  6
CONTINUOUS
 66
     1
  0
VERTEX
  8
4
  6
CONTINUOUS
 10
95.635024
 20
8.967420
  0
VERTEX
  8
4
  6
CONTINUOUS
 10
99.135036
 20
50.319035
  0
SEQEND
  8
4
  6
CONTINUOUS
  0
LINE
  8
4
  6
CONTINUOUS
 10
8.278165
 20
16.897288
 11
8.276177
 21
15.897290
  0
LINE
  8
4
  6
CONTINUOUS
 10
8.176177
 20
15.897489
 11
8.376177
 21
15.897092
  0
LINE
  8
4
  6
CONTINUOUS
 10
8.176217
 20
15.917489
 11
8.376216
 21
15.917092
  0
LINE
  8
4
  6
CONTINUOUS
 10
8.176257
 20
15.937489
 11
8.376256
 21
15.937092
  0
LINE
  8
4
  6
CONTINUOUS
 10
8.359805
 20
57.971887
 11
8.361296
 21
58.721886
  0
LINE
  8
4
  6
CONTINUOUS
 10
8.417546
 20
58.721774
 11
8.305046
 21
58.721997
  0
LINE
  8
4
  6
CONTINUOUS
 10
8.417546
 20
58.721774
 11
8.362787
 21
59.471884
  0
LINE
  8
4
  6
CONTINUOUS
 10
8.305046
 20
58.721997
 11
8.362787
 21
59.471884
  0
LINE
  8
4
  6
CONTINUOUS
 10
8.473497
 20
58.571662
 11
8.248498
 21
58.572110
  0
LINE
  8
4
  6
CONTINUOUS
 10
8.473311
 20
58.477912
 11
8.248312
 21
58.478360
  0
LINE
  8
4
  6
CONTINUOUS
 10
8.473125
 20
58.384163
 11
8.248125
 21
58.384610
  0
POLYLINE
  8
4
  6
CONTINUOUS
 66
     1
  0
VERTEX
  8
4
  6
CONTINUOUS
 10
8.278165
 20
16.897288
  0
VERTEX
  8
4
  6
CONTINUOUS
 10
8.359805
 20
57.971887
  0
SEQEND
  8
4
  6
CONTINUOUS
  0
LINE
  8
4
  6
CONTINUOUS
 10
8.711497
 20
16.896427
 11
8.709509
 21
15.896429
  0
LINE
  8
4
  6
CONTINUOUS
 10
8.609510
 20
15.896628
 11
8.809509
 21
15.896230
  0
LINE
  8
4
  6
CONTINUOUS
 10
8.609549
 20
15.916628
 11
8.809549
 21
15.916230
  0
LINE
  8
4
  6
CONTINUOUS
 10
8.609589
 20
15.936628
 11
8.809589
 21
15.936230
  0
LINE
  8
4
  6
CONTINUOUS
 10
8.793138
 20
57.971026
 11
8.794628
 21
58.721024
  0
LINE
  8
4
  6
CONTINUOUS
 10
8.850878
 20
58.720913
 11
8.738378
 21
58.721136
  0
LINE
  8
4
  6
CONTINUOUS
 10
8.850878
 20
58.720913
 11
8.796119
 21
59.471023
  0
LINE
  8
4
  6
CONTINUOUS
 10
8.738378
 20
58.721136
 11
8.796119
 21
59.471023
  0
LINE
  8
4
  6
CONTINUOUS
 10
8.906830
 20
58.570801
 11
8.681830
 21
58.571248
  0
LINE
  8
4
  6
CONTINUOUS
 10
8.906644
 20
58.477051
 11
8.681644
 21
58.477498
  0
LINE
  8
4
  6
CONTINUOUS
 10
8.906457
 20
58.383301
 11
8.681458
 21
58.383749
  0
POLYLINE
  8
4
  6
CONTINUOUS
 66
     1
  0
VERTEX
  8
4
  6
CONTINUOUS
 10
8.711497
 20
16.896427
  0
VERTEX
  8
4
  6
CONTINUOUS
 10
8.793138
 20
57.971026
  0
SEQEND
  8
4
  6
CONTINUOUS
  0
LINE
  8
4
  6
CONTINUOUS
 10
9.144830
 20
16.895566
 11
9.142842
 21
15.895568
  0
LINE
  8
4
  6
CONTINUOUS
 10
9.042842
 20
15.895767
 11
9.242842
 21
15.895369
  0
LINE
  8
4
  6
CONTINUOUS
 10
9.042882
 20
15.915767
 11
9.242881
 21
15.915369
  0
LINE
  8
4
  6
CONTINUOUS
 10
9.042922
 20
15.935767
 11
9.242921
 21
15.935369
  0
LINE
  8
4
  6
CONTINUOUS
 10
9.226470
 20
57.970164
 11
9.227961
 21
58.720163
  0
LINE
  8
4
  6
CONTINUOUS
 10
9.284211
 20
58.720051
 11
9.171711
 21
58.720275
  0
LINE
  8
4
  6
CONTINUOUS
 10
9.284211
 20
58.720051
 11
9.229451
 21
59.470162
  0
LINE
  8
4
  6
CONTINUOUS
 10
9.171711
 20
58.720275
 11
9.229451
 21
59.470162
  0
LINE
  8
4
  6
CONTINUOUS
 10
9.340162
 20
58.569940
 11
9.115163
 21
58.570387
  0
LINE
  8
4
  6
CONTINUOUS
 10
9.339976
 20
58.476190
 11
9.114977
 21
58.476637
  0
LINE
  8
4
  6
CONTINUOUS
 10
9.339790
 20
58.382440
 11
9.114790
 21
58.382887
  0
POLYLINE
  8
4
  6
CONTINUOUS
 66
     1
  0
VERTEX
  8
4
  6
CONTINUOUS
 10
9.144830
 20
16.895566
  0
VERTEX
  8
4
  6
CONTINUOUS
 10
9.226470
 20
57.970164
  0
SEQEND
  8
4
  6
CONTINUOUS
  0
LINE
  8
1
  6
CONTINUOUS
 10
23.306000
 20
72.164940
 11
42.729728
 21
72.164940
  0
LINE
  8
1
  6
CONTINUOUS
 10
23.306000
 20
72.164940
 11
23.306000
 21
71.164940
  0
LINE
  8
1
  6
CONTINUOUS
 10
23.306000
 20
71.164940
 11
39.595280
 21
71.164940
  0
LINE
  8
1
  6
CONTINUOUS
 10
23.306000
 20
71.164940
 11
23.306000
 21
70.164940
  0
LINE
  8
1
  6
CONTINUOUS
 10
25.795116
 20
71.164940
 11
25.795116
 21
70.164940
  0
LINE
  8
1
  6
CONTINUOUS
 10
27.932829
 20
71.164940
 11
27.932829
 21
70.164940
  0
LINE
  8
1
  6
CONTINUOUS
 10
29.308196
 20
71.164940
 11
29.308196
 21
70.164940
  0
LINE
  8
1
  6
CONTINUOUS
 10
33.472709
 20
70.664940
 11
33.472709
 21
70.164940
  0
LINE
  8
1
  6
CONTINUOUS
 10
36.460832
 20
71.164940
 11
36.460832
 21
70.164940
  0
LINE
  8
1
  6
CONTINUOUS
 10
37.505647
 20
70.664940
 11
37.505648
 21
70.164940
  0
LINE
  8
1
  6
CONTINUOUS
 10
38.550464
 20
70.664940
 11
38.550464
 21
70.164940
  0
LINE
  8
1
  6
CONTINUOUS
 10
39.595280
 20
71.164940
 11
39.595280
 21
70.164940
  0
LINE
  8
1
  6
CONTINUOUS
 10
23.306000
 20
70.164940
 11
42.729728
 21
70.164940
  0
LINE
  8
1
  6
CONTINUOUS
 10
29.308196
 20
70.664940
 11
33.472709
 21
70.664940
  0
LINE
  8
1
  6
CONTINUOUS
 10
33.472709
 20
70.664940
 11
36.460832
 21
70.664940
  0
LINE
  8
1
  6
CONTINUOUS
 10
36.460832
 20
70.664940
 11
37.505648
 21
70.664940
  0
LINE
  8
1
  6
CONTINUOUS
 10
37.505648
 20
70.664940
 11
38.550464
 21
70.664940
  0
LINE
  8
1
  6
CONTINUOUS
 10
38.550464
 20
70.664940
 11
42.729728
 21
70.664940
  0
LINE
  8
1
  6
CONTINUOUS
 10
42.729728
 20
70.164940
 11
42.729728
 21
72.164940
  0
LINE
  8
1
  6
CONTINUOUS
 10
41.162504
 20
70.664940
 11
41.162504
 21
70.164940
  0
LINE
  8
1
  6
CONTINUOUS
 10
39.595280
 20
71.164940
 11
42.729728
 21
71.164940
  0
LINE
  8
1
  6
CONTINUOUS
 10
23.306000
 20
70.164940
 11
23.306000
 21
69.664939
  0
LINE
  8
1
  6
CONTINUOUS
 10
23.306000
 20
69.664939
 11
42.729728
 21
69.664939
  0
LINE
  8
1
  6
CONTINUOUS
 10
25.795116
 20
70.164940
 11
25.795116
 21
69.664939
  0
LINE
  8
1
  6
CONTINUOUS
 10
27.932829
 20
70.164940
 11
27.932829
 21
69.664939
  0
LINE
  8
1
  6
CONTINUOUS
 10
29.308196
 20
70.164940
 11
29.308196
 21
69.664939
  0
LINE
  8
1
  6
CONTINUOUS
 10
33.472709
 20
70.164940
 11
33.472709
 21
69.664939
  0
LINE
  8
1
  6
CONTINUOUS
 10
36.460832
 20
70.164940
 11
36.460832
 21
69.664939
  0
LINE
  8
1
  6
CONTINUOUS
 10
37.505648
 20
70.164940
 11
37.505648
 21
69.664939
  0
LINE
  8
1
  6
CONTINUOUS
 10
38.550464
 20
70.164940
 11
38.550464
 21
69.664939
  0
LINE
  8
1
  6
CONTINUOUS
 10
39.595280
 20
70.164940
 11
39.595280
 21
69.664939
  0
LINE
  8
1
  6
CONTINUOUS
 10
39.595280
 20
69.664939
 11
39.595280
 21
70.164940
  0
LINE
  8
1
  6
CONTINUOUS
 10
39.595280
 20
70.164940
 11
39.595280
 21
69.664939
  0
LINE
  8
1
  6
CONTINUOUS
 10
41.162504
 20
70.164940
 11
41.162504
 21
69.664939
  0
LINE
  8
1
  6
CONTINUOUS
 10
42.729728
 20
70.164940
 11
42.729728
 21
69.664939
  0
LINE
  8
1
  6
CONTINUOUS
 10
23.306000
 20
69.664939
 11
23.306000
 21
69.164939
  0
LINE
  8
1
  6
CONTINUOUS
 10
23.306000
 20
69.164939
 11
42.729728
 21
69.164939
  0
LINE
  8
1
  6
CONTINUOUS
 10
25.795116
 20
69.664939
 11
25.795116
 21
69.164939
  0
LINE
  8
1
  6
CONTINUOUS
 10
27.932829
 20
69.664939
 11
27.932829
 21
69.164939
  0
LINE
  8
1
  6
CONTINUOUS
 10
29.308196
 20
69.664939
 11
29.308196
 21
69.164939
  0
LINE
  8
1
  6
CONTINUOUS
 10
33.472709
 20
69.664939
 11
33.472709
 21
69.164939
  0
LINE
  8
1
  6
CONTINUOUS
 10
36.460832
 20
69.664939
 11
36.460832
 21
69.164939
  0
LINE
  8
1
  6
CONTINUOUS
 10
37.505648
 20
69.664939
 11
37.505648
 21
69.164939
  0
LINE
  8
1
  6
CONTINUOUS
 10
38.550464
 20
69.664939
 11
38.550464
 21
69.164939
  0
LINE
  8
1
  6
CONTINUOUS
 10
39.595280
 20
69.664939
 11
39.595280
 21
69.164939
  0
LINE
  8
1
  6
CONTINUOUS
 10
39.595280
 20
69.164939
 11
39.595280
 21
69.664939
  0
LINE
  8
1
  6
CONTINUOUS
 10
39.595280
 20
69.664939
 11
39.595280
 21
69.164939
  0
LINE
  8
1
  6
CONTINUOUS
 10
41.162504
 20
69.664939
 11
41.162504
 21
69.164939
  0
LINE
  8
1
  6
CONTINUOUS
 10
42.729728
 20
69.664939
 11
42.729728
 21
69.164939
  0
LINE
  8
1
  6
CONTINUOUS
 10
23.306000
 20
69.164938
 11
23.306000
 21
68.664938
  0
LINE
  8
1
  6
CONTINUOUS
 10
23.306000
 20
68.664938
 11
42.729728
 21
68.664938
  0
LINE
  8
1
  6
CONTINUOUS
 10
25.795116
 20
69.164938
 11
25.795116
 21
68.664938
  0
LINE
  8
1
  6
CONTINUOUS
 10
27.932829
 20
69.164938
 11
27.932829
 21
68.664938
  0
LINE
  8
1
  6
CONTINUOUS
 10
29.308196
 20
69.164938
 11
29.308196
 21
68.664938
  0
LINE
  8
1
  6
CONTINUOUS
 10
33.472709
 20
69.164938
 11
33.472709
 21
68.664938
  0
LINE
  8
1
  6
CONTINUOUS
 10
36.460832
 20
69.164938
 11
36.460832
 21
68.664938
  0
LINE
  8
1
  6
CONTINUOUS
 10
37.505648
 20
69.164938
 11
37.505648
 21
68.664938
  0
LINE
  8
1
  6
CONTINUOUS
 10
38.550464
 20
69.164938
 11
38.550464
 21
68.664938
  0
LINE
  8
1
  6
CONTINUOUS
 10
39.595280
 20
69.164938
 11
39.595280
 21
68.664938
  0
LINE
  8
1
  6
CONTINUOUS
 10
39.595280
 20
68.664938
 11
39.595280
 21
69.164938
  0
LINE
  8
1
  6
CONTINUOUS
 10
39.595280
 20
69.164939
 11
39.595280
 21
68.664938
  0
LINE
  8
1
  6
CONTINUOUS
 10
41.162504
 20
69.164938
 11
41.162504
 21
68.664938
  0
LINE
  8
1
  6
CONTINUOUS
 10
42.729728
 20
69.164938
 11
42.729728
 21
68.664938
  0
LINE
  8
1
  6
CONTINUOUS
 10
23.306000
 20
68.664937
 11
23.306000
 21
68.164937
  0
LINE
  8
1
  6
CONTINUOUS
 10
23.306000
 20
68.164937
 11
42.729728
 21
68.164937
  0
LINE
  8
1
  6
CONTINUOUS
 10
25.795116
 20
68.664937
 11
25.795116
 21
68.164937
  0
LINE
  8
1
  6
CONTINUOUS
 10
27.932829
 20
68.664937
 11
27.932829
 21
68.164937
  0
LINE
  8
1
  6
CONTINUOUS
 10
29.308196
 20
68.664937
 11
29.308196
 21
68.164937
  0
LINE
  8
1
  6
CONTINUOUS
 10
33.472709
 20
68.664937
 11
33.472709
 21
68.164937
  0
LINE
  8
1
  6
CONTINUOUS
 10
36.460832
 20
68.664937
 11
36.460832
 21
68.164937
  0
LINE
  8
1
  6
CONTINUOUS
 10
37.505648
 20
68.664937
 11
37.505648
 21
68.164937
  0
LINE
  8
1
  6
CONTINUOUS
 10
38.550464
 20
68.664937
 11
38.550464
 21
68.164937
  0
LINE
  8
1
  6
CONTINUOUS
 10
39.595280
 20
68.664937
 11
39.595280
 21
68.164937
  0
LINE
  8
1
  6
CONTINUOUS
 10
39.595280
 20
68.164937
 11
39.595280
 21
68.664937
  0
LINE
  8
1
  6
CONTINUOUS
 10
39.595280
 20
68.664938
 11
39.595280
 21
68.164937
  0
LINE
  8
1
  6
CONTINUOUS
 10
41.162504
 20
68.664937
 11
41.162504
 21
68.164937
  0
LINE
  8
1
  6
CONTINUOUS
 10
42.729728
 20
68.664937
 11
42.729728
 21
68.164937
  0
LINE
  8
1
  6
CONTINUOUS
 10
23.306000
 20
68.164937
 11
23.306000
 21
67.664937
  0
LINE
  8
1
  6
CONTINUOUS
 10
23.306000
 20
67.664937
 11
42.729728
 21
67.664937
  0
LINE
  8
1
  6
CONTINUOUS
 10
25.795116
 20
68.164937
 11
25.795116
 21
67.664937
  0
LINE
  8
1
  6
CONTINUOUS
 10
27.932829
 20
68.164937
 11
27.932829
 21
67.664937
  0
LINE
  8
1
  6
CONTINUOUS
 10
29.308196
 20
68.164937
 11
29.308196
 21
67.664937
  0
LINE
  8
1
  6
CONTINUOUS
 10
33.472709
 20
68.164937
 11
33.472709
 21
67.664937
  0
LINE
  8
1
  6
CONTINUOUS
 10
36.460832
 20
68.164937
 11
36.460832
 21
67.664937
  0
LINE
  8
1
  6
CONTINUOUS
 10
37.505648
 20
68.164937
 11
37.505648
 21
67.664937
  0
LINE
  8
1
  6
CONTINUOUS
 10
38.550464
 20
68.164937
 11
38.550464
 21
67.664937
  0
LINE
  8
1
  6
CONTINUOUS
 10
39.595280
 20
68.164937
 11
39.595280
 21
67.664937
  0
LINE
  8
1
  6
CONTINUOUS
 10
39.595280
 20
67.664937
 11
39.595280
 21
68.164937
  0
LINE
  8
1
  6
CONTINUOUS
 10
39.595280
 20
68.164937
 11
39.595280
 21
67.664936
  0
LINE
  8
1
  6
CONTINUOUS
 10
41.162504
 20
68.164937
 11
41.162504
 21
67.664937
  0
LINE
  8
1
  6
CONTINUOUS
 10
42.729728
 20
68.164937
 11
42.729728
 21
67.664937
  0
LINE
  8
1
  6
CONTINUOUS
 10
23.306000
 20
67.664936
 11
23.306000
 21
67.164936
  0
LINE
  8
1
  6
CONTINUOUS
 10
23.306000
 20
67.164936
 11
42.729728
 21
67.164936
  0
LINE
  8
1
  6
CONTINUOUS
 10
25.795116
 20
67.664936
 11
25.795116
 21
67.164936
  0
LINE
  8
1
  6
CONTINUOUS
 10
27.932829
 20
67.664936
 11
27.932829
 21
67.164936
  0
LINE
  8
1
  6
CONTINUOUS
 10
29.308196
 20
67.664936
 11
29.308196
 21
67.164936
  0
LINE
  8
1
  6
CONTINUOUS
 10
33.472709
 20
67.664936
 11
33.472709
 21
67.164936
  0
LINE
  8
1
  6
CONTINUOUS
 10
36.460832
 20
67.664936
 11
36.460832
 21
67.164936
  0
LINE
  8
1
  6
CONTINUOUS
 10
37.505648
 20
67.664936
 11
37.505648
 21
67.164936
  0
LINE
  8
1
  6
CONTINUOUS
 10
38.550464
 20
67.664936
 11
38.550464
 21
67.164936
  0
LINE
  8
1
  6
CONTINUOUS
 10
39.595280
 20
67.664936
 11
39.595280
 21
67.164936
  0
LINE
  8
1
  6
CONTINUOUS
 10
39.595280
 20
67.164936
 11
39.595280
 21
67.664936
  0
LINE
  8
1
  6
CONTINUOUS
 10
39.595280
 20
67.664936
 11
39.595280
 21
67.164936
  0
LINE
  8
1
  6
CONTINUOUS
 10
41.162504
 20
67.664936
 11
41.162504
 21
67.164936
  0
LINE
  8
1
  6
CONTINUOUS
 10
42.729728
 20
67.664936
 11
42.729728
 21
67.164936
  0
LINE
  8
1
  6
CONTINUOUS
 10
23.306000
 20
67.164935
 11
23.306000
 21
66.664935
  0
LINE
  8
1
  6
CONTINUOUS
 10
23.306000
 20
66.664935
 11
42.729728
 21
66.664935
  0
LINE
  8
1
  6
CONTINUOUS
 10
25.795116
 20
67.164935
 11
25.795116
 21
66.664935
  0
LINE
  8
1
  6
CONTINUOUS
 10
27.932829
 20
67.164935
 11
27.932829
 21
66.664935
  0
LINE
  8
1
  6
CONTINUOUS
 10
29.308196
 20
67.164935
 11
29.308196
 21
66.664935
  0
LINE
  8
1
  6
CONTINUOUS
 10
33.472709
 20
67.164935
 11
33.472709
 21
66.664935
  0
LINE
  8
1
  6
CONTINUOUS
 10
36.460832
 20
67.164935
 11
36.460832
 21
66.664935
  0
LINE
  8
1
  6
CONTINUOUS
 10
37.505648
 20
67.164935
 11
37.505648
 21
66.664935
  0
LINE
  8
1
  6
CONTINUOUS
 10
38.550464
 20
67.164935
 11
38.550464
 21
66.664935
  0
LINE
  8
1
  6
CONTINUOUS
 10
39.595280
 20
67.164935
 11
39.595280
 21
66.664935
  0
LINE
  8
1
  6
CONTINUOUS
 10
39.595280
 20
66.664935
 11
39.595280
 21
67.164935
  0
LINE
  8
1
  6
CONTINUOUS
 10
39.595280
 20
67.164936
 11
39.595280
 21
66.664935
  0
LINE
  8
1
  6
CONTINUOUS
 10
41.162504
 20
67.164935
 11
41.162504
 21
66.664935
  0
LINE
  8
1
  6
CONTINUOUS
 10
42.729728
 20
67.164935
 11
42.729728
 21
66.664935
  0
LINE
  8
1
  6
CONTINUOUS
 10
23.306000
 20
66.027583
 11
36.589092
 21
66.027583
  0
LINE
  8
1
  6
CONTINUOUS
 10
23.306000
 20
64.664935
 11
36.589092
 21
64.664935
  0
LINE
  8
1
  6
CONTINUOUS
 10
23.306000
 20
64.164935
 11
32.227709
 21
64.164935
  0
LINE
  8
1
  6
CONTINUOUS
 10
32.227709
 20
64.164935
 11
34.415832
 21
64.164935
  0
LINE
  8
1
  6
CONTINUOUS
 10
33.795812
 20
64.164935
 11
34.840628
 21
64.164935
  0
LINE
  8
1
  6
CONTINUOUS
 10
34.840628
 20
64.164935
 11
36.505464
 21
64.164935
  0
LINE
  8
1
  6
CONTINUOUS
 10
36.505464
 20
64.164935
 11
36.589092
 21
64.164935
  0
LINE
  8
1
  6
CONTINUOUS
 10
23.306000
 20
66.027583
 11
23.306000
 21
63.164935
  0
LINE
  8
1
  6
CONTINUOUS
 10
23.306000
 20
63.164935
 11
36.589092
 21
63.164935
  0
LINE
  8
1
  6
CONTINUOUS
 10
25.443712
 20
64.164935
 11
25.443712
 21
63.164935
  0
LINE
  8
1
  6
CONTINUOUS
 10
27.631836
 20
63.164935
 11
27.631836
 21
64.164935
  0
LINE
  8
1
  6
CONTINUOUS
 10
34.499460
 20
64.164935
 11
34.499460
 21
63.164935
  0
LINE
  8
1
  6
CONTINUOUS
 10
35.544277
 20
64.164935
 11
35.544277
 21
63.164935
  0
LINE
  8
1
  6
CONTINUOUS
 10
29.334648
 20
63.164935
 11
29.334648
 21
63.664935
  0
LINE
  8
1
  6
CONTINUOUS
 10
36.589092
 20
63.164935
 11
36.589092
 21
66.027583
  0
LINE
  8
1
  6
CONTINUOUS
 10
27.631836
 20
63.664935
 11
33.454645
 21
63.664935
  0
LINE
  8
1
  6
CONTINUOUS
 10
33.454645
 20
63.164935
 11
33.454645
 21
64.664935
  0
LINE
  8
1
  6
CONTINUOUS
 10
31.394647
 20
63.164935
 11
31.394647
 21
63.664935
  0
LINE
  8
1
  6
CONTINUOUS
 10
23.306000
 20
63.164934
 11
23.306000
 21
62.664934
  0
LINE
  8
1
  6
CONTINUOUS
 10
25.443712
 20
63.164934
 11
25.443712
 21
62.664934
  0
LINE
  8
1
  6
CONTINUOUS
 10
27.631836
 20
63.164934
 11
27.631836
 21
62.664934
  0
LINE
  8
1
  6
CONTINUOUS
 10
23.306000
 20
62.664934
 11
36.589092
 21
62.664934
  0
LINE
  8
1
  6
CONTINUOUS
 10
33.454645
 20
63.164935
 11
33.454645
 21
62.664935
  0
LINE
  8
1
  6
CONTINUOUS
 10
34.499460
 20
63.164935
 11
34.499460
 21
62.664935
  0
LINE
  8
1
  6
CONTINUOUS
 10
35.544277
 20
63.164935
 11
35.544277
 21
62.664935
  0
LINE
  8
1
  6
CONTINUOUS
 10
29.334648
 20
63.164935
 11
29.334648
 21
62.664934
  0
LINE
  8
1
  6
CONTINUOUS
 10
31.394647
 20
62.664934
 11
31.394647
 21
63.164935
  0
LINE
  8
1
  6
CONTINUOUS
 10
33.454645
 20
62.664934
 11
33.454645
 21
63.164935
  0
LINE
  8
1
  6
CONTINUOUS
 10
36.589092
 20
63.164935
 11
36.589092
 21
62.664934
  0
LINE
  8
1
  6
CONTINUOUS
 10
23.306000
 20
62.664934
 11
23.306000
 21
62.164933
  0
LINE
  8
1
  6
CONTINUOUS
 10
25.443712
 20
62.664934
 11
25.443712
 21
62.164933
  0
LINE
  8
1
  6
CONTINUOUS
 10
27.631836
 20
62.664934
 11
27.631836
 21
62.164933
  0
LINE
  8
1
  6
CONTINUOUS
 10
23.306000
 20
62.164933
 11
36.589092
 21
62.164933
  0
LINE
  8
1
  6
CONTINUOUS
 10
33.454645
 20
62.664934
 11
33.454645
 21
62.164934
  0
LINE
  8
1
  6
CONTINUOUS
 10
34.499460
 20
62.664934
 11
34.499460
 21
62.164934
  0
LINE
  8
1
  6
CONTINUOUS
 10
35.544277
 20
62.664934
 11
35.544277
 21
62.164934
  0
LINE
  8
1
  6
CONTINUOUS
 10
29.334648
 20
62.664934
 11
29.334648
 21
62.164933
  0
LINE
  8
1
  6
CONTINUOUS
 10
31.394647
 20
62.164933
 11
31.394647
 21
62.664934
  0
LINE
  8
1
  6
CONTINUOUS
 10
33.454645
 20
62.164933
 11
33.454645
 21
62.664934
  0
LINE
  8
1
  6
CONTINUOUS
 10
36.589092
 20
62.664934
 11
36.589092
 21
62.164933
  0
LINE
  8
2
  6
CONTINUOUS
 10
101.700000
 20
23.900000
 11
101.700000
 21
23.900000
  0
LINE
  8
2
  6
CONTINUOUS
 10
118.000000
 20
23.900000
 11
118.000000
 21
23.900000
  0
LINE
  8
2
  6
CONTINUOUS
 10
118.000000
 20
23.900000
 11
101.700000
 21
23.900000
  0
LINE
  8
2
  6
CONTINUOUS
 10
118.000000
 20
22.200000
 11
101.700000
 21
22.200000
  0
LINE
  8
2
  6
CONTINUOUS
 10
101.700000
 20
23.900000
 11
101.700000
 21
22.200000
  0
LINE
  8
2
  6
CONTINUOUS
 10
118.000000
 20
22.200000
 11
118.000000
 21
23.900000
  0
LINE
  8
1
  6
CONTINUOUS
 10
118.000002
 20
29.700001
 11
119.000002
 21
29.700001
  0
LINE
  8
1
  6
CONTINUOUS
 10
118.000002
 20
59.400002
 11
119.000002
 21
59.400002
  0
LINE
  8
1
  6
CONTINUOUS
 10
0.000000
 20
29.700001
 11
2.500000
 21
29.700001
  0
LINE
  8
1
  6
CONTINUOUS
 10
0.000000
 20
59.400002
 11
2.500000
 21
59.400002
  0
LINE
  8
1
  6
CONTINUOUS
 10
100.500002
 20
82.999998
 11
100.500002
 21
83.999998
  0
LINE
  8
1
  6
CONTINUOUS
 10
82.000002
 20
82.999998
 11
82.000002
 21
83.999998
  0
LINE
  8
1
  6
CONTINUOUS
 10
63.500002
 20
82.999998
 11
63.500002
 21
83.999998
  0
LINE
  8
1
  6
CONTINUOUS
 10
45.000002
 20
82.999998
 11
45.000002
 21
83.999998
  0
LINE
  8
1
  6
CONTINUOUS
 10
33.050001
 20
82.999998
 11
33.050001
 21
83.999998
  0
LINE
  8
1
  6
CONTINUOUS
 10
21.100000
 20
82.999998
 11
21.100000
 21
83.999998
  0
LINE
  8
1
  6
CONTINUOUS
 10
100.500002
 20
0.000000
 11
100.500002
 21
1.000000
  0
LINE
  8
1
  6
CONTINUOUS
 10
82.000002
 20
0.000000
 11
82.000002
 21
1.000000
  0
LINE
  8
1
  6
CONTINUOUS
 10
63.500002
 20
0.000000
 11
63.500002
 21
1.000000
  0
LINE
  8
1
  6
CONTINUOUS
 10
45.000002
 20
0.000000
 11
45.000002
 21
1.000000
  0
LINE
  8
1
  6
CONTINUOUS
 10
33.050001
 20
0.000000
 11
33.050001
 21
1.000000
  0
LINE
  8
1
  6
CONTINUOUS
 10
21.100000
 20
0.000000
 11
21.100000
 21
1.000000
  0
LINE
  8
1
  6
CONTINUOUS
 10
0.000000
 20
0.000000
 11
119.000002
 21
0.000000
  0
LINE
  8
1
  6
CONTINUOUS
 10
119.000002
 20
0.000000
 11
119.000002
 21
83.999998
  0
LINE
  8
1
  6
CONTINUOUS
 10
0.000000
 20
0.000000
 11
0.000000
 21
83.999998
  0
LINE
  8
8
  6
CONTINUOUS
 10
2.500000
 20
1.000000
 11
118.000002
 21
1.000000
  0
LINE
  8
8
  6
CONTINUOUS
 10
118.000002
 20
1.000000
 11
118.000002
 21
82.999998
  0
LINE
  8
1
  6
CONTINUOUS
 10
0.000000
 20
83.999998
 11
119.000002
 21
83.999998
  0
LINE
  8
8
  6
CONTINUOUS
 10
2.500000
 20
82.999998
 11
118.000002
 21
82.999998
  0
LINE
  8
8
  6
CONTINUOUS
 10
2.500000
 20
82.999998
 11
2.500000
 21
1.000000
  0
LINE
  8
2
  6
CONTINUOUS
 10
102.650002
 20
17.625000
 11
102.650002
 21
18.125000
  0
LINE
  8
1
  6
CONTINUOUS
 10
101.700002
 20
18.200000
 11
118.000002
 21
18.200000
  0
LINE
  8
1
  6
CONTINUOUS
 10
101.700002
 20
17.700000
 11
118.000002
 21
17.700000
  0
LINE
  8
1
  6
CONTINUOUS
 10
102.200002
 20
17.700000
 11
118.000002
 21
17.700000
  0
LINE
  8
2
  6
CONTINUOUS
 10
102.650002
 20
17.125000
 11
102.650002
 21
17.625000
  0
LINE
  8
1
  6
CONTINUOUS
 10
102.200002
 20
17.700000
 11
118.000002
 21
17.700000
  0
LINE
  8
1
  6
CONTINUOUS
 10
101.700002
 20
17.200000
 11
118.000002
 21
17.200000
  0
LINE
  8
2
  6
CONTINUOUS
 10
102.650002
 20
16.700000
 11
102.650002
 21
17.200000
  0
LINE
  8
1
  6
CONTINUOUS
 10
116.008223
 20
16.000000
 11
116.008223
 21
22.200000
  0
LINE
  8
1
  6
CONTINUOUS
 10
104.850002
 20
16.000000
 11
104.850002
 21
22.200000
  0
LINE
  8
6
  6
CONTINUOUS
 10
101.700002
 20
16.000000
 11
118.000002
 21
16.000000
  0
LINE
  8
1
  6
CONTINUOUS
 10
102.650002
 20
16.000000
 11
102.650002
 21
16.700000
  0
LINE
  8
1
  6
CONTINUOUS
 10
102.200002
 20
17.200000
 11
118.000002
 21
17.200000
  0
LINE
  8
1
  6
CONTINUOUS
 10
101.700002
 20
16.700000
 11
118.000002
 21
16.700000
  0
LINE
  8
2
  6
CONTINUOUS
 10
102.650002
 20
18.625000
 11
102.650002
 21
22.200000
  0
LINE
  8
6
  6
CONTINUOUS
 10
101.700002
 20
22.200000
 11
118.000002
 21
22.200000
  0
LINE
  8
1
  6
CONTINUOUS
 10
101.700002
 20
18.700000
 11
118.000002
 21
18.700000
  0
LINE
  8
1
  6
CONTINUOUS
 10
102.200002
 20
18.700000
 11
118.000002
 21
18.700000
  0
LINE
  8
2
  6
CONTINUOUS
 10
102.650002
 20
18.125000
 11
102.650002
 21
18.625000
  0
LINE
  8
1
  6
CONTINUOUS
 10
102.200002
 20
18.700000
 11
118.000002
 21
18.700000
  0
LINE
  8
1
  6
CONTINUOUS
 10
102.200002
 20
18.200000
 11
118.000002
 21
18.200000
  0
LINE
  8
1
  6
CONTINUOUS
 10
102.200002
 20
18.200000
 11
118.000002
 21
18.200000
  0
LINE
  8
6
  6
CONTINUOUS
 10
101.700002
 20
6.600000
 11
118.000002
 21
6.600000
  0
LINE
  8
6
  6
CONTINUOUS
 10
101.700002
 20
8.500000
 11
118.000002
 21
8.500000
  0
LINE
  8
6
  6
CONTINUOUS
 10
101.700002
 20
1.000000
 11
101.700002
 21
8.500000
  0
LINE
  8
6
  6
CONTINUOUS
 10
101.700002
 20
16.000000
 11
101.700002
 21
22.200000
  0
LINE
  8
6
  6
CONTINUOUS
 10
101.700002
 20
15.900000
 11
118.000002
 21
15.900000
  0
LINE
  8
6
  6
CONTINUOUS
 10
101.700002
 20
11.400000
 11
101.700002
 21
15.900000
  0
LINE
  8
1
  6
CONTINUOUS
 10
101.700002
 20
14.400000
 11
118.000002
 21
14.400000
  0
LINE
  8
6
  6
CONTINUOUS
 10
101.700002
 20
3.000000
 11
118.000002
 21
3.000000
  0
LINE
  8
6
  6
CONTINUOUS
 10
105.024321
 20
3.000000
 11
105.024321
 21
1.000000
  0
LINE
  8
1
  6
CONTINUOUS
 10
101.700002
 20
12.900000
 11
118.000002
 21
12.900000
  0
POLYLINE
  8
1
  6
CONTINUOUS
 66
     1
  0
VERTEX
  8
1
  6
CONTINUOUS
 10
103.635546
 20
9.498246
  0
VERTEX
  8
1
  6
CONTINUOUS
 10
101.971546
 20
9.498246
  0
VERTEX
  8
1
  6
CONTINUOUS
 10
101.971546
 20
11.162246
  0
VERTEX
  8
1
  6
CONTINUOUS
 10
103.635546
 20
11.162246
  0
VERTEX
  8
1
  6
CONTINUOUS
 10
103.635546
 20
9.498246
  0
SEQEND
  8
1
  6
CONTINUOUS
  0
POLYLINE
  8
13
  6
CONTINUOUS
 66
     1
  0
VERTEX
  8
13
  6
CONTINUOUS
 10
102.095046
 20
10.244446
  0
VERTEX
  8
13
  6
CONTINUOUS
 10
102.095046
 20
9.498246
  0
VERTEX
  8
13
  6
CONTINUOUS
 10
101.971546
 20
9.498246
  0
VERTEX
  8
13
  6
CONTINUOUS
 10
101.971546
 20
11.162246
  0
VERTEX
  8
13
  6
CONTINUOUS
 10
102.095046
 20
11.162246
  0
VERTEX
  8
13
  6
CONTINUOUS
 10
102.095046
 20
10.244446
  0
SEQEND
  8
13
  6
CONTINUOUS
  0
POLYLINE
  8
13
  6
CONTINUOUS
 66
     1
  0
VERTEX
  8
13
  6
CONTINUOUS
 10
102.522746
 20
10.230979
  0
VERTEX
  8
13
  6
CONTINUOUS
 10
102.522746
 20
9.498246
  0
VERTEX
  8
13
  6
CONTINUOUS
 10
102.095046
 20
9.498246
  0
VERTEX
  8
13
  6
CONTINUOUS
 10
102.095046
 20
10.244446
  0
VERTEX
  8
13
  6
CONTINUOUS
 10
102.143544
 20
10.248642
  0
VERTEX
  8
13
  6
CONTINUOUS
 10
102.211078
 20
10.252071
  0
VERTEX
  8
13
  6
CONTINUOUS
 10
102.259959
 20
10.252484
  0
VERTEX
  8
13
  6
CONTINUOUS
 10
102.290321
 20
10.252141
  0
VERTEX
  8
13
  6
CONTINUOUS
 10
102.334203
 20
10.250668
  0
VERTEX
  8
13
  6
CONTINUOUS
 10
102.394518
 20
10.246747
  0
VERTEX
  8
13
  6
CONTINUOUS
 10
102.446340
 20
10.241621
  0
VERTEX
  8
13
  6
CONTINUOUS
 10
102.490083
 20
10.235974
  0
VERTEX
  8
13
  6
CONTINUOUS
 10
102.522746
 20
10.230979
  0
SEQEND
  8
13
  6
CONTINUOUS
  0
POLYLINE
  8
13
  6
CONTINUOUS
 66
     1
  0
VERTEX
  8
13
  6
CONTINUOUS
 10
102.594246
 20
10.217654
  0
VERTEX
  8
13
  6
CONTINUOUS
 10
102.594246
 20
9.498246
  0
VERTEX
  8
13
  6
CONTINUOUS
 10
103.021946
 20
9.498246
  0
VERTEX
  8
13
  6
CONTINUOUS
 10
103.021946
 20
10.064184
  0
VERTEX
  8
13
  6
CONTINUOUS
 10
103.003898
 20
10.073542
  0
VERTEX
  8
13
  6
CONTINUOUS
 10
102.981716
 20
10.084501
  0
VERTEX
  8
13
  6
CONTINUOUS
 10
102.953307
 20
10.098271
  0
VERTEX
  8
13
  6
CONTINUOUS
 10
102.912865
 20
10.116383
  0
VERTEX
  8
13
  6
CONTINUOUS
 10
102.885024
 20
10.128001
  0
VERTEX
  8
13
  6
CONTINUOUS
 10
102.844071
 20
10.144755
  0
VERTEX
  8
13
  6
CONTINUOUS
 10
102.813490
 20
10.155923
  0
VERTEX
  8
13
  6
CONTINUOUS
 10
102.778388
 20
10.168156
  0
VERTEX
  8
13
  6
CONTINUOUS
 10
102.744083
 20
10.178793
  0
VERTEX
  8
13
  6
CONTINUOUS
 10
102.703465
 20
10.191172
  0
VERTEX
  8
13
  6
CONTINUOUS
 10
102.665141
 20
10.201162
  0
VERTEX
  8
13
  6
CONTINUOUS
 10
102.624819
 20
10.210970
  0
VERTEX
  8
13
  6
CONTINUOUS
 10
102.594246
 20
10.217654
  0
SEQEND
  8
13
  6
CONTINUOUS
  0
POLYLINE
  8
13
  6
CONTINUOUS
 66
     1
  0
VERTEX
  8
13
  6
CONTINUOUS
 10
103.093446
 20
10.024343
  0
VERTEX
  8
13
  6
CONTINUOUS
 10
103.093446
 20
9.498246
  0
VERTEX
  8
13
  6
CONTINUOUS
 10
103.521146
 20
9.498246
  0
VERTEX
  8
13
  6
CONTINUOUS
 10
103.521146
 20
9.661030
  0
VERTEX
  8
13
  6
CONTINUOUS
 10
103.507797
 20
9.676793
  0
VERTEX
  8
13
  6
CONTINUOUS
 10
103.495964
 20
9.690528
  0
VERTEX
  8
13
  6
CONTINUOUS
 10
103.473877
 20
9.715277
  0
VERTEX
  8
13
  6
CONTINUOUS
 10
103.454164
 20
9.736530
  0
VERTEX
  8
13
  6
CONTINUOUS
 10
103.434048
 20
9.757502
  0
VERTEX
  8
13
  6
CONTINUOUS
 10
103.410015
 20
9.781535
  0
VERTEX
  8
13
  6
CONTINUOUS
 10
103.399294
 20
9.791943
  0
VERTEX
  8
13
  6
CONTINUOUS
 10
103.388429
 20
9.802406
  0
VERTEX
  8
13
  6
CONTINUOUS
 10
103.359952
 20
9.828752
  0
VERTEX
  8
13
  6
CONTINUOUS
 10
103.325139
 20
9.859181
  0
VERTEX
  8
13
  6
CONTINUOUS
 10
103.286846
 20
9.890826
  0
VERTEX
  8
13
  6
CONTINUOUS
 10
103.251036
 20
9.918745
  0
VERTEX
  8
13
  6
CONTINUOUS
 10
103.200839
 20
9.955427
  0
VERTEX
  8
13
  6
CONTINUOUS
 10
103.134352
 20
9.999676
  0
VERTEX
  8
13
  6
CONTINUOUS
 10
103.093446
 20
10.024343
  0
SEQEND
  8
13
  6
CONTINUOUS
  0
POLYLINE
  8
13
  6
CONTINUOUS
 66
     1
  0
VERTEX
  8
13
  6
CONTINUOUS
 10
102.522746
 20
10.635283
  0
VERTEX
  8
13
  6
CONTINUOUS
 10
102.522746
 20
11.162246
  0
VERTEX
  8
13
  6
CONTINUOUS
 10
102.095046
 20
11.162246
  0
VERTEX
  8
13
  6
CONTINUOUS
 10
102.095046
 20
10.995122
  0
VERTEX
  8
13
  6
CONTINUOUS
 10
102.153689
 20
10.929235
  0
VERTEX
  8
13
  6
CONTINUOUS
 10
102.237359
 20
10.846559
  0
VERTEX
  8
13
  6
CONTINUOUS
 10
102.308389
 20
10.784730
  0
VERTEX
  8
13
  6
CONTINUOUS
 10
102.366624
 20
10.739274
  0
VERTEX
  8
13
  6
CONTINUOUS
 10
102.406322
 20
10.710064
  0
VERTEX
  8
13
  6
CONTINUOUS
 10
102.455827
 20
10.676682
  0
VERTEX
  8
13
  6
CONTINUOUS
 10
102.493954
 20
10.652515
  0
VERTEX
  8
13
  6
CONTINUOUS
 10
102.522746
 20
10.635283
  0
SEQEND
  8
13
  6
CONTINUOUS
  0
POLYLINE
  8
13
  6
CONTINUOUS
 66
     1
  0
VERTEX
  8
13
  6
CONTINUOUS
 10
103.021946
 20
10.443678
  0
VERTEX
  8
13
  6
CONTINUOUS
 10
103.021946
 20
11.162246
  0
VERTEX
  8
13
  6
CONTINUOUS
 10
102.594246
 20
11.162246
  0
VERTEX
  8
13
  6
CONTINUOUS
 10
102.594246
 20
10.595859
  0
VERTEX
  8
13
  6
CONTINUOUS
 10
102.663800
 20
10.561766
  0
VERTEX
  8
13
  6
CONTINUOUS
 10
102.744359
 20
10.527375
  0
VERTEX
  8
13
  6
CONTINUOUS
 10
102.812197
 20
10.501464
  0
VERTEX
  8
13
  6
CONTINUOUS
 10
102.889458
 20
10.476967
  0
VERTEX
  8
13
  6
CONTINUOUS
 10
102.950702
 20
10.460007
  0
VERTEX
  8
13
  6
CONTINUOUS
 10
103.021946
 20
10.443678
  0
SEQEND
  8
13
  6
CONTINUOUS
  0
POLYLINE
  8
13
  6
CONTINUOUS
 66
     1
  0
VERTEX
  8
13
  6
CONTINUOUS
 10
103.093446
 20
10.430307
  0
VERTEX
  8
13
  6
CONTINUOUS
 10
103.093446
 20
11.162246
  0
VERTEX
  8
13
  6
CONTINUOUS
 10
103.521146
 20
11.162246
  0
VERTEX
  8
13
  6
CONTINUOUS
 10
103.521146
 20
10.417580
  0
VERTEX
  8
13
  6
CONTINUOUS
 10
103.476372
 20
10.413637
  0
VERTEX
  8
13
  6
CONTINUOUS
 10
103.416577
 20
10.410480
  0
VERTEX
  8
13
  6
CONTINUOUS
 10
103.366788
 20
10.409453
  0
VERTEX
  8
13
  6
CONTINUOUS
 10
103.336830
 20
10.409453
  0
VERTEX
  8
13
  6
CONTINUOUS
 10
103.286182
 20
10.410821
  0
VERTEX
  8
13
  6
CONTINUOUS
 10
103.241261
 20
10.413321
  0
VERTEX
  8
13
  6
CONTINUOUS
 10
103.205545
 20
10.416539
  0
VERTEX
  8
13
  6
CONTINUOUS
 10
103.155349
 20
10.421044
  0
VERTEX
  8
13
  6
CONTINUOUS
 10
103.093446
 20
10.430307
  0
SEQEND
  8
13
  6
CONTINUOUS
  0
POLYLINE
  8
13
  6
CONTINUOUS
 66
     1
  0
VERTEX
  8
13
  6
CONTINUOUS
 10
102.522746
 20
9.498246
  0
VERTEX
  8
13
  6
CONTINUOUS
 10
102.594246
 20
9.498246
  0
VERTEX
  8
13
  6
CONTINUOUS
 10
102.594246
 20
11.162246
  0
VERTEX
  8
13
  6
CONTINUOUS
 10
102.522746
 20
11.162246
  0
VERTEX
  8
13
  6
CONTINUOUS
 10
102.522746
 20
9.498246
  0
VERTEX
  8
13
  6
CONTINUOUS
 10
102.594246
 20
9.498246
  0
SEQEND
  8
13
  6
CONTINUOUS
  0
POLYLINE
  8
13
  6
CONTINUOUS
 66
     1
  0
VERTEX
  8
13
  6
CONTINUOUS
 10
103.021946
 20
11.162246
  0
VERTEX
  8
13
  6
CONTINUOUS
 10
103.093446
 20
11.162246
  0
VERTEX
  8
13
  6
CONTINUOUS
 10
103.093446
 20
9.498246
  0
VERTEX
  8
13
  6
CONTINUOUS
 10
103.021946
 20
9.498246
  0
VERTEX
  8
13
  6
CONTINUOUS
 10
103.021946
 20
11.162246
  0
SEQEND
  8
13
  6
CONTINUOUS
  0
POLYLINE
  8
13
  6
CONTINUOUS
 66
     1
  0
VERTEX
  8
13
  6
CONTINUOUS
 10
103.521146
 20
9.498246
  0
VERTEX
  8
13
  6
CONTINUOUS
 10
103.635546
 20
9.498246
  0
VERTEX
  8
13
  6
CONTINUOUS
 10
103.635546
 20
11.162246
  0
VERTEX
  8
13
  6
CONTINUOUS
 10
103.521146
 20
11.162246
  0
VERTEX
  8
13
  6
CONTINUOUS
 10
103.521146
 20
9.498246
  0
SEQEND
  8
13
  6
CONTINUOUS
  0
LINE
  8
6
  6
CONTINUOUS
 10
107.924321
 20
3.000000
 11
107.924321
 21
2.000000
  0
LINE
  8
6
  6
CONTINUOUS
 10
101.700002
 20
2.000000
 11
114.124321
 21
2.000000
  0
LINE
  8
6
  6
CONTINUOUS
 10
114.124321
 20
3.000000
 11
114.124321
 21
1.000000
  0
LINE
  8
6
  6
CONTINUOUS
 10
101.700002
 20
8.600000
 11
118.000002
 21
8.600000
  0
LINE
  8
6
  6
CONTINUOUS
 10
101.700002
 20
8.600000
 11
101.700002
 21
11.300000
  0
LINE
  8
6
  6
CONTINUOUS
 10
101.700002
 20
11.300000
 11
118.000002
 21
11.300000
  0
LINE
  8
6
  6
CONTINUOUS
 10
101.700002
 20
11.400000
 11
118.000002
 21
11.400000
  0
LINE
  8
1
  6
CONTINUOUS
 10
101.700002
 20
19.200000
 11
118.000002
 21
19.200000
  0
LINE
  8
1
  6
CONTINUOUS
 10
102.200002
 20
19.200000
 11
118.000002
 21
19.200000
  0
LINE
  8
1
  6
CONTINUOUS
 10
102.200002
 20
19.200000
 11
118.000002
 21
19.200000
  0
LINE
  8
1
  6
CONTINUOUS
 10
101.700002
 20
19.700000
 11
118.000002
 21
19.700000
  0
LINE
  8
1
  6
CONTINUOUS
 10
102.200002
 20
19.700000
 11
118.000002
 21
19.700000
  0
LINE
  8
1
  6
CONTINUOUS
 10
102.200002
 20
19.700000
 11
118.000002
 21
19.700000
  0
LINE
  8
1
  6
CONTINUOUS
 10
101.700002
 20
20.200000
 11
118.000002
 21
20.200000
  0
LINE
  8
1
  6
CONTINUOUS
 10
102.200002
 20
20.200000
 11
118.000002
 21
20.200000
  0
LINE
  8
1
  6
CONTINUOUS
 10
102.200002
 20
20.200000
 11
118.000002
 21
20.200000
  0
LINE
  8
1
  6
CONTINUOUS
 10
101.700002
 20
20.700000
 11
118.000002
 21
20.700000
  0
LINE
  8
1
  6
CONTINUOUS
 10
102.200002
 20
20.700000
 11
118.000002
 21
20.700000
  0
LINE
  8
1
  6
CONTINUOUS
 10
102.200002
 20
20.700000
 11
118.000002
 21
20.700000
  0
LINE
  8
1
  6
CONTINUOUS
 10
101.700002
 20
21.200000
 11
118.000002
 21
21.200000
  0
LINE
  8
1
  6
CONTINUOUS
 10
102.200002
 20
21.200000
 11
118.000002
 21
21.200000
  0
LINE
  8
1
  6
CONTINUOUS
 10
102.200002
 20
21.200000
 11
118.000002
 21
21.200000
  0
LINE
  8
1
  6
CONTINUOUS
 10
101.700002
 20
21.700000
 11
118.000002
 21
21.700000
  0
LINE
  8
6
  6
CONTINUOUS
 10
110.708935
 20
11.300000
 11
110.708935
 21
8.600000
  0
TEXT
  8
1
  6
CONTINUOUS
 10
54.161309
 20
33.221375
 40
0.250000
 50
90.000000
  1
L1
  7
TQS_CALIBRI
  0
TEXT
  8
1
  6
CONTINUOUS
 10
55.174221
 20
51.960241
 40
0.250000
 50
90.000000
  1
L2
  7
TQS_CALIBRI
  0
TEXT
  8
1
  6
CONTINUOUS
 10
79.751797
 20
20.568806
 40
0.250000
 50
90.000000
  1
P125
  7
TQS_CALIBRI
  0
TEXT
  8
1
  6
CONTINUOUS
 10
80.667773
 20
31.389765
 40
0.250000
 50
90.000000
  1
P126
  7
TQS_CALIBRI
  0
TEXT
  8
1
  6
CONTINUOUS
 10
81.544201
 20
41.743516
 40
0.250000
 50
90.000000
  1
P127
  7
TQS_CALIBRI
  0
TEXT
  8
1
  6
CONTINUOUS
 10
63.144523
 20
21.974579
 40
0.250000
 50
90.000000
  1
P119
  7
TQS_CALIBRI
  0
TEXT
  8
1
  6
CONTINUOUS
 10
64.233599
 20
32.864518
 40
0.250000
 50
90.000000
  1
P120
  7
TQS_CALIBRI
  0
TEXT
  8
1
  6
CONTINUOUS
 10
65.102999
 20
43.135232
 40
0.250000
 50
90.000000
  1
P121
  7
TQS_CALIBRI
  0
TEXT
  8
1
  6
CONTINUOUS
 10
46.509135
 20
23.020093
 40
0.250000
 50
90.000000
  1
P111
  7
TQS_CALIBRI
  0
TEXT
  8
1
  6
CONTINUOUS
 10
47.509449
 20
34.837489
 40
0.250000
 50
90.000000
  1
P113
  7
TQS_CALIBRI
  0
TEXT
  8
1
  6
CONTINUOUS
 10
48.385877
 20
45.191239
 40
0.250000
 50
90.000000
  1
P114
  7
TQS_CALIBRI
  0
TEXT
  8
1
  6
CONTINUOUS
 10
17.532070
 20
25.472919
 40
0.250000
 50
90.000000
  1
P99
  7
TQS_CALIBRI
  0
TEXT
  8
1
  6
CONTINUOUS
 10
18.532384
 20
37.290316
 40
0.250000
 50
90.000000
  1
P100
  7
TQS_CALIBRI
  0
TEXT
  8
1
  6
CONTINUOUS
 10
96.625818
 20
19.336262
 40
0.250000
 50
90.000000
  1
P131
  7
TQS_CALIBRI
  0
TEXT
  8
1
  6
CONTINUOUS
 10
97.497254
 20
29.632049
 40
0.250000
 50
90.000000
  1
P132
  7
TQS_CALIBRI
  0
TEXT
  8
1
  6
CONTINUOUS
 10
98.368751
 20
39.928564
 40
0.250000
 50
90.000000
  1
P133
  7
TQS_CALIBRI
  0
TEXT
  8
1
  6
CONTINUOUS
 10
15.569883
 20
15.603058
 40
0.250000
 50
90.000000
  1
P98
  7
TQS_CALIBRI
  0
TEXT
  8
1
  6
CONTINUOUS
 10
99.286213
 20
50.807165
 40
0.250000
 50
90.000000
  1
P134
  7
TQS_CALIBRI
  0
TEXT
  8
1
  6
CONTINUOUS
 10
89.454851
 20
51.583170
 40
0.250000
 50
90.000000
  1
P129
  7
TQS_CALIBRI
  0
TEXT
  8
1
  6
CONTINUOUS
 10
78.660111
 20
52.496785
 40
0.250000
 50
90.000000
  1
P124
  7
TQS_CALIBRI
  0
TEXT
  8
1
  6
CONTINUOUS
 10
69.526100
 20
53.269844
 40
0.250000
 50
90.000000
  1
P122
  7
TQS_CALIBRI
  0
TEXT
  8
1
  6
CONTINUOUS
 10
52.918807
 20
54.675411
 40
0.250000
 50
90.000000
  1
P116
  7
TQS_CALIBRI
  0
TEXT
  8
1
  6
CONTINUOUS
 10
46.275890
 20
55.237630
 40
0.250000
 50
90.000000
  1
P112
  7
TQS_CALIBRI
  0
TEXT
  8
1
  6
CONTINUOUS
 10
28.608639
 20
56.732916
 40
0.250000
 50
90.000000
  1
P104
  7
TQS_CALIBRI
  0
TEXT
  8
1
  6
CONTINUOUS
 10
19.023944
 20
57.544115
 40
0.250000
 50
90.000000
  1
P101
  7
TQS_CALIBRI
  0
TEXT
  8
1
  6
CONTINUOUS
 10
10.222087
 20
58.345272
 40
0.250000
 50
90.000000
  1
P97
  7
TQS_CALIBRI
  0
TEXT
  8
1
  6
CONTINUOUS
 10
8.375225
 20
26.185177
 40
0.250000
 50
90.000000
  1
P93
  7
TQS_CALIBRI
  0
TEXT
  8
1
  6
CONTINUOUS
 10
7.910827
 20
44.386185
 40
0.250000
 50
90.000000
  1
P95
  7
TQS_CALIBRI
  0
TEXT
  8
1
  6
CONTINUOUS
 10
7.935115
 20
56.802828
 40
0.250000
 50
90.000000
  1
P96
  7
TQS_CALIBRI
  0
TEXT
  8
1
  6
CONTINUOUS
 10
61.597356
 20
53.997126
 40
0.250000
 50
90.000000
  1
P117
  7
TQS_CALIBRI
  0
TEXT
  8
1
  6
CONTINUOUS
 10
23.084682
 20
14.967025
 40
0.250000
 50
90.000000
  1
P103
  7
TQS_CALIBRI
  0
TEXT
  8
1
  6
CONTINUOUS
 10
72.833885
 20
10.254205
 40
0.250000
 50
90.000000
  1
P123
  7
TQS_CALIBRI
  0
TEXT
  8
1
  6
CONTINUOUS
 10
82.798261
 20
9.410872
 40
0.250000
 50
90.000000
  1
P128
  7
TQS_CALIBRI
  0
TEXT
  8
1
  6
CONTINUOUS
 10
95.694429
 20
8.319110
 40
0.250000
 50
90.000000
  1
P130
  7
TQS_CALIBRI
  0
TEXT
  8
1
  6
CONTINUOUS
 10
38.074793
 20
55.987825
 40
0.250000
 50
90.000000
  1
P109
  7
TQS_CALIBRI
  0
TEXT
  8
1
  6
CONTINUOUS
 10
51.514010
 20
10.310897
 40
0.250000
 50
90.000000
  1
P115
  7
TQS_CALIBRI
  0
TEXT
  8
1
  6
CONTINUOUS
 10
33.126180
 20
24.042291
 40
0.250000
 50
90.000000
  1
P106
  7
TQS_CALIBRI
  0
TEXT
  8
1
  6
CONTINUOUS
 10
34.126343
 20
35.859701
 40
0.250000
 50
90.000000
  1
P107
  7
TQS_CALIBRI
  0
TEXT
  8
1
  6
CONTINUOUS
 10
34.758958
 20
43.334437
 40
0.250000
 50
90.000000
  1
P108
  7
TQS_CALIBRI
  0
TEXT
  8
1
  6
CONTINUOUS
 10
19.366646
 20
47.145870
 40
0.250000
 50
90.000000
  1
P102
  7
TQS_CALIBRI
  0
TEXT
  8
1
  6
CONTINUOUS
 10
62.264773
 20
9.386079
 40
0.250000
 50
90.000000
  1
P304
  7
TQS_CALIBRI
  0
TEXT
  8
1
  6
CONTINUOUS
 10
42.672348
 20
12.807608
 40
0.250000
 50
90.000000
  1
P303
  7
TQS_CALIBRI
  0
TEXT
  8
1
  6
CONTINUOUS
 10
7.895569
 20
36.586200
 40
0.250000
 50
90.000000
  1
P302
  7
TQS_CALIBRI
  0
TEXT
  8
1
  6
CONTINUOUS
 10
62.286088
 20
11.649177
 40
0.250000
 50
90.000000
  1
P118
  7
TQS_CALIBRI
  0
TEXT
  8
1
  6
CONTINUOUS
 10
32.416070
 20
14.177603
 40
0.250000
 50
90.000000
  1
P105
  7
TQS_CALIBRI
  0
TEXT
  8
1
  6
CONTINUOUS
 10
7.876203
 20
26.719552
 40
0.250000
 50
90.000000
  1
P301
  7
TQS_CALIBRI
  0
TEXT
  8
1
  6
CONTINUOUS
 10
8.357267
 20
17.004723
 40
0.250000
 50
90.000000
  1
P92
  7
TQS_CALIBRI
  0
TEXT
  8
1
  6
CONTINUOUS
 10
37.789793
 20
52.543550
 40
0.250000
 50
90.000000
  1
P305
  7
TQS_CALIBRI
  0
TEXT
  8
1
  6
CONTINUOUS
 10
49.135512
 20
51.585183
 40
0.250000
 50
90.000000
  1
P306
  7
TQS_CALIBRI
  0
TEXT
  8
1
  6
CONTINUOUS
 10
60.482399
 20
50.626774
 40
0.250000
 50
90.000000
  1
P307
  7
TQS_CALIBRI
  0
TEXT
  8
1
  6
CONTINUOUS
 10
41.979399
 20
10.993419
 40
0.250000
 50
90.000000
  1
P110
  7
TQS_CALIBRI
  0
TEXT
  8
4
  6
CONTINUOUS
 10
17.081570
 20
36.273323
 40
0.250000
 50
445.162000
  1
C4
  7
TQS_CALIBRI
  0
TEXT
  8
4
  6
CONTINUOUS
 10
17.579789
 20
36.231154
 40
0.250000
 50
445.162000
  1
C5
  7
TQS_CALIBRI
  0
TEXT
  8
4
  6
CONTINUOUS
 10
18.078007
 20
36.188984
 40
0.250000
 50
445.162000
  1
C6
  7
TQS_CALIBRI
  0
TEXT
  8
4
  6
CONTINUOUS
 10
18.576226
 20
36.146815
 40
0.250000
 50
445.162000
  1
C7
  7
TQS_CALIBRI
  0
TEXT
  8
4
  6
CONTINUOUS
 10
32.625230
 20
34.840073
 40
0.250000
 50
445.162000
  1
C8
  7
TQS_CALIBRI
  0
TEXT
  8
4
  6
CONTINUOUS
 10
33.023804
 20
34.806337
 40
0.250000
 50
445.162000
  1
C9
  7
TQS_CALIBRI
  0
TEXT
  8
4
  6
CONTINUOUS
 10
33.422379
 20
34.772602
 40
0.250000
 50
445.162000
  1
C10
  7
TQS_CALIBRI
  0
TEXT
  8
4
  6
CONTINUOUS
 10
33.820954
 20
34.738866
 40
0.250000
 50
445.162000
  1
C11
  7
TQS_CALIBRI
  0
TEXT
  8
4
  6
CONTINUOUS
 10
34.219529
 20
34.705131
 40
0.250000
 50
445.162000
  1
C12
  7
TQS_CALIBRI
  0
TEXT
  8
4
  6
CONTINUOUS
 10
45.944132
 20
33.453625
 40
0.250000
 50
445.162000
  1
C13
  7
TQS_CALIBRI
  0
TEXT
  8
4
  6
CONTINUOUS
 10
46.276278
 20
33.425512
 40
0.250000
 50
445.162000
  1
C14
  7
TQS_CALIBRI
  0
TEXT
  8
4
  6
CONTINUOUS
 10
46.608424
 20
33.397399
 40
0.250000
 50
445.162000
  1
C15
  7
TQS_CALIBRI
  0
TEXT
  8
4
  6
CONTINUOUS
 10
46.940569
 20
33.369287
 40
0.250000
 50
445.162000
  1
C16
  7
TQS_CALIBRI
  0
TEXT
  8
4
  6
CONTINUOUS
 10
47.272715
 20
33.341174
 40
0.250000
 50
445.162000
  1
C17
  7
TQS_CALIBRI
  0
TEXT
  8
4
  6
CONTINUOUS
 10
47.604861
 20
33.313061
 40
0.250000
 50
445.162000
  1
C18
  7
TQS_CALIBRI
  0
TEXT
  8
4
  6
CONTINUOUS
 10
62.584534
 20
32.045148
 40
0.250000
 50
445.162000
  1
C19
  7
TQS_CALIBRI
  0
TEXT
  8
4
  6
CONTINUOUS
 10
62.983109
 20
32.011412
 40
0.250000
 50
445.162000
  1
C20
  7
TQS_CALIBRI
  0
TEXT
  8
4
  6
CONTINUOUS
 10
63.381684
 20
31.977677
 40
0.250000
 50
445.162000
  1
C21
  7
TQS_CALIBRI
  0
TEXT
  8
4
  6
CONTINUOUS
 10
63.780259
 20
31.943941
 40
0.250000
 50
445.162000
  1
C22
  7
TQS_CALIBRI
  0
TEXT
  8
4
  6
CONTINUOUS
 10
64.178834
 20
31.910206
 40
0.250000
 50
445.162000
  1
C23
  7
TQS_CALIBRI
  0
TEXT
  8
4
  6
CONTINUOUS
 10
79.025667
 20
30.653565
 40
0.250000
 50
445.162000
  1
C24
  7
TQS_CALIBRI
  0
TEXT
  8
4
  6
CONTINUOUS
 10
79.424242
 20
30.619830
 40
0.250000
 50
445.162000
  1
C25
  7
TQS_CALIBRI
  0
TEXT
  8
4
  6
CONTINUOUS
 10
79.822817
 20
30.586094
 40
0.250000
 50
445.162000
  1
C26
  7
TQS_CALIBRI
  0
TEXT
  8
4
  6
CONTINUOUS
 10
80.221392
 20
30.552359
 40
0.250000
 50
445.162000
  1
C27
  7
TQS_CALIBRI
  0
TEXT
  8
4
  6
CONTINUOUS
 10
80.619967
 20
30.518623
 40
0.250000
 50
445.162000
  1
C28
  7
TQS_CALIBRI
  0
TEXT
  8
4
  6
CONTINUOUS
 10
96.413490
 20
29.181855
 40
0.250000
 50
445.162000
  1
C29
  7
TQS_CALIBRI
  0
TEXT
  8
4
  6
CONTINUOUS
 10
96.845280
 20
29.145308
 40
0.250000
 50
445.162000
  1
C30
  7
TQS_CALIBRI
  0
TEXT
  8
4
  6
CONTINUOUS
 10
97.277069
 20
29.108762
 40
0.250000
 50
445.162000
  1
C31
  7
TQS_CALIBRI
  0
TEXT
  8
4
  6
CONTINUOUS
 10
8.255408
 20
36.893046
 40
0.250000
 50
449.886118
  1
C1
  7
TQS_CALIBRI
  0
TEXT
  8
4
  6
CONTINUOUS
 10
8.688741
 20
36.892185
 40
0.250000
 50
449.886118
  1
C2
  7
TQS_CALIBRI
  0
TEXT
  8
4
  6
CONTINUOUS
 10
9.122073
 20
36.891324
 40
0.250000
 50
449.886118
  1
C3
  7
TQS_CALIBRI
  0
TEXT
  8
1
  6
CONTINUOUS
 10
24.034902
 20
70.514940
 40
0.220000
  1
CABO
  7
TQS_CALIBRI
  0
TEXT
  8
1
  6
CONTINUOUS
 10
31.099383
 20
70.804940
 40
0.220000
  1
COMPRIMENTO
  7
TQS_CALIBRI
  0
TEXT
  8
1
  6
CONTINUOUS
 10
34.093689
 20
70.304940
 40
0.220000
  1
TOTAL
  7
TQS_CALIBRI
  0
TEXT
  8
1
  6
CONTINUOUS
 10
36.924043
 20
70.304940
 40
0.220000
  1
A
  7
TQS_CALIBRI
  0
TEXT
  8
1
  6
CONTINUOUS
 10
37.968859
 20
70.304940
 40
0.220000
  1
P
  7
TQS_CALIBRI
  0
TEXT
  8
1
  6
CONTINUOUS
 10
39.013675
 20
70.304940
 40
0.220000
  1
I
  7
TQS_CALIBRI
  0
TEXT
  8
1
  6
CONTINUOUS
 10
36.941356
 20
70.804940
 40
0.220000
  1
ANCORAGENS
  7
TQS_CALIBRI
  0
TEXT
  8
1
  6
CONTINUOUS
 10
28.493863
 20
70.514940
 40
0.220000
  1
Q
  7
TQS_CALIBRI
  0
TEXT
  8
1
  6
CONTINUOUS
 10
25.193524
 20
71.464940
 40
0.400000
  1
PROTENSÃO: AÇO
  7
TQS_CALIBRI
  0
TEXT
  8
1
  6
CONTINUOUS
 10
30.512253
 20
70.304940
 40
0.220000
  1
UNITÁRIO
  7
TQS_CALIBRI
  0
TEXT
  8
1
  6
CONTINUOUS
 10
39.968738
 20
70.304940
 40
0.220000
  1
INI
  7
TQS_CALIBRI
  0
TEXT
  8
1
  6
CONTINUOUS
 10
41.535962
 20
70.304940
 40
0.220000
  1
FIN
  7
TQS_CALIBRI
  0
TEXT
  8
1
  6
CONTINUOUS
 10
26.423114
 20
70.517159
 40
0.220000
  1
%%c
  7
TQS_CALIBRI
  0
TEXT
  8
1
  6
CONTINUOUS
 10
40.062504
 20
70.804940
 40
0.220000
  1
ALONG
  7
TQS_CALIBRI
  0
TEXT
  8
1
  6
CONTINUOUS
 10
31.521754
 20
71.464940
 40
0.400000
  1
CP190 RB 12.7 - 12.7
  7
TQS_CALIBRI
  0
TEXT
  8
1
  6
CONTINUOUS
 10
26.708262
 20
70.517159
 40
0.220000
  1
(mm)
  7
TQS_CALIBRI
  0
TEXT
  8
1
  6
CONTINUOUS
 10
33.759459
 20
70.804940
 40
0.220000
  1
(m)
  7
TQS_CALIBRI
  0
TEXT
  8
1
  6
CONTINUOUS
 10
41.250000
 20
70.804940
 40
0.220000
  1
(mm)
  7
TQS_CALIBRI
  0
TEXT
  8
1
  6
CONTINUOUS
 10
23.680324
 20
69.804940
 40
0.220000
  1
C1 A C3
  7
TQS_CALIBRI
  0
TEXT
  8
1
  6
CONTINUOUS
 10
26.033805
 20
69.804940
 40
0.220000
  1
3 %%c 12.7
  7
TQS_CALIBRI
  0
TEXT
  8
1
  6
CONTINUOUS
 10
28.248202
 20
69.804940
 40
0.220000
  1
3
  7
TQS_CALIBRI
  0
TEXT
  8
1
  6
CONTINUOUS
 10
30.484785
 20
69.804940
 40
0.220000
  1
25.8
  7
TQS_CALIBRI
  0
TEXT
  8
1
  6
CONTINUOUS
 10
33.761618
 20
69.804940
 40
0.220000
  1
232.6
  7
TQS_CALIBRI
  0
TEXT
  8
1
  6
CONTINUOUS
 10
36.739590
 20
69.804940
 40
0.220000
  1
9
  7
TQS_CALIBRI
  0
TEXT
  8
1
  6
CONTINUOUS
 10
37.784406
 20
69.804940
 40
0.220000
  1
9
  7
TQS_CALIBRI
  0
TEXT
  8
1
  6
CONTINUOUS
 10
39.821229
 20
69.804940
 40
0.220000
  1
0
  7
TQS_CALIBRI
  0
TEXT
  8
1
  6
CONTINUOUS
 10
41.388453
 20
69.804940
 40
0.220000
  1
176
  7
TQS_CALIBRI
  0
TEXT
  8
1
  6
CONTINUOUS
 10
23.680324
 20
69.304939
 40
0.220000
  1
C4 A C7
  7
TQS_CALIBRI
  0
TEXT
  8
1
  6
CONTINUOUS
 10
26.033805
 20
69.304939
 40
0.220000
  1
4 %%c 12.7
  7
TQS_CALIBRI
  0
TEXT
  8
1
  6
CONTINUOUS
 10
28.248202
 20
69.304939
 40
0.220000
  1
4
  7
TQS_CALIBRI
  0
TEXT
  8
1
  6
CONTINUOUS
 10
30.484785
 20
69.304939
 40
0.220000
  1
25.6
  7
TQS_CALIBRI
  0
TEXT
  8
1
  6
CONTINUOUS
 10
33.761618
 20
69.304939
 40
0.220000
  1
410.4
  7
TQS_CALIBRI
  0
TEXT
  8
1
  6
CONTINUOUS
 10
36.739590
 20
69.304939
 40
0.220000
  1
16
  7
TQS_CALIBRI
  0
TEXT
  8
1
  6
CONTINUOUS
 10
37.784406
 20
69.304939
 40
0.220000
  1
16
  7
TQS_CALIBRI
  0
TEXT
  8
1
  6
CONTINUOUS
 10
39.821229
 20
69.304939
 40
0.220000
  1
0
  7
TQS_CALIBRI
  0
TEXT
  8
1
  6
CONTINUOUS
 10
41.388453
 20
69.304939
 40
0.220000
  1
171
  7
TQS_CALIBRI
  0
TEXT
  8
1
  6
CONTINUOUS
 10
23.680324
 20
68.804938
 40
0.220000
  1
C8 A C12
  7
TQS_CALIBRI
  0
TEXT
  8
1
  6
CONTINUOUS
 10
26.033805
 20
68.804938
 40
0.220000
  1
   "
  7
TQS_CALIBRI
  0
TEXT
  8
1
  6
CONTINUOUS
 10
28.248202
 20
68.804938
 40
0.220000
  1
5
  7
TQS_CALIBRI
  0
TEXT
  8
1
  6
CONTINUOUS
 10
30.484785
 20
68.804938
 40
0.220000
  1
25.8
  7
TQS_CALIBRI
  0
TEXT
  8
1
  6
CONTINUOUS
 10
33.761618
 20
68.804938
 40
0.220000
  1
515.8
  7
TQS_CALIBRI
  0
TEXT
  8
1
  6
CONTINUOUS
 10
36.739590
 20
68.804938
 40
0.220000
  1
20
  7
TQS_CALIBRI
  0
TEXT
  8
1
  6
CONTINUOUS
 10
37.784406
 20
68.804938
 40
0.220000
  1
20
  7
TQS_CALIBRI
  0
TEXT
  8
1
  6
CONTINUOUS
 10
39.821229
 20
68.804938
 40
0.220000
  1
0
  7
TQS_CALIBRI
  0
TEXT
  8
1
  6
CONTINUOUS
 10
41.388453
 20
68.804938
 40
0.220000
  1
172
  7
TQS_CALIBRI
  0
TEXT
  8
1
  6
CONTINUOUS
 10
23.680324
 20
68.304937
 40
0.220000
  1
C13 A C18
  7
TQS_CALIBRI
  0
TEXT
  8
1
  6
CONTINUOUS
 10
26.033805
 20
68.304937
 40
0.220000
  1
3 %%c 12.7
  7
TQS_CALIBRI
  0
TEXT
  8
1
  6
CONTINUOUS
 10
28.248202
 20
68.304937
 40
0.220000
  1
6
  7
TQS_CALIBRI
  0
TEXT
  8
1
  6
CONTINUOUS
 10
30.484785
 20
68.304937
 40
0.220000
  1
26.1
  7
TQS_CALIBRI
  0
TEXT
  8
1
  6
CONTINUOUS
 10
33.761618
 20
68.304937
 40
0.220000
  1
469.8
  7
TQS_CALIBRI
  0
TEXT
  8
1
  6
CONTINUOUS
 10
36.739590
 20
68.304937
 40
0.220000
  1
18
  7
TQS_CALIBRI
  0
TEXT
  8
1
  6
CONTINUOUS
 10
37.784406
 20
68.304937
 40
0.220000
  1
18
  7
TQS_CALIBRI
  0
TEXT
  8
1
  6
CONTINUOUS
 10
39.821229
 20
68.304937
 40
0.220000
  1
0
  7
TQS_CALIBRI
  0
TEXT
  8
1
  6
CONTINUOUS
 10
41.388453
 20
68.304937
 40
0.220000
  1
173
  7
TQS_CALIBRI
  0
TEXT
  8
1
  6
CONTINUOUS
 10
23.680324
 20
67.804937
 40
0.220000
  1
C19 A C23
  7
TQS_CALIBRI
  0
TEXT
  8
1
  6
CONTINUOUS
 10
26.033805
 20
67.804937
 40
0.220000
  1
4 %%c 12.7
  7
TQS_CALIBRI
  0
TEXT
  8
1
  6
CONTINUOUS
 10
28.248202
 20
67.804937
 40
0.220000
  1
5
  7
TQS_CALIBRI
  0
TEXT
  8
1
  6
CONTINUOUS
 10
30.484785
 20
67.804937
 40
0.220000
  1
26.1
  7
TQS_CALIBRI
  0
TEXT
  8
1
  6
CONTINUOUS
 10
33.761618
 20
67.804937
 40
0.220000
  1
522
  7
TQS_CALIBRI
  0
TEXT
  8
1
  6
CONTINUOUS
 10
36.739590
 20
67.804937
 40
0.220000
  1
20
  7
TQS_CALIBRI
  0
TEXT
  8
1
  6
CONTINUOUS
 10
37.784406
 20
67.804937
 40
0.220000
  1
20
  7
TQS_CALIBRI
  0
TEXT
  8
1
  6
CONTINUOUS
 10
39.821229
 20
67.804937
 40
0.220000
  1
0
  7
TQS_CALIBRI
  0
TEXT
  8
1
  6
CONTINUOUS
 10
41.388453
 20
67.804937
 40
0.220000
  1
173
  7
TQS_CALIBRI
  0
TEXT
  8
1
  6
CONTINUOUS
 10
23.680324
 20
67.304936
 40
0.220000
  1
C24 A C28
  7
TQS_CALIBRI
  0
TEXT
  8
1
  6
CONTINUOUS
 10
26.033805
 20
67.304936
 40
0.220000
  1
   "
  7
TQS_CALIBRI
  0
TEXT
  8
1
  6
CONTINUOUS
 10
28.248202
 20
67.304936
 40
0.220000
  1
5
  7
TQS_CALIBRI
  0
TEXT
  8
1
  6
CONTINUOUS
 10
30.484785
 20
67.304936
 40
0.220000
  1
26.1
  7
TQS_CALIBRI
  0
TEXT
  8
1
  6
CONTINUOUS
 10
33.761618
 20
67.304936
 40
0.220000
  1
522
  7
TQS_CALIBRI
  0
TEXT
  8
1
  6
CONTINUOUS
 10
36.739590
 20
67.304936
 40
0.220000
  1
20
  7
TQS_CALIBRI
  0
TEXT
  8
1
  6
CONTINUOUS
 10
37.784406
 20
67.304936
 40
0.220000
  1
20
  7
TQS_CALIBRI
  0
TEXT
  8
1
  6
CONTINUOUS
 10
39.821229
 20
67.304936
 40
0.220000
  1
0
  7
TQS_CALIBRI
  0
TEXT
  8
1
  6
CONTINUOUS
 10
41.388453
 20
67.304936
 40
0.220000
  1
174
  7
TQS_CALIBRI
  0
TEXT
  8
1
  6
CONTINUOUS
 10
23.680324
 20
66.804935
 40
0.220000
  1
C29 A C31
  7
TQS_CALIBRI
  0
TEXT
  8
1
  6
CONTINUOUS
 10
26.033805
 20
66.804935
 40
0.220000
  1
   "
  7
TQS_CALIBRI
  0
TEXT
  8
1
  6
CONTINUOUS
 10
28.248202
 20
66.804935
 40
0.220000
  1
3
  7
TQS_CALIBRI
  0
TEXT
  8
1
  6
CONTINUOUS
 10
30.484785
 20
66.804935
 40
0.220000
  1
26.1
  7
TQS_CALIBRI
  0
TEXT
  8
1
  6
CONTINUOUS
 10
33.761618
 20
66.804935
 40
0.220000
  1
313.2
  7
TQS_CALIBRI
  0
TEXT
  8
1
  6
CONTINUOUS
 10
36.739590
 20
66.804935
 40
0.220000
  1
12
  7
TQS_CALIBRI
  0
TEXT
  8
1
  6
CONTINUOUS
 10
37.784406
 20
66.804935
 40
0.220000
  1
12
  7
TQS_CALIBRI
  0
TEXT
  8
1
  6
CONTINUOUS
 10
39.821229
 20
66.804935
 40
0.220000
  1
0
  7
TQS_CALIBRI
  0
TEXT
  8
1
  6
CONTINUOUS
 10
41.388453
 20
66.804935
 40
0.220000
  1
173
  7
TQS_CALIBRI
  0
TEXT
  8
1
  6
CONTINUOUS
 10
24.166465
 20
63.804935
 40
0.220000
  1
%%c
  7
TQS_CALIBRI
  0
TEXT
  8
1
  6
CONTINUOUS
 10
27.740003
 20
64.304935
 40
0.220000
  1
CABO
  7
TQS_CALIBRI
  0
TEXT
  8
1
  6
CONTINUOUS
 10
33.924563
 20
63.554935
 40
0.220000
  1
A
  7
TQS_CALIBRI
  0
TEXT
  8
1
  6
CONTINUOUS
 10
34.969378
 20
63.554935
 40
0.220000
  1
P
  7
TQS_CALIBRI
  0
TEXT
  8
1
  6
CONTINUOUS
 10
36.014195
 20
63.554935
 40
0.220000
  1
I
  7
TQS_CALIBRI
  0
TEXT
  8
1
  6
CONTINUOUS
 10
30.235762
 20
63.804935
 40
0.220000
  1
PESO
  7
TQS_CALIBRI
  0
TEXT
  8
1
  6
CONTINUOUS
 10
33.994742
 20
64.304935
 40
0.220000
  1
ANCORAGENS
  7
TQS_CALIBRI
  0
TEXT
  8
1
  6
CONTINUOUS
 10
26.073522
 20
65.388267
 40
0.400000
  1
RESUMO DE PROTENSÃO
  7
TQS_CALIBRI
  0
TEXT
  8
1
  6
CONTINUOUS
 10
25.611659
 20
64.825568
 40
0.300000
  1
Monocordoalhas não aderentes
  7
TQS_CALIBRI
  0
TEXT
  8
1
  6
CONTINUOUS
 10
26.002760
 20
63.804935
 40
0.220000
  1
COMPR
  7
TQS_CALIBRI
  0
TEXT
  8
1
  6
CONTINUOUS
 10
27.852548
 20
63.304935
 40
0.220000
  1
kgf/m
  7
TQS_CALIBRI
  0
TEXT
  8
1
  6
CONTINUOUS
 10
30.004325
 20
63.304935
 40
0.220000
  1
kgf
  7
TQS_CALIBRI
  0
TEXT
  8
1
  6
CONTINUOUS
 10
31.818717
 20
63.304935
 40
0.220000
  1
kgf+4%
  7
TQS_CALIBRI
  0
TEXT
  8
1
  6
CONTINUOUS
 10
26.007306
 20
63.304935
 40
0.220000
  1
m
  7
TQS_CALIBRI
  0
TEXT
  8
1
  6
CONTINUOUS
 10
24.144845
 20
63.304935
 40
0.220000
  1
mm
  7
TQS_CALIBRI
  0
TEXT
  8
1
  6
CONTINUOUS
 10
25.732622
 20
62.804934
 40
0.220000
  1
702
  7
TQS_CALIBRI
  0
TEXT
  8
1
  6
CONTINUOUS
 10
34.778219
 20
62.804935
 40
0.220000
  1
27
  7
TQS_CALIBRI
  0
TEXT
  8
1
  6
CONTINUOUS
 10
33.733402
 20
62.804935
 40
0.220000
  1
27
  7
TQS_CALIBRI
  0
TEXT
  8
1
  6
CONTINUOUS
 10
27.852548
 20
62.804934
 40
0.220000
  1
0.886
  7
TQS_CALIBRI
  0
TEXT
  8
1
  6
CONTINUOUS
 10
29.441877
 20
62.804934
 40
0.220000
  1
622
  7
TQS_CALIBRI
  0
TEXT
  8
1
  6
CONTINUOUS
 10
31.501875
 20
62.804934
 40
0.220000
  1
647
  7
TQS_CALIBRI
  0
TEXT
  8
1
  6
CONTINUOUS
 10
23.544689
 20
62.804934
 40
0.220000
  1
3 %%c 12.7
  7
TQS_CALIBRI
  0
TEXT
  8
1
  6
CONTINUOUS
 10
25.732622
 20
62.304933
 40
0.220000
  1
2283
  7
TQS_CALIBRI
  0
TEXT
  8
1
  6
CONTINUOUS
 10
34.778219
 20
62.304934
 40
0.220000
  1
88
  7
TQS_CALIBRI
  0
TEXT
  8
1
  6
CONTINUOUS
 10
33.733402
 20
62.304934
 40
0.220000
  1
88
  7
TQS_CALIBRI
  0
TEXT
  8
1
  6
CONTINUOUS
 10
27.852548
 20
62.304933
 40
0.220000
  1
0.886
  7
TQS_CALIBRI
  0
TEXT
  8
1
  6
CONTINUOUS
 10
29.441877
 20
62.304933
 40
0.220000
  1
2023
  7
TQS_CALIBRI
  0
TEXT
  8
1
  6
CONTINUOUS
 10
31.501875
 20
62.304933
 40
0.220000
  1
2104
  7
TQS_CALIBRI
  0
TEXT
  8
1
  6
CONTINUOUS
 10
23.544689
 20
62.304933
 40
0.220000
  1
4 %%c 12.7
  7
TQS_CALIBRI
  0
TEXT
  8
1
  6
CONTINUOUS
 10
101.932386
 20
23.396411
 40
0.350000
  1
NOTAS:
  7
TQS_CALIBRI
  0
TEXT
  8
2
  6
CONTINUOUS
 10
101.965840
 20
22.812661
 40
0.240000
  1
1) CONFERIR INFORMAÇÕES DA TABELA ACIMA (TABELA DE FERRERAGEM) NA OBRA
  7
TQS_CALIBRI
  0
TEXT
  8
2
  6
CONTINUOUS
 10
101.965840
 20
22.343353
 40
0.240000
  1
ANTES DA COMPRA DAS ARMADURAS.
  7
TQS_CALIBRI
  0
TEXT
  8
1
  6
CONTINUOUS
 10
102.073109
 20
8.835799
 40
0.455000
  1
ENGENHARIA
  7
TQS_CALIBRI
  0
TEXT
  8
1
  6
CONTINUOUS
 10
101.876737
 20
16.222571
 40
0.250000
  1
REV
  7
TQS_CALIBRI
  0
TEXT
  8
1
  6
CONTINUOUS
 10
103.356169
 20
16.222571
 40
0.250000
  1
DATA
  7
TQS_CALIBRI
  0
TEXT
  8
1
  6
CONTINUOUS
 10
105.030516
 20
16.222571
 40
0.250000
  1
ASSUNTO
  7
TQS_CALIBRI
  0
TEXT
  8
1
  6
CONTINUOUS
 10
101.832253
 20
14.047181
 40
0.250000
  1
PROPRIETÁRIO - 
  7
TQS_CALIBRI
  0
TEXT
  8
1
  6
CONTINUOUS
 10
108.042444
 20
2.579059
 40
0.250000
  1
ENGENHEIRO:
  7
TQS_CALIBRI
  0
TEXT
  8
1
  6
CONTINUOUS
 10
108.046365
 20
2.149652
 40
0.250000
  1
CREA REG.:
  7
TQS_CALIBRI
  0
TEXT
  8
1
  6
CONTINUOUS
 10
110.430567
 20
2.160333
 40
0.250000
  1
020930945-8
  7
TQS_CALIBRI
  0
TEXT
  8
1
  6
CONTINUOUS
 10
103.739739
 20
9.759850
 40
1.000000
  1
VGF
  7
TQS_CALIBRI
  0
TEXT
  8
1
  6
CONTINUOUS
 10
101.832253
 20
12.147181
 40
0.250000
  1
PROJETO              Eng. Civil - CREA:020930945-8
  7
TQS_CALIBRI
  0
TEXT
  8
1
  6
CONTINUOUS
 10
101.800510
 20
2.752624
 40
0.150000
  1
DATA:
  7
TQS_CALIBRI
  0
TEXT
  8
1
  6
CONTINUOUS
 10
101.788178
 20
1.752624
 40
0.150000
  1
FASE:
  7
TQS_CALIBRI
  0
TEXT
  8
1
  6
CONTINUOUS
 10
105.124829
 20
2.752624
 40
0.150000
  1
ESCALA:
  7
TQS_CALIBRI
  0
TEXT
  8
1
  6
CONTINUOUS
 10
105.112497
 20
1.752624
 40
0.150000
  1
PLANTA:
  7
TQS_CALIBRI
  0
TEXT
  8
1
  6
CONTINUOUS
 10
101.800510
 20
6.352624
 40
0.150000
  1
TÍTULO:
  7
TQS_CALIBRI
  0
TEXT
  8
1
  6
CONTINUOUS
 10
101.787482
 20
5.577767
 40
0.150000
  1
ELEMENTOS DA PRANCHA:
  7
TQS_CALIBRI
  0
TEXT
  8
1
  6
CONTINUOUS
 10
101.800510
 20
8.252624
 40
0.150000
  1
EMPREENDIMENTO/LOCAL:
  7
TQS_CALIBRI
  0
TEXT
  8
1
  6
CONTINUOUS
 10
106.761120
 20
11.025301
 40
0.150000
  1
CONTATOS:
  7
TQS_CALIBRI
  0
TEXT
  8
1
  6
CONTINUOUS
 10
114.224829
 20
2.752624
 40
0.150000
  1
PLANTA-REVISÃO:
  7
TQS_CALIBRI
  0
TEXT
  8
1
  6
CONTINUOUS
 10
102.041441
 20
16.843956
 40
0.200000
  1
00
  7
TQS_CALIBRI
  0
TEXT
  8
1
  6
CONTINUOUS
 10
102.041441
 20
17.343956
 40
0.200000
  1
01
  7
TQS_CALIBRI
  0
TEXT
  8
1
  6
CONTINUOUS
 10
102.041441
 20
17.843956
 40
0.200000
  1
02
  7
TQS_CALIBRI
  0
TEXT
  8
1
  6
CONTINUOUS
 10
102.041441
 20
18.343956
 40
0.200000
  1
03
  7
TQS_CALIBRI
  0
TEXT
  8
1
  6
CONTINUOUS
 10
102.041441
 20
18.843956
 40
0.200000
  1
04
  7
TQS_CALIBRI
  0
TEXT
  8
1
  6
CONTINUOUS
 10
102.041441
 20
19.343956
 40
0.200000
  1
05
  7
TQS_CALIBRI
  0
TEXT
  8
1
  6
CONTINUOUS
 10
102.041441
 20
19.843956
 40
0.200000
  1
06
  7
TQS_CALIBRI
  0
TEXT
  8
1
  6
CONTINUOUS
 10
102.041441
 20
20.343956
 40
0.200000
  1
07
  7
TQS_CALIBRI
  0
TEXT
  8
1
  6
CONTINUOUS
 10
102.041441
 20
20.843956
 40
0.200000
  1
08
  7
TQS_CALIBRI
  0
TEXT
  8
1
  6
CONTINUOUS
 10
102.041441
 20
21.343956
 40
0.200000
  1
09
  7
TQS_CALIBRI
  0
TEXT
  8
1
  6
CONTINUOUS
 10
102.041441
 20
21.843956
 40
0.200000
  1
10
  7
TQS_CALIBRI
  0
TEXT
  8
1
  6
CONTINUOUS
 10
116.437973
 20
16.222571
 40
0.250000
  1
AUTOR
  7
TQS_CALIBRI
  0
TEXT
  8
1
  6
CONTINUOUS
 10
106.749019
 20
10.335784
 40
0.195000
  1
Tel: 99928-2128
  7
TQS_CALIBRI
  0
TEXT
  8
1
  6
CONTINUOUS
 10
106.749019
 20
10.012284
 40
0.195000
  1
franciscogonca@hotmail.com 
  7
TQS_CALIBRI
  0
TEXT
  8
1
  6
CONTINUOUS
 10
106.749019
 20
9.680784
 40
0.195000
  1
Tel: 99981-6458
  7
TQS_CALIBRI
  0
TEXT
  8
1
  6
CONTINUOUS
 10
106.749019
 20
9.357284
 40
0.195000
  1
tiago@vgfengenharia.com.br 
  7
TQS_CALIBRI
  0
TEXT
  8
1
  6
CONTINUOUS
 10
106.749019
 20
9.025784
 40
0.195000
  1
Tel: 99912-8379
  7
TQS_CALIBRI
  0
TEXT
  8
1
  6
CONTINUOUS
 10
110.809443
 20
11.052624
 40
0.150000
  1
CLIENTE:
  7
TQS_CALIBRI
  0
TEXT
  8
1
  6
CONTINUOUS
 10
116.009770
 20
1.647683
 40
0.500000
  1
-R
  7
TQS_CALIBRI
  0
TEXT
  8
1
  6
CONTINUOUS
 10
101.832253
 20
12.547181
 40
0.250000
  1
RESPONSÁVEL -  Diego de Vasconcelos Gonçalves Ferreira
  7
TQS_CALIBRI
  0
TEXT
  8
1
  6
CONTINUOUS
 10
110.422141
 20
2.578345
 40
0.250000
  1
Diego Vasconcelos
  7
TQS_CALIBRI
  0
TEXT
  8
1
  6
CONTINUOUS
 10
106.749019
 20
10.667284
 40
0.195000
  1
diego@vgfengenharia.com.br 
  7
TQS_CALIBRI
  0
TEXT
  8
1
  6
CONTINUOUS
 10
104.982892
 20
16.853163
 40
0.200000
  1
Emissão inicial.
  7
TQS_CALIBRI
  0
TEXT
  8
1
  6
CONTINUOUS
 10
101.795719
 20
7.825700
 40
0.250000
  1
Assembléia Legislativa de Alagoas
  7
TQS_CALIBRI
  0
TEXT
  8
1
  6
CONTINUOUS
 10
104.517953
 20
14.045361
 40
0.250000
  1
ALA
  7
TQS_CALIBRI
  0
TEXT
  8
1
  6
CONTINUOUS
 10
101.789281
 20
2.263237
 40
0.250000
  1
26/02/2024
  7
TQS_CALIBRI
  0
TEXT
  8
1
  6
CONTINUOUS
 10
102.992347
 20
16.854551
 40
0.200000
  1
26/02/24
  7
TQS_CALIBRI
  0
TEXT
  8
1
  6
CONTINUOUS
 10
101.787954
 20
7.415393
 40
0.200000
  1
RUA SÁ E ALBUQUERQUE, NÚMERO 807, JARAGUÁ - MACEIÓ-AL
  7
TQS_CALIBRI
  0
TEXT
  8
1
  6
CONTINUOUS
 10
101.789859
 20
1.251887
 40
0.250000
  1
PE
  7
TQS_CALIBRI
  0
TEXT
  8
1
  6
CONTINUOUS
 10
105.114178
 20
1.251887
 40
0.250000
  1
CLA-EEM-EST-PE-0435-ARM-R00
  7
TQS_CALIBRI
  0
TEXT
  8
1
  6
CONTINUOUS
 10
116.547332
 20
16.842370
 40
0.200000
  1
DIEGO
  7
TQS_CALIBRI
  0
TEXT
  8
1
  6
CONTINUOUS
 10
114.396264
 20
1.644018
 40
0.500000
  1
0435
  7
TQS_CALIBRI
  0
TEXT
  8
1
  6
CONTINUOUS
 10
116.689770
 20
1.647683
 40
0.500000
  1
00
  7
TQS_CALIBRI
  0
TEXT
  8
1
  6
CONTINUOUS
 10
110.802729
 20
10.513659
 40
0.400000
  1
ALA
  7
TQS_CALIBRI
  0
TEXT
  8
1
  6
CONTINUOUS
 10
101.762319
 20
5.951739
 40
0.250000
  1
ARM. PROTENSÃO HORIZONTAL (03-2Pavto) - 01 - J
  7
TQS_CALIBRI
  0
ENDSEC
  0
EOF
