  0
SECTION
  2
HEADER
  9
$ACADVER
  1
AC1002
  9
$USERI1
 70
0
  9
$INSBASE
 10
0.000000
 20
0.000000
  9
$EXTMIN
 10
0.000000
 20
0.000000
  9
$EXTMAX
 10
7.761771
 20
4.436620
  9
$LIMMIN
 10
0.000000
 20
0.000000
  9
$LIMMAX
 10
12.000000
 20
9.000000
  9
$VIEWCTR
 10
78.887138
 20
59.361758
  9
$VIEWSIZE
 40
127.522840
  9
$TEXTSIZE
 40
0.100000
  9
$TRACEWID
 40
0.010000
  9
$LTSCALE
 40
1.000000
  0
ENDSEC
  0
SECTION
  2
TABLES
  0
TABLE
  2
LTYPE
 70
     3
  0
LTYPE
  2
CONTINUOUS
 70
    64
  3
Solid line
 72
    65
 73
     0
 40
0.000000
  0
LTYPE
  2
ESTILO_TQS_0001
 70
    64
  3
-  -  -  -  -  -
 72
    65
 73
     2
 40
1.000000
 49
0.700000
 49
-0.300000
  0
LTYPE
  2
ESTILO_TQS_0002
 70
    64
  3
. . . . . . . .
 72
    65
 73
     2
 40
0.400000
 49
0.100000
 49
-0.300000
  0
LTYPE
  2
ESTILO_TQS_0003
 70
    64
  3
- . - . - . - .
 72
    65
 73
     4
 40
0.910000
 49
0.500000
 49
-0.200000
 49
0.010000
 49
-0.200000
  0
LTYPE
  2
ESTILO_TQS_0004
 70
    64
  3
- .. - .. - ..
 72
    65
 73
     6
 40
1.120000
 49
0.500000
 49
-0.200000
 49
0.010000
 49
-0.200000
 49
0.010000
 49
-0.200000
  0
LTYPE
  2
CONTINUOUS
 70
    64
  3
- - - - - - - -
 72
    65
 73
     2
 40
0.400000
 49
0.300000
 49
-0.100000
  0
ENDTAB
  0
TABLE
  2
LAYER
 70
    89
  0
LAYER
  2
0
 70
     0
 62
     7
  6
CONTINUOUS
  0
LAYER
  2
1
 70
     0
 62
     1
  6
CONTINUOUS
  0
LAYER
  2
2
 70
     0
 62
     2
  6
CONTINUOUS
  0
LAYER
  2
3
 70
     0
 62
     3
  6
CONTINUOUS
  0
LAYER
  2
4
 70
     0
 62
     4
  6
CONTINUOUS
  0
LAYER
  2
5
 70
     0
 62
     5
  6
CONTINUOUS
  0
LAYER
  2
6
 70
     0
 62
     6
  6
CONTINUOUS
  0
LAYER
  2
7
 70
     0
 62
     7
  6
CONTINUOUS
  0
LAYER
  2
8
 70
     0
 62
     8
  6
CONTINUOUS
  0
LAYER
  2
9
 70
     0
 62
     9
  6
CONTINUOUS
  0
LAYER
  2
10
 70
     0
 62
    10
  6
CONTINUOUS
  0
LAYER
  2
11
 70
     0
 62
    11
  6
CONTINUOUS
  0
LAYER
  2
12
 70
     0
 62
    12
  6
CONTINUOUS
  0
LAYER
  2
13
 70
     0
 62
    13
  6
CONTINUOUS
  0
LAYER
  2
14
 70
     0
 62
    14
  6
CONTINUOUS
  0
LAYER
  2
15
 70
     0
 62
    15
  6
CONTINUOUS
  0
LAYER
  2
16
 70
     0
 62
     7
  6
CONTINUOUS
  0
LAYER
  2
17
 70
     0
 62
     2
  6
CONTINUOUS
  0
LAYER
  2
18
 70
     0
 62
     4
  6
CONTINUOUS
  0
LAYER
  2
19
 70
     0
 62
     5
  6
CONTINUOUS
  0
LAYER
  2
20
 70
     0
 62
     4
  6
CONTINUOUS
  0
LAYER
  2
21
 70
     0
 62
     2
  6
CONTINUOUS
  0
LAYER
  2
22
 70
     0
 62
     1
  6
CONTINUOUS
  0
LAYER
  2
23
 70
     0
 62
     7
  6
CONTINUOUS
  0
LAYER
  2
24
 70
     0
 62
     6
  6
CONTINUOUS
  0
LAYER
  2
25
 70
     0
 62
     1
  6
CONTINUOUS
  0
LAYER
  2
26
 70
     0
 62
     3
  6
CONTINUOUS
  0
LAYER
  2
27
 70
     0
 62
     4
  6
CONTINUOUS
  0
LAYER
  2
28
 70
     0
 62
     4
  6
CONTINUOUS
  0
LAYER
  2
30
 70
     0
 62
     4
  6
CONTINUOUS
  0
LAYER
  2
100
 70
     0
 62
     1
  6
CONTINUOUS
  0
LAYER
  2
101
 70
     0
 62
     9
  6
CONTINUOUS
  0
LAYER
  2
102
 70
     0
 62
     7
  6
CONTINUOUS
  0
LAYER
  2
103
 70
     0
 62
     2
  6
CONTINUOUS
  0
LAYER
  2
104
 70
     0
 62
    11
  6
CONTINUOUS
  0
LAYER
  2
105
 70
     0
 62
     3
  6
CONTINUOUS
  0
LAYER
  2
106
 70
     0
 62
     5
  6
CONTINUOUS
  0
LAYER
  2
107
 70
     0
 62
     3
  6
CONTINUOUS
  0
LAYER
  2
108
 70
     0
 62
     5
  6
CONTINUOUS
  0
LAYER
  2
109
 70
     0
 62
     3
  6
CONTINUOUS
  0
LAYER
  2
197
 70
     0
 62
     3
  6
CONTINUOUS
  0
LAYER
  2
198
 70
     0
 62
     2
  6
CONTINUOUS
  0
LAYER
  2
199
 70
     0
 62
     6
  6
CONTINUOUS
  0
LAYER
  2
200
 70
     0
 62
     7
  6
ESTILO_TQS_0002
  0
LAYER
  2
201
 70
     0
 62
     7
  6
ESTILO_TQS_0001
  0
LAYER
  2
202
 70
     0
 62
     7
  6
CONTINUOUS
  0
LAYER
  2
203
 70
     0
 62
     7
  6
ESTILO_TQS_0001
  0
LAYER
  2
204
 70
     0
 62
     7
  6
ESTILO_TQS_0003
  0
LAYER
  2
205
 70
     0
 62
     5
  6
ESTILO_TQS_0004
  0
LAYER
  2
206
 70
     0
 62
    15
  6
CONTINUOUS
  0
LAYER
  2
207
 70
     0
 62
     2
  6
CONTINUOUS
  0
LAYER
  2
208
 70
     0
 62
     5
  6
CONTINUOUS
  0
LAYER
  2
210
 70
     0
 62
    15
  6
ESTILO_TQS_0002
  0
LAYER
  2
211
 70
     0
 62
     7
  6
ESTILO_TQS_0001
  0
LAYER
  2
214
 70
     0
 62
    15
  6
CONTINUOUS
  0
LAYER
  2
215
 70
     0
 62
     2
  6
CONTINUOUS
  0
LAYER
  2
216
 70
     0
 62
     3
  6
CONTINUOUS
  0
LAYER
  2
217
 70
     0
 62
     3
  6
CONTINUOUS
  0
LAYER
  2
218
 70
     0
 62
     2
  6
CONTINUOUS
  0
LAYER
  2
219
 70
     0
 62
    15
  6
CONTINUOUS
  0
LAYER
  2
220
 70
     0
 62
    10
  6
CONTINUOUS
  0
LAYER
  2
221
 70
     0
 62
    11
  6
CONTINUOUS
  0
LAYER
  2
222
 70
     0
 62
    12
  6
CONTINUOUS
  0
LAYER
  2
223
 70
     0
 62
     6
  6
CONTINUOUS
  0
LAYER
  2
224
 70
     0
 62
     1
  6
CONTINUOUS
  0
LAYER
  2
225
 70
     0
 62
    15
  6
CONTINUOUS
  0
LAYER
  2
226
 70
     0
 62
     2
  6
CONTINUOUS
  0
LAYER
  2
227
 70
     0
 62
    10
  6
CONTINUOUS
  0
LAYER
  2
228
 70
     0
 62
    11
  6
CONTINUOUS
  0
LAYER
  2
229
 70
     0
 62
    12
  6
CONTINUOUS
  0
LAYER
  2
230
 70
     0
 62
     6
  6
CONTINUOUS
  0
LAYER
  2
231
 70
     0
 62
     3
  6
CONTINUOUS
  0
LAYER
  2
232
 70
     0
 62
    12
  6
CONTINUOUS
  0
LAYER
  2
233
 70
     0
 62
     4
  6
CONTINUOUS
  0
LAYER
  2
234
 70
     0
 62
    13
  6
CONTINUOUS
  0
LAYER
  2
235
 70
     0
 62
     5
  6
CONTINUOUS
  0
LAYER
  2
236
 70
     0
 62
     2
  6
CONTINUOUS
  0
LAYER
  2
237
 70
     0
 62
     6
  6
CONTINUOUS
  0
LAYER
  2
238
 70
     0
 62
    12
  6
CONTINUOUS
  0
LAYER
  2
239
 70
     0
 62
    11
  6
CONTINUOUS
  0
LAYER
  2
240
 70
     0
 62
    11
  6
CONTINUOUS
  0
LAYER
  2
241
 70
     0
 62
    12
  6
CONTINUOUS
  0
ENDTAB
  0
TABLE
  2
STYLE
 70
     1
  0
STYLE
  2
STANDARD
 70
    64
 40
0.000000
 41
1.000000
 50
0.000000
 71
     0
 42
0.200000
  3
ROMANS.SHX
  4

  0
STYLE
  2
TQS_CALIBRI
 70
     0
 40
0.000000
 41
1.000000
 50
0.000000
 71
     0
 42
0.200000
  3
calibri.ttf
  0
STYLE
  2
TQS_CALIBRI_U
 70
     0
 40
0.000000
 41
1.000000
 50
0.000000
 71
     0
 42
0.200000
  3
calibri.ttf
  0
STYLE
  2
TQS_CALIBRI_I
 70
     0
 40
0.000000
 41
1.000000
 50
0.000000
 71
     0
 42
0.200000
  3
calibri.ttf
  0
STYLE
  2
TQS_CALIBRI_I_U
 70
     0
 40
0.000000
 41
1.000000
 50
0.000000
 71
     0
 42
0.200000
  3
calibri.ttf
  0
STYLE
  2
TQS_CALIBRI_B
 70
     0
 40
0.000000
 41
1.000000
 50
0.000000
 71
     0
 42
0.200000
  3
calibri.ttf
  0
STYLE
  2
TQS_CALIBRI_B_U
 70
     0
 40
0.000000
 41
1.000000
 50
0.000000
 71
     0
 42
0.200000
  3
calibri.ttf
  0
STYLE
  2
TQS_CALIBRI_B_I
 70
     0
 40
0.000000
 41
1.000000
 50
0.000000
 71
     0
 42
0.200000
  3
calibri.ttf
  0
STYLE
  2
TQS_CALIBRI_B_I_U
 70
     0
 40
0.000000
 41
1.000000
 50
0.000000
 71
     0
 42
0.200000
  3
calibri.ttf
  0
ENDTAB
  0
TABLE
  2
VIEW
 70
     0
  0
ENDTAB
  0
ENDSEC
  0
SECTION
  2
BLOCKS
  0
BLOCK
  8
0
  2
_PLWTQS
 70
    64
 10
0.000000
 20
0.000000
  0
TEXT
  8
0
  6
CONTINUOUS
 10
0.000000
 20
0.000000
 40
0.200000
  1
$PLWDWGGlBMVwAAAAAAAChABAAAAMHC82deG7a4TWoBHUHqWtcv6Bg3JIPQjrztgqoJlAPE3FwK8DAVmUH86r3NenaEBaSE41n2PGgUpQO/n+ccYoS75UwpQ0eBTvCl1brdNHw9gt1q/75/3PxxkKp+G9WzoCYWWnRsYJl56APHj+foFO8=
  7
TQS_CALIBRI
  0
TEXT
  8
0
  6
CONTINUOUS
 10
0.000000
 20
-0.250000
 40
0.200000
  1
$PLWDWGIrr/tPJxeLTfgirGL+aXjB4TfmIBbOjOh0jNHQ4kUYdT2NoPmrbFYt8Zq/IJDUcBt8J5UwVyb1qJuQSgrGP87BOpxXFiAsQWpGFsDYP6XneZ2X+Astb021Z5kGLIb9VzFIyr5aswdJy41UeSLCSmcvvmYUHtcDLpkB8HEIuPbpI=
  7
TQS_CALIBRI
  0
TEXT
  8
0
  6
CONTINUOUS
 10
0.000000
 20
-0.500000
 40
0.200000
  1
$PLWDWGLibzGoG2Tnvarb3Gn5OIF5G8QQ3hBQRitcaCSj0wxfx2xzwk3foUVjH/JrGcEpyPCRWfSFSa/YbpchuLYkUag186Ext7Xw6qANvCedZoA2wWfaj1ivlbQPQUA/UwF+2Fyp+ThlNJq9dC9pGC3rDr2SolgessBiqjTCU6wPOFkgA=
  7
TQS_CALIBRI
  0
TEXT
  8
0
  6
CONTINUOUS
 10
0.000000
 20
-0.750000
 40
0.200000
  1
$PLWDWGneCa5G+QNhcysESGBuTQSKo/NoYQozu3EicjCOwQEaBcELi45EU8H3Q8EKdCEP/FuE7Im7aFZ+wFIrXLslUOGziH0IX+6Xsv+R7/1XJwlFtevcIPyDMmilXA2Oa6mla6CbEbbrzo+DyvKWS34Ccp8Ul5CQzjgnpg2BdtIepyZ8g=
  7
TQS_CALIBRI
  0
TEXT
  8
0
  6
CONTINUOUS
 10
0.000000
 20
-1.000000
 40
0.200000
  1
$PLWDWGNBUpQA5iGu7sXKfTPH+xKyjEKFAljuxkO0zx4M8ravYrkwmKyVc99qDLf/CWqSnx6qn40XBjKEsaxyuocnHP58piwqti2kldEmaitSPk1gK7NbCkrQdn1LTkBpE53P9FyASDB1V4vRwm4thjY+QkVf59lY9A8Os8mL6IpyTbMV0=
  7
TQS_CALIBRI
  0
TEXT
  8
0
  6
CONTINUOUS
 10
0.000000
 20
-1.250000
 40
0.200000
  1
$PLWDWGPKNEeBX3EMdRqLsilswShKqzV59a5o1ye84O26adR4AfEFllv3KzMdjQrZuzMMqvpQ+UDcEog3rBwED7mrT5nj37dRHg7D8agy/I046WWoOPBkPARmQvF0srkMBX8x6ntrF8KZBM+7eh+Fg+FW7OprGSGv8h2orUxF/UiYxwLmY=
  7
TQS_CALIBRI
  0
TEXT
  8
0
  6
CONTINUOUS
 10
0.000000
 20
-1.500000
 40
0.200000
  1
$PLWDWGoaIUxbr+iONC4lezrET29vJNvo1GcJybN/CCj4d8mYuo/t+QxHhoh4lgzj7I06NOC31hDaBuDJzm9Wf2wLlBj+DLaoiYi+i7EPBeCfAPkxyTtXrWa6AkAT52tAjanP0zo+q5Cf43oo0xPN0ByAKGxxLatOwgM/W4/bEnSxwcaRs=
  7
TQS_CALIBRI
  0
TEXT
  8
0
  6
CONTINUOUS
 10
0.000000
 20
-1.750000
 40
0.200000
  1
$PLWDWGwPfW+im7bP2iH0evh1ZdonJWGLjpKIw1VUN1jrNHAi7WexCjyRIqdJIqu876hzA1msHNUkysCTcAAAAAyJOJIweRomDgo2wIjE2GFprBzVJMrAk3AAAAAA==
  7
TQS_CALIBRI
  0
ENDBLK
  8
0
  0
ENDSEC
  0
SECTION
  2
ENTITIES
  0
SOLID
  8
13
  6
CONTINUOUS
 10
102.095046
 20
10.244446
 11
102.095046
 21
9.498246
 12
101.971546
 22
9.498246
 13
101.971546
 23
9.498246
  0
SOLID
  8
13
  6
CONTINUOUS
 10
102.095046
 20
10.244446
 11
101.971546
 21
9.498246
 12
101.971546
 22
11.162246
 13
101.971546
 23
11.162246
  0
SOLID
  8
13
  6
CONTINUOUS
 10
102.095046
 20
10.244446
 11
101.971546
 21
11.162246
 12
102.095046
 22
11.162246
 13
102.095046
 23
11.162246
  0
SOLID
  8
13
  6
CONTINUOUS
 10
102.095046
 20
10.244446
 11
102.095046
 21
11.162246
 12
102.095046
 22
10.244446
 13
102.095046
 23
10.244446
  0
SOLID
  8
13
  6
CONTINUOUS
 10
102.522746
 20
10.230979
 11
102.522746
 21
9.498246
 12
102.095046
 22
9.498246
 13
102.095046
 23
9.498246
  0
SOLID
  8
13
  6
CONTINUOUS
 10
102.522746
 20
10.230979
 11
102.095046
 21
9.498246
 12
102.095046
 22
10.244446
 13
102.095046
 23
10.244446
  0
SOLID
  8
13
  6
CONTINUOUS
 10
102.522746
 20
10.230979
 11
102.095046
 21
10.244446
 12
102.143544
 22
10.248642
 13
102.143544
 23
10.248642
  0
SOLID
  8
13
  6
CONTINUOUS
 10
102.522746
 20
10.230979
 11
102.143544
 21
10.248642
 12
102.211078
 22
10.252071
 13
102.211078
 23
10.252071
  0
SOLID
  8
13
  6
CONTINUOUS
 10
102.522746
 20
10.230979
 11
102.211078
 21
10.252071
 12
102.259959
 22
10.252484
 13
102.259959
 23
10.252484
  0
SOLID
  8
13
  6
CONTINUOUS
 10
102.522746
 20
10.230979
 11
102.259959
 21
10.252484
 12
102.290321
 22
10.252141
 13
102.290321
 23
10.252141
  0
SOLID
  8
13
  6
CONTINUOUS
 10
102.522746
 20
10.230979
 11
102.290321
 21
10.252141
 12
102.334203
 22
10.250668
 13
102.334203
 23
10.250668
  0
SOLID
  8
13
  6
CONTINUOUS
 10
102.522746
 20
10.230979
 11
102.334203
 21
10.250668
 12
102.394518
 22
10.246747
 13
102.394518
 23
10.246747
  0
SOLID
  8
13
  6
CONTINUOUS
 10
102.522746
 20
10.230979
 11
102.394518
 21
10.246747
 12
102.446340
 22
10.241621
 13
102.446340
 23
10.241621
  0
SOLID
  8
13
  6
CONTINUOUS
 10
102.522746
 20
10.230979
 11
102.446340
 21
10.241621
 12
102.490083
 22
10.235974
 13
102.490083
 23
10.235974
  0
SOLID
  8
13
  6
CONTINUOUS
 10
102.522746
 20
10.230979
 11
102.490083
 21
10.235974
 12
102.522746
 22
10.230979
 13
102.522746
 23
10.230979
  0
SOLID
  8
13
  6
CONTINUOUS
 10
102.594246
 20
10.217654
 11
102.594246
 21
9.498246
 12
103.021946
 22
9.498246
 13
103.021946
 23
9.498246
  0
SOLID
  8
13
  6
CONTINUOUS
 10
102.594246
 20
10.217654
 11
103.021946
 21
9.498246
 12
103.021946
 22
10.064184
 13
103.021946
 23
10.064184
  0
SOLID
  8
13
  6
CONTINUOUS
 10
102.594246
 20
10.217654
 11
103.021946
 21
10.064184
 12
103.003898
 22
10.073542
 13
103.003898
 23
10.073542
  0
SOLID
  8
13
  6
CONTINUOUS
 10
102.594246
 20
10.217654
 11
103.003898
 21
10.073542
 12
102.981716
 22
10.084501
 13
102.981716
 23
10.084501
  0
SOLID
  8
13
  6
CONTINUOUS
 10
102.594246
 20
10.217654
 11
102.981716
 21
10.084501
 12
102.953307
 22
10.098271
 13
102.953307
 23
10.098271
  0
SOLID
  8
13
  6
CONTINUOUS
 10
102.594246
 20
10.217654
 11
102.953307
 21
10.098271
 12
102.912865
 22
10.116383
 13
102.912865
 23
10.116383
  0
SOLID
  8
13
  6
CONTINUOUS
 10
102.594246
 20
10.217654
 11
102.912865
 21
10.116383
 12
102.885024
 22
10.128001
 13
102.885024
 23
10.128001
  0
SOLID
  8
13
  6
CONTINUOUS
 10
102.594246
 20
10.217654
 11
102.885024
 21
10.128001
 12
102.844071
 22
10.144755
 13
102.844071
 23
10.144755
  0
SOLID
  8
13
  6
CONTINUOUS
 10
102.594246
 20
10.217654
 11
102.844071
 21
10.144755
 12
102.813490
 22
10.155923
 13
102.813490
 23
10.155923
  0
SOLID
  8
13
  6
CONTINUOUS
 10
102.594246
 20
10.217654
 11
102.813490
 21
10.155923
 12
102.778388
 22
10.168156
 13
102.778388
 23
10.168156
  0
SOLID
  8
13
  6
CONTINUOUS
 10
102.594246
 20
10.217654
 11
102.778388
 21
10.168156
 12
102.744083
 22
10.178793
 13
102.744083
 23
10.178793
  0
SOLID
  8
13
  6
CONTINUOUS
 10
102.594246
 20
10.217654
 11
102.744083
 21
10.178793
 12
102.703465
 22
10.191172
 13
102.703465
 23
10.191172
  0
SOLID
  8
13
  6
CONTINUOUS
 10
102.594246
 20
10.217654
 11
102.703465
 21
10.191172
 12
102.665141
 22
10.201162
 13
102.665141
 23
10.201162
  0
SOLID
  8
13
  6
CONTINUOUS
 10
102.594246
 20
10.217654
 11
102.665141
 21
10.201162
 12
102.624819
 22
10.210970
 13
102.624819
 23
10.210970
  0
SOLID
  8
13
  6
CONTINUOUS
 10
102.594246
 20
10.217654
 11
102.624819
 21
10.210970
 12
102.594246
 22
10.217654
 13
102.594246
 23
10.217654
  0
SOLID
  8
13
  6
CONTINUOUS
 10
103.093446
 20
10.024343
 11
103.093446
 21
9.498246
 12
103.521146
 22
9.498246
 13
103.521146
 23
9.498246
  0
SOLID
  8
13
  6
CONTINUOUS
 10
103.093446
 20
10.024343
 11
103.521146
 21
9.498246
 12
103.521146
 22
9.661030
 13
103.521146
 23
9.661030
  0
SOLID
  8
13
  6
CONTINUOUS
 10
103.093446
 20
10.024343
 11
103.521146
 21
9.661030
 12
103.507797
 22
9.676793
 13
103.507797
 23
9.676793
  0
SOLID
  8
13
  6
CONTINUOUS
 10
103.093446
 20
10.024343
 11
103.507797
 21
9.676793
 12
103.495964
 22
9.690528
 13
103.495964
 23
9.690528
  0
SOLID
  8
13
  6
CONTINUOUS
 10
103.093446
 20
10.024343
 11
103.495964
 21
9.690528
 12
103.473877
 22
9.715277
 13
103.473877
 23
9.715277
  0
SOLID
  8
13
  6
CONTINUOUS
 10
103.093446
 20
10.024343
 11
103.473877
 21
9.715277
 12
103.454164
 22
9.736530
 13
103.454164
 23
9.736530
  0
SOLID
  8
13
  6
CONTINUOUS
 10
103.093446
 20
10.024343
 11
103.454164
 21
9.736530
 12
103.434048
 22
9.757502
 13
103.434048
 23
9.757502
  0
SOLID
  8
13
  6
CONTINUOUS
 10
103.093446
 20
10.024343
 11
103.434048
 21
9.757502
 12
103.410015
 22
9.781535
 13
103.410015
 23
9.781535
  0
SOLID
  8
13
  6
CONTINUOUS
 10
103.093446
 20
10.024343
 11
103.410015
 21
9.781535
 12
103.399294
 22
9.791943
 13
103.399294
 23
9.791943
  0
SOLID
  8
13
  6
CONTINUOUS
 10
103.093446
 20
10.024343
 11
103.399294
 21
9.791943
 12
103.388429
 22
9.802406
 13
103.388429
 23
9.802406
  0
SOLID
  8
13
  6
CONTINUOUS
 10
103.093446
 20
10.024343
 11
103.388429
 21
9.802406
 12
103.359952
 22
9.828752
 13
103.359952
 23
9.828752
  0
SOLID
  8
13
  6
CONTINUOUS
 10
103.093446
 20
10.024343
 11
103.359952
 21
9.828752
 12
103.325139
 22
9.859181
 13
103.325139
 23
9.859181
  0
SOLID
  8
13
  6
CONTINUOUS
 10
103.093446
 20
10.024343
 11
103.325139
 21
9.859181
 12
103.286846
 22
9.890826
 13
103.286846
 23
9.890826
  0
SOLID
  8
13
  6
CONTINUOUS
 10
103.093446
 20
10.024343
 11
103.286846
 21
9.890826
 12
103.251036
 22
9.918745
 13
103.251036
 23
9.918745
  0
SOLID
  8
13
  6
CONTINUOUS
 10
103.093446
 20
10.024343
 11
103.251036
 21
9.918745
 12
103.200839
 22
9.955427
 13
103.200839
 23
9.955427
  0
SOLID
  8
13
  6
CONTINUOUS
 10
103.093446
 20
10.024343
 11
103.200839
 21
9.955427
 12
103.134352
 22
9.999676
 13
103.134352
 23
9.999676
  0
SOLID
  8
13
  6
CONTINUOUS
 10
103.093446
 20
10.024343
 11
103.134352
 21
9.999676
 12
103.093446
 22
10.024343
 13
103.093446
 23
10.024343
  0
SOLID
  8
13
  6
CONTINUOUS
 10
102.522746
 20
10.635283
 11
102.522746
 21
11.162246
 12
102.095046
 22
11.162246
 13
102.095046
 23
11.162246
  0
SOLID
  8
13
  6
CONTINUOUS
 10
102.522746
 20
10.635283
 11
102.095046
 21
11.162246
 12
102.095046
 22
10.995122
 13
102.095046
 23
10.995122
  0
SOLID
  8
13
  6
CONTINUOUS
 10
102.522746
 20
10.635283
 11
102.095046
 21
10.995122
 12
102.153689
 22
10.929235
 13
102.153689
 23
10.929235
  0
SOLID
  8
13
  6
CONTINUOUS
 10
102.522746
 20
10.635283
 11
102.153689
 21
10.929235
 12
102.237359
 22
10.846559
 13
102.237359
 23
10.846559
  0
SOLID
  8
13
  6
CONTINUOUS
 10
102.522746
 20
10.635283
 11
102.237359
 21
10.846559
 12
102.308389
 22
10.784730
 13
102.308389
 23
10.784730
  0
SOLID
  8
13
  6
CONTINUOUS
 10
102.522746
 20
10.635283
 11
102.308389
 21
10.784730
 12
102.366624
 22
10.739274
 13
102.366624
 23
10.739274
  0
SOLID
  8
13
  6
CONTINUOUS
 10
102.522746
 20
10.635283
 11
102.366624
 21
10.739274
 12
102.406322
 22
10.710064
 13
102.406322
 23
10.710064
  0
SOLID
  8
13
  6
CONTINUOUS
 10
102.522746
 20
10.635283
 11
102.406322
 21
10.710064
 12
102.455827
 22
10.676682
 13
102.455827
 23
10.676682
  0
SOLID
  8
13
  6
CONTINUOUS
 10
102.522746
 20
10.635283
 11
102.455827
 21
10.676682
 12
102.493954
 22
10.652515
 13
102.493954
 23
10.652515
  0
SOLID
  8
13
  6
CONTINUOUS
 10
102.522746
 20
10.635283
 11
102.493954
 21
10.652515
 12
102.522746
 22
10.635283
 13
102.522746
 23
10.635283
  0
SOLID
  8
13
  6
CONTINUOUS
 10
103.021946
 20
10.443678
 11
103.021946
 21
11.162246
 12
102.594246
 22
11.162246
 13
102.594246
 23
11.162246
  0
SOLID
  8
13
  6
CONTINUOUS
 10
103.021946
 20
10.443678
 11
102.594246
 21
11.162246
 12
102.594246
 22
10.595859
 13
102.594246
 23
10.595859
  0
SOLID
  8
13
  6
CONTINUOUS
 10
103.021946
 20
10.443678
 11
102.594246
 21
10.595859
 12
102.663800
 22
10.561766
 13
102.663800
 23
10.561766
  0
SOLID
  8
13
  6
CONTINUOUS
 10
103.021946
 20
10.443678
 11
102.663800
 21
10.561766
 12
102.744359
 22
10.527375
 13
102.744359
 23
10.527375
  0
SOLID
  8
13
  6
CONTINUOUS
 10
103.021946
 20
10.443678
 11
102.744359
 21
10.527375
 12
102.812197
 22
10.501464
 13
102.812197
 23
10.501464
  0
SOLID
  8
13
  6
CONTINUOUS
 10
103.021946
 20
10.443678
 11
102.812197
 21
10.501464
 12
102.889458
 22
10.476967
 13
102.889458
 23
10.476967
  0
SOLID
  8
13
  6
CONTINUOUS
 10
103.021946
 20
10.443678
 11
102.889458
 21
10.476967
 12
102.950702
 22
10.460007
 13
102.950702
 23
10.460007
  0
SOLID
  8
13
  6
CONTINUOUS
 10
103.021946
 20
10.443678
 11
102.950702
 21
10.460007
 12
103.021946
 22
10.443678
 13
103.021946
 23
10.443678
  0
SOLID
  8
13
  6
CONTINUOUS
 10
103.093446
 20
10.430307
 11
103.093446
 21
11.162246
 12
103.521146
 22
11.162246
 13
103.521146
 23
11.162246
  0
SOLID
  8
13
  6
CONTINUOUS
 10
103.093446
 20
10.430307
 11
103.521146
 21
11.162246
 12
103.521146
 22
10.417580
 13
103.521146
 23
10.417580
  0
SOLID
  8
13
  6
CONTINUOUS
 10
103.093446
 20
10.430307
 11
103.521146
 21
10.417580
 12
103.476372
 22
10.413637
 13
103.476372
 23
10.413637
  0
SOLID
  8
13
  6
CONTINUOUS
 10
103.093446
 20
10.430307
 11
103.476372
 21
10.413637
 12
103.416577
 22
10.410480
 13
103.416577
 23
10.410480
  0
SOLID
  8
13
  6
CONTINUOUS
 10
103.093446
 20
10.430307
 11
103.416577
 21
10.410480
 12
103.366788
 22
10.409453
 13
103.366788
 23
10.409453
  0
SOLID
  8
13
  6
CONTINUOUS
 10
103.093446
 20
10.430307
 11
103.366788
 21
10.409453
 12
103.336830
 22
10.409453
 13
103.336830
 23
10.409453
  0
SOLID
  8
13
  6
CONTINUOUS
 10
103.093446
 20
10.430307
 11
103.336830
 21
10.409453
 12
103.286182
 22
10.410821
 13
103.286182
 23
10.410821
  0
SOLID
  8
13
  6
CONTINUOUS
 10
103.093446
 20
10.430307
 11
103.286182
 21
10.410821
 12
103.241261
 22
10.413321
 13
103.241261
 23
10.413321
  0
SOLID
  8
13
  6
CONTINUOUS
 10
103.093446
 20
10.430307
 11
103.241261
 21
10.413321
 12
103.205545
 22
10.416539
 13
103.205545
 23
10.416539
  0
SOLID
  8
13
  6
CONTINUOUS
 10
103.093446
 20
10.430307
 11
103.205545
 21
10.416539
 12
103.155349
 22
10.421044
 13
103.155349
 23
10.421044
  0
SOLID
  8
13
  6
CONTINUOUS
 10
103.093446
 20
10.430307
 11
103.155349
 21
10.421044
 12
103.093446
 22
10.430307
 13
103.093446
 23
10.430307
  0
SOLID
  8
13
  6
CONTINUOUS
 10
102.594246
 20
9.498246
 11
102.594246
 21
11.162246
 12
102.522746
 22
11.162246
 13
102.522746
 23
11.162246
  0
SOLID
  8
13
  6
CONTINUOUS
 10
102.594246
 20
9.498246
 11
102.522746
 21
11.162246
 12
102.522746
 22
9.498246
 13
102.522746
 23
9.498246
  0
SOLID
  8
13
  6
CONTINUOUS
 10
102.594246
 20
9.498246
 11
102.522746
 21
9.498246
 12
102.522746
 22
9.498246
 13
102.522746
 23
9.498246
  0
SOLID
  8
13
  6
CONTINUOUS
 10
103.021946
 20
11.162246
 11
103.093446
 21
11.162246
 12
103.093446
 22
9.498246
 13
103.093446
 23
9.498246
  0
SOLID
  8
13
  6
CONTINUOUS
 10
103.021946
 20
11.162246
 11
103.093446
 21
9.498246
 12
103.021946
 22
9.498246
 13
103.021946
 23
9.498246
  0
SOLID
  8
13
  6
CONTINUOUS
 10
103.021946
 20
11.162246
 11
103.021946
 21
9.498246
 12
103.021946
 22
11.162246
 13
103.021946
 23
11.162246
  0
SOLID
  8
13
  6
CONTINUOUS
 10
103.521146
 20
9.498246
 11
103.635546
 21
9.498246
 12
103.635546
 22
11.162246
 13
103.635546
 23
11.162246
  0
SOLID
  8
13
  6
CONTINUOUS
 10
103.521146
 20
9.498246
 11
103.635546
 21
11.162246
 12
103.521146
 22
11.162246
 13
103.521146
 23
11.162246
  0
SOLID
  8
13
  6
CONTINUOUS
 10
103.521146
 20
9.498246
 11
103.521146
 21
11.162246
 12
103.521146
 22
9.498246
 13
103.521146
 23
9.498246
  0
POLYLINE
  8
1
  6
CONTINUOUS
 66
     1
  0
VERTEX
  8
1
  6
CONTINUOUS
 10
97.834554
 20
48.817943
  0
VERTEX
  8
1
  6
CONTINUOUS
 10
99.159820
 20
48.705780
  0
SEQEND
  8
1
  6
CONTINUOUS
  0
POLYLINE
  8
1
  6
CONTINUOUS
 66
     1
  0
VERTEX
  8
1
  6
CONTINUOUS
 10
99.201986
 20
49.203998
  0
VERTEX
  8
1
  6
CONTINUOUS
 10
97.876636
 20
49.316168
  0
SEQEND
  8
1
  6
CONTINUOUS
  0
POLYLINE
  8
1
  6
CONTINUOUS
 66
     1
  0
VERTEX
  8
1
  6
CONTINUOUS
 10
88.003187
 20
49.650013
  0
VERTEX
  8
1
  6
CONTINUOUS
 10
96.672043
 20
48.916331
  0
SEQEND
  8
1
  6
CONTINUOUS
  0
POLYLINE
  8
1
  6
CONTINUOUS
 66
     1
  0
VERTEX
  8
1
  6
CONTINUOUS
 10
96.714126
 20
49.414557
  0
VERTEX
  8
1
  6
CONTINUOUS
 10
88.045270
 20
50.148239
  0
SEQEND
  8
1
  6
CONTINUOUS
  0
POLYLINE
  8
1
  6
CONTINUOUS
 66
     1
  0
VERTEX
  8
1
  6
CONTINUOUS
 10
77.208446
 20
50.563618
  0
VERTEX
  8
1
  6
CONTINUOUS
 10
87.504969
 20
49.692180
  0
SEQEND
  8
1
  6
CONTINUOUS
  0
POLYLINE
  8
1
  6
CONTINUOUS
 66
     1
  0
VERTEX
  8
1
  6
CONTINUOUS
 10
87.547051
 20
50.190405
  0
VERTEX
  8
1
  6
CONTINUOUS
 10
77.250529
 20
51.061844
  0
SEQEND
  8
1
  6
CONTINUOUS
  0
POLYLINE
  8
1
  6
CONTINUOUS
 66
     1
  0
VERTEX
  8
1
  6
CONTINUOUS
 10
68.074435
 20
51.336669
  0
VERTEX
  8
1
  6
CONTINUOUS
 10
76.710228
 20
50.605785
  0
SEQEND
  8
1
  6
CONTINUOUS
  0
POLYLINE
  8
1
  6
CONTINUOUS
 66
     1
  0
VERTEX
  8
1
  6
CONTINUOUS
 10
76.752310
 20
51.104011
  0
VERTEX
  8
1
  6
CONTINUOUS
 10
68.116517
 20
51.834895
  0
SEQEND
  8
1
  6
CONTINUOUS
  0
POLYLINE
  8
1
  6
CONTINUOUS
 66
     1
  0
VERTEX
  8
1
  6
CONTINUOUS
 10
60.145680
 20
52.007713
  0
VERTEX
  8
1
  6
CONTINUOUS
 10
67.576216
 20
51.378835
  0
SEQEND
  8
1
  6
CONTINUOUS
  0
POLYLINE
  8
1
  6
CONTINUOUS
 66
     1
  0
VERTEX
  8
1
  6
CONTINUOUS
 10
67.618298
 20
51.877061
  0
VERTEX
  8
1
  6
CONTINUOUS
 10
60.187763
 20
52.505939
  0
SEQEND
  8
1
  6
CONTINUOUS
  0
POLYLINE
  8
1
  6
CONTINUOUS
 66
     1
  0
VERTEX
  8
1
  6
CONTINUOUS
 10
51.467141
 20
52.742215
  0
VERTEX
  8
1
  6
CONTINUOUS
 10
58.983170
 20
52.106101
  0
SEQEND
  8
1
  6
CONTINUOUS
  0
POLYLINE
  8
1
  6
CONTINUOUS
 66
     1
  0
VERTEX
  8
1
  6
CONTINUOUS
 10
59.025252
 20
52.604327
  0
VERTEX
  8
1
  6
CONTINUOUS
 10
51.509223
 20
53.240441
  0
SEQEND
  8
1
  6
CONTINUOUS
  0
POLYLINE
  8
1
  6
CONTINUOUS
 66
     1
  0
VERTEX
  8
1
  6
CONTINUOUS
 10
44.824223
 20
53.304434
  0
VERTEX
  8
1
  6
CONTINUOUS
 10
50.968922
 20
52.784382
  0
SEQEND
  8
1
  6
CONTINUOUS
  0
POLYLINE
  8
1
  6
CONTINUOUS
 66
     1
  0
VERTEX
  8
1
  6
CONTINUOUS
 10
51.011004
 20
53.282607
  0
VERTEX
  8
1
  6
CONTINUOUS
 10
44.866306
 20
53.802660
  0
SEQEND
  8
1
  6
CONTINUOUS
  0
POLYLINE
  8
1
  6
CONTINUOUS
 66
     1
  0
VERTEX
  8
1
  6
CONTINUOUS
 10
36.623127
 20
53.998528
  0
VERTEX
  8
1
  6
CONTINUOUS
 10
44.326005
 20
53.346600
  0
SEQEND
  8
1
  6
CONTINUOUS
  0
POLYLINE
  8
1
  6
CONTINUOUS
 66
     1
  0
VERTEX
  8
1
  6
CONTINUOUS
 10
44.368087
 20
53.844826
  0
VERTEX
  8
1
  6
CONTINUOUS
 10
36.665210
 20
54.496753
  0
SEQEND
  8
1
  6
CONTINUOUS
  0
POLYLINE
  8
1
  6
CONTINUOUS
 66
     1
  0
VERTEX
  8
1
  6
CONTINUOUS
 10
27.156970
 20
54.799689
  0
VERTEX
  8
1
  6
CONTINUOUS
 10
35.460617
 20
54.096916
  0
SEQEND
  8
1
  6
CONTINUOUS
  0
POLYLINE
  8
1
  6
CONTINUOUS
 66
     1
  0
VERTEX
  8
1
  6
CONTINUOUS
 10
35.502699
 20
54.595142
  0
VERTEX
  8
1
  6
CONTINUOUS
 10
27.199052
 20
55.297915
  0
SEQEND
  8
1
  6
CONTINUOUS
  0
POLYLINE
  8
1
  6
CONTINUOUS
 66
     1
  0
VERTEX
  8
1
  6
CONTINUOUS
 10
17.572274
 20
55.610883
  0
VERTEX
  8
1
  6
CONTINUOUS
 10
26.658751
 20
54.841855
  0
SEQEND
  8
1
  6
CONTINUOUS
  0
POLYLINE
  8
1
  6
CONTINUOUS
 66
     1
  0
VERTEX
  8
1
  6
CONTINUOUS
 10
26.700833
 20
55.340081
  0
VERTEX
  8
1
  6
CONTINUOUS
 10
17.614357
 20
56.109109
  0
SEQEND
  8
1
  6
CONTINUOUS
  0
POLYLINE
  8
1
  6
CONTINUOUS
 66
     1
  0
VERTEX
  8
1
  6
CONTINUOUS
 10
8.770408
 20
56.355822
  0
VERTEX
  8
1
  6
CONTINUOUS
 10
17.074055
 20
55.653049
  0
SEQEND
  8
1
  6
CONTINUOUS
  0
POLYLINE
  8
1
  6
CONTINUOUS
 66
     1
  0
VERTEX
  8
1
  6
CONTINUOUS
 10
17.116138
 20
56.151275
  0
VERTEX
  8
1
  6
CONTINUOUS
 10
8.812491
 20
56.854048
  0
SEQEND
  8
1
  6
CONTINUOUS
  0
POLYLINE
  8
1
  6
CONTINUOUS
 66
     1
  0
VERTEX
  8
1
  6
CONTINUOUS
 10
6.530508
 20
56.545395
  0
VERTEX
  8
1
  6
CONTINUOUS
 10
7.607898
 20
56.454211
  0
SEQEND
  8
1
  6
CONTINUOUS
  0
POLYLINE
  8
1
  6
CONTINUOUS
 66
     1
  0
VERTEX
  8
1
  6
CONTINUOUS
 10
7.649980
 20
56.952437
  0
VERTEX
  8
1
  6
CONTINUOUS
 10
6.031589
 20
57.089408
  0
SEQEND
  8
1
  6
CONTINUOUS
  0
POLYLINE
  8
1
  6
CONTINUOUS
 66
     1
  0
VERTEX
  8
1
  6
CONTINUOUS
 10
99.159820
 20
48.705780
  0
VERTEX
  8
1
  6
CONTINUOUS
 10
99.201986
 20
49.203998
  0
SEQEND
  8
1
  6
CONTINUOUS
  0
POLYLINE
  8
1
  6
CONTINUOUS
 66
     1
  0
VERTEX
  8
1
  6
CONTINUOUS
 10
94.242679
 20
6.385973
  0
VERTEX
  8
1
  6
CONTINUOUS
 10
95.567886
 20
6.273782
  0
SEQEND
  8
1
  6
CONTINUOUS
  0
POLYLINE
  8
1
  6
CONTINUOUS
 66
     1
  0
VERTEX
  8
1
  6
CONTINUOUS
 10
95.610065
 20
6.772000
  0
VERTEX
  8
1
  6
CONTINUOUS
 10
94.284857
 20
6.884191
  0
SEQEND
  8
1
  6
CONTINUOUS
  0
POLYLINE
  8
1
  6
CONTINUOUS
 66
     1
  0
VERTEX
  8
1
  6
CONTINUOUS
 10
81.346513
 20
7.477755
  0
VERTEX
  8
1
  6
CONTINUOUS
 10
93.744461
 20
6.428152
  0
SEQEND
  8
1
  6
CONTINUOUS
  0
POLYLINE
  8
1
  6
CONTINUOUS
 66
     1
  0
VERTEX
  8
1
  6
CONTINUOUS
 10
93.786639
 20
6.926370
  0
VERTEX
  8
1
  6
CONTINUOUS
 10
81.388691
 20
7.975973
  0
SEQEND
  8
1
  6
CONTINUOUS
  0
POLYLINE
  8
1
  6
CONTINUOUS
 66
     1
  0
VERTEX
  8
1
  6
CONTINUOUS
 10
71.382158
 20
8.321332
  0
VERTEX
  8
1
  6
CONTINUOUS
 10
80.848295
 20
7.519934
  0
SEQEND
  8
1
  6
CONTINUOUS
  0
POLYLINE
  8
1
  6
CONTINUOUS
 66
     1
  0
VERTEX
  8
1
  6
CONTINUOUS
 10
80.890473
 20
8.018152
  0
VERTEX
  8
1
  6
CONTINUOUS
 10
71.424336
 20
8.819550
  0
SEQEND
  8
1
  6
CONTINUOUS
  0
POLYLINE
  8
1
  6
CONTINUOUS
 66
     1
  0
VERTEX
  8
1
  6
CONTINUOUS
 10
61.323603
 20
9.172884
  0
VERTEX
  8
1
  6
CONTINUOUS
 10
70.883940
 20
8.363511
  0
SEQEND
  8
1
  6
CONTINUOUS
  0
POLYLINE
  8
1
  6
CONTINUOUS
 66
     1
  0
VERTEX
  8
1
  6
CONTINUOUS
 10
70.926118
 20
8.861729
  0
VERTEX
  8
1
  6
CONTINUOUS
 10
61.365773
 20
9.671102
  0
SEQEND
  8
1
  6
CONTINUOUS
  0
POLYLINE
  8
1
  6
CONTINUOUS
 66
     1
  0
VERTEX
  8
1
  6
CONTINUOUS
 10
60.792182
 20
9.217874
  0
VERTEX
  8
1
  6
CONTINUOUS
 10
60.825385
 20
9.215063
  0
SEQEND
  8
1
  6
CONTINUOUS
  0
POLYLINE
  8
1
  6
CONTINUOUS
 66
     1
  0
VERTEX
  8
1
  6
CONTINUOUS
 10
60.867555
 20
9.713281
  0
VERTEX
  8
1
  6
CONTINUOUS
 10
60.834351
 20
9.716092
  0
SEQEND
  8
1
  6
CONTINUOUS
  0
POLYLINE
  8
1
  6
CONTINUOUS
 66
     1
  0
VERTEX
  8
1
  6
CONTINUOUS
 10
50.927372
 20
10.053023
  0
VERTEX
  8
1
  6
CONTINUOUS
 10
60.293964
 20
9.260052
  0
SEQEND
  8
1
  6
CONTINUOUS
  0
POLYLINE
  8
1
  6
CONTINUOUS
 66
     1
  0
VERTEX
  8
1
  6
CONTINUOUS
 10
60.336133
 20
9.758271
  0
VERTEX
  8
1
  6
CONTINUOUS
 10
50.969542
 20
10.551241
  0
SEQEND
  8
1
  6
CONTINUOUS
  0
POLYLINE
  8
1
  6
CONTINUOUS
 66
     1
  0
VERTEX
  8
1
  6
CONTINUOUS
 10
41.220633
 20
10.874790
  0
VERTEX
  8
1
  6
CONTINUOUS
 10
50.097009
 20
10.123321
  0
SEQEND
  8
1
  6
CONTINUOUS
  0
POLYLINE
  8
1
  6
CONTINUOUS
 66
     1
  0
VERTEX
  8
1
  6
CONTINUOUS
 10
50.139179
 20
10.621540
  0
VERTEX
  8
1
  6
CONTINUOUS
 10
41.262803
 20
11.373009
  0
SEQEND
  8
1
  6
CONTINUOUS
  0
POLYLINE
  8
1
  6
CONTINUOUS
 66
     1
  0
VERTEX
  8
1
  6
CONTINUOUS
 10
95.567886
 20
6.273782
  0
VERTEX
  8
1
  6
CONTINUOUS
 10
95.610065
 20
6.772000
  0
SEQEND
  8
1
  6
CONTINUOUS
  0
POLYLINE
  8
1
  6
CONTINUOUS
 66
     1
  0
VERTEX
  8
1
  6
CONTINUOUS
 10
30.967174
 20
12.278085
  0
VERTEX
  8
1
  6
CONTINUOUS
 10
39.903819
 20
11.521514
  0
SEQEND
  8
1
  6
CONTINUOUS
  0
POLYLINE
  8
1
  6
CONTINUOUS
 66
     1
  0
VERTEX
  8
1
  6
CONTINUOUS
 10
39.943177
 20
11.986518
  0
VERTEX
  8
1
  6
CONTINUOUS
 10
31.006532
 20
12.743089
  0
SEQEND
  8
1
  6
CONTINUOUS
  0
POLYLINE
  8
1
  6
CONTINUOUS
 66
     1
  0
VERTEX
  8
1
  6
CONTINUOUS
 10
21.635833
 20
13.068071
  0
VERTEX
  8
1
  6
CONTINUOUS
 10
30.468956
 20
12.320264
  0
SEQEND
  8
1
  6
CONTINUOUS
  0
POLYLINE
  8
1
  6
CONTINUOUS
 66
     1
  0
VERTEX
  8
1
  6
CONTINUOUS
 10
30.508314
 20
12.785268
  0
VERTEX
  8
1
  6
CONTINUOUS
 10
21.675191
 20
13.533075
  0
SEQEND
  8
1
  6
CONTINUOUS
  0
POLYLINE
  8
1
  6
CONTINUOUS
 66
     1
  0
VERTEX
  8
1
  6
CONTINUOUS
 10
14.121048
 20
13.704269
  0
VERTEX
  8
1
  6
CONTINUOUS
 10
21.137615
 20
13.110250
  0
SEQEND
  8
1
  6
CONTINUOUS
  0
POLYLINE
  8
1
  6
CONTINUOUS
 66
     1
  0
VERTEX
  8
1
  6
CONTINUOUS
 10
21.176973
 20
13.575254
  0
VERTEX
  8
1
  6
CONTINUOUS
 10
14.160406
 20
14.169273
  0
SEQEND
  8
1
  6
CONTINUOUS
  0
POLYLINE
  8
1
  6
CONTINUOUS
 66
     1
  0
VERTEX
  8
1
  6
CONTINUOUS
 10
6.478567
 20
14.351277
  0
VERTEX
  8
1
  6
CONTINUOUS
 10
13.622830
 20
13.746447
  0
SEQEND
  8
1
  6
CONTINUOUS
  0
POLYLINE
  8
1
  6
CONTINUOUS
 66
     1
  0
VERTEX
  8
1
  6
CONTINUOUS
 10
13.662188
 20
14.211451
  0
VERTEX
  8
1
  6
CONTINUOUS
 10
6.946072
 20
14.780034
  0
SEQEND
  8
1
  6
CONTINUOUS
  0
POLYLINE
  8
1
  6
CONTINUOUS
 66
     1
  0
VERTEX
  8
1
  6
CONTINUOUS
 10
6.480054
 20
15.112004
  0
VERTEX
  8
1
  6
CONTINUOUS
 10
6.478567
 20
14.351277
  0
SEQEND
  8
1
  6
CONTINUOUS
  0
POLYLINE
  8
1
  6
CONTINUOUS
 66
     1
  0
VERTEX
  8
1
  6
CONTINUOUS
 10
6.946072
 20
14.780034
  0
VERTEX
  8
1
  6
CONTINUOUS
 10
6.946719
 20
15.111092
  0
SEQEND
  8
1
  6
CONTINUOUS
  0
POLYLINE
  8
1
  6
CONTINUOUS
 66
     1
  0
VERTEX
  8
1
  6
CONTINUOUS
 10
6.497999
 20
24.292458
  0
VERTEX
  8
1
  6
CONTINUOUS
 10
6.481031
 20
15.612003
  0
SEQEND
  8
1
  6
CONTINUOUS
  0
POLYLINE
  8
1
  6
CONTINUOUS
 66
     1
  0
VERTEX
  8
1
  6
CONTINUOUS
 10
6.947697
 20
15.611091
  0
VERTEX
  8
1
  6
CONTINUOUS
 10
6.964665
 20
24.291546
  0
SEQEND
  8
1
  6
CONTINUOUS
  0
POLYLINE
  8
1
  6
CONTINUOUS
 66
     1
  0
VERTEX
  8
1
  6
CONTINUOUS
 10
5.987074
 20
34.693477
  0
VERTEX
  8
1
  6
CONTINUOUS
 10
5.968457
 20
25.326829
  0
SEQEND
  8
1
  6
CONTINUOUS
  0
POLYLINE
  8
1
  6
CONTINUOUS
 66
     1
  0
VERTEX
  8
1
  6
CONTINUOUS
 10
6.468456
 20
25.325851
  0
VERTEX
  8
1
  6
CONTINUOUS
 10
6.487073
 20
34.692499
  0
SEQEND
  8
1
  6
CONTINUOUS
  0
POLYLINE
  8
1
  6
CONTINUOUS
 66
     1
  0
VERTEX
  8
1
  6
CONTINUOUS
 10
6.002578
 20
42.493461
  0
VERTEX
  8
1
  6
CONTINUOUS
 10
5.988068
 20
35.193476
  0
SEQEND
  8
1
  6
CONTINUOUS
  0
POLYLINE
  8
1
  6
CONTINUOUS
 66
     1
  0
VERTEX
  8
1
  6
CONTINUOUS
 10
6.488067
 20
35.192498
  0
VERTEX
  8
1
  6
CONTINUOUS
 10
6.502577
 20
42.492484
  0
SEQEND
  8
1
  6
CONTINUOUS
  0
POLYLINE
  8
1
  6
CONTINUOUS
 66
     1
  0
VERTEX
  8
1
  6
CONTINUOUS
 10
6.024470
 20
53.508043
  0
VERTEX
  8
1
  6
CONTINUOUS
 10
6.003571
 20
42.993460
  0
SEQEND
  8
1
  6
CONTINUOUS
  0
POLYLINE
  8
1
  6
CONTINUOUS
 66
     1
  0
VERTEX
  8
1
  6
CONTINUOUS
 10
6.503570
 20
42.992483
  0
VERTEX
  8
1
  6
CONTINUOUS
 10
6.524096
 20
53.319155
  0
SEQEND
  8
1
  6
CONTINUOUS
  0
POLYLINE
  8
1
  6
CONTINUOUS
 66
     1
  0
VERTEX
  8
1
  6
CONTINUOUS
 10
6.027257
 20
54.910104
  0
VERTEX
  8
1
  6
CONTINUOUS
 10
6.024470
 20
53.508043
  0
SEQEND
  8
1
  6
CONTINUOUS
  0
POLYLINE
  8
1
  6
CONTINUOUS
 66
     1
  0
VERTEX
  8
1
  6
CONTINUOUS
 10
6.524761
 20
53.653624
  0
VERTEX
  8
1
  6
CONTINUOUS
 10
6.527256
 20
54.909126
  0
SEQEND
  8
1
  6
CONTINUOUS
  0
POLYLINE
  8
1
  6
CONTINUOUS
 66
     1
  0
VERTEX
  8
1
  6
CONTINUOUS
 10
6.031589
 20
57.089408
  0
VERTEX
  8
1
  6
CONTINUOUS
 10
6.028251
 20
55.410103
  0
SEQEND
  8
1
  6
CONTINUOUS
  0
POLYLINE
  8
1
  6
CONTINUOUS
 66
     1
  0
VERTEX
  8
1
  6
CONTINUOUS
 10
6.528250
 20
55.409125
  0
VERTEX
  8
1
  6
CONTINUOUS
 10
6.530508
 20
56.545395
  0
SEQEND
  8
1
  6
CONTINUOUS
  0
POLYLINE
  8
1
  6
ESTILO_TQS_0001
 66
     1
  0
VERTEX
  8
1
  6
ESTILO_TQS_0001
 10
59.044716
 20
48.873795
  0
VERTEX
  8
1
  6
ESTILO_TQS_0001
 10
98.888541
 20
45.501402
  0
SEQEND
  8
1
  6
ESTILO_TQS_0001
  0
POLYLINE
  8
1
  6
ESTILO_TQS_0001
 66
     1
  0
VERTEX
  8
1
  6
ESTILO_TQS_0001
 10
98.916654
 20
45.833548
  0
VERTEX
  8
1
  6
ESTILO_TQS_0001
 10
59.072829
 20
49.205941
  0
SEQEND
  8
1
  6
ESTILO_TQS_0001
  0
POLYLINE
  8
1
  6
ESTILO_TQS_0001
 66
     1
  0
VERTEX
  8
1
  6
ESTILO_TQS_0001
 10
47.697996
 20
49.834185
  0
VERTEX
  8
1
  6
ESTILO_TQS_0001
 10
58.712570
 20
48.901908
  0
SEQEND
  8
1
  6
ESTILO_TQS_0001
  0
POLYLINE
  8
1
  6
ESTILO_TQS_0001
 66
     1
  0
VERTEX
  8
1
  6
ESTILO_TQS_0001
 10
58.740683
 20
49.234054
  0
VERTEX
  8
1
  6
ESTILO_TQS_0001
 10
47.726109
 20
50.166330
  0
SEQEND
  8
1
  6
ESTILO_TQS_0001
  0
POLYLINE
  8
1
  6
ESTILO_TQS_0001
 66
     1
  0
VERTEX
  8
1
  6
ESTILO_TQS_0001
 10
36.352441
 20
50.794476
  0
VERTEX
  8
1
  6
ESTILO_TQS_0001
 10
47.365851
 20
49.862297
  0
SEQEND
  8
1
  6
ESTILO_TQS_0001
  0
POLYLINE
  8
1
  6
ESTILO_TQS_0001
 66
     1
  0
VERTEX
  8
1
  6
ESTILO_TQS_0001
 10
47.393963
 20
50.194443
  0
VERTEX
  8
1
  6
ESTILO_TQS_0001
 10
36.380554
 20
51.126621
  0
SEQEND
  8
1
  6
ESTILO_TQS_0001
  0
POLYLINE
  8
1
  6
ESTILO_TQS_0001
 66
     1
  0
VERTEX
  8
1
  6
ESTILO_TQS_0001
 10
6.524096
 20
53.319155
  0
VERTEX
  8
1
  6
ESTILO_TQS_0001
 10
36.020295
 20
50.822589
  0
SEQEND
  8
1
  6
ESTILO_TQS_0001
  0
POLYLINE
  8
1
  6
ESTILO_TQS_0001
 66
     1
  0
VERTEX
  8
1
  6
ESTILO_TQS_0001
 10
36.048408
 20
51.154734
  0
VERTEX
  8
1
  6
ESTILO_TQS_0001
 10
6.524761
 20
53.653624
  0
SEQEND
  8
1
  6
ESTILO_TQS_0001
  0
POLYLINE
  8
1
  6
CONTINUOUS
 66
     1
  0
VERTEX
  8
1
  6
CONTINUOUS
 10
98.888541
 20
45.501402
  0
VERTEX
  8
1
  6
CONTINUOUS
 10
98.916654
 20
45.833548
  0
SEQEND
  8
1
  6
CONTINUOUS
  0
POLYLINE
  8
1
  6
CONTINUOUS
 66
     1
  0
VERTEX
  8
1
  6
CONTINUOUS
 10
6.524761
 20
53.653624
  0
VERTEX
  8
1
  6
CONTINUOUS
 10
6.524096
 20
53.319155
  0
SEQEND
  8
1
  6
CONTINUOUS
  0
POLYLINE
  8
1
  6
CONTINUOUS
 66
     1
  0
VERTEX
  8
1
  6
CONTINUOUS
 10
45.867247
 20
48.861588
  0
VERTEX
  8
1
  6
CONTINUOUS
 10
49.188708
 20
48.580516
  0
VERTEX
  8
1
  6
CONTINUOUS
 10
49.469835
 20
51.901908
  0
VERTEX
  8
1
  6
CONTINUOUS
 10
46.148381
 20
52.183079
  0
VERTEX
  8
1
  6
CONTINUOUS
 10
45.867247
 20
48.861588
  0
SEQEND
  8
1
  6
CONTINUOUS
  0
POLYLINE
  8
1
  6
CONTINUOUS
 66
     1
  0
VERTEX
  8
1
  6
CONTINUOUS
 10
57.103974
 20
47.241459
  0
VERTEX
  8
1
  6
CONTINUOUS
 10
60.425431
 20
46.960322
  0
VERTEX
  8
1
  6
CONTINUOUS
 10
60.762789
 20
50.946069
  0
VERTEX
  8
1
  6
CONTINUOUS
 10
57.441333
 20
51.227206
  0
VERTEX
  8
1
  6
CONTINUOUS
 10
57.103974
 20
47.241459
  0
SEQEND
  8
1
  6
CONTINUOUS
  0
POLYLINE
  8
1
  6
CONTINUOUS
 66
     1
  0
VERTEX
  8
1
  6
CONTINUOUS
 10
34.518069
 20
49.153137
  0
VERTEX
  8
1
  6
CONTINUOUS
 10
37.839526
 20
48.871999
  0
VERTEX
  8
1
  6
CONTINUOUS
 10
38.120655
 20
52.193456
  0
VERTEX
  8
1
  6
CONTINUOUS
 10
34.799198
 20
52.474594
  0
VERTEX
  8
1
  6
CONTINUOUS
 10
34.518066
 20
49.153138
  0
SEQEND
  8
1
  6
CONTINUOUS
  0
LINE
  8
1
  6
CONTINUOUS
 10
95.610202
 20
6.772499
 11
99.159785
 21
48.705783
  0
LINE
  8
1
  6
CONTINUOUS
 10
40.764559
 20
11.414888
 11
40.731345
 21
11.417700
  0
LINE
  8
1
  6
CONTINUOUS
 10
40.731345
 20
11.417700
 11
40.734136
 21
11.450664
  0
LINE
  8
1
  6
CONTINUOUS
 10
6.498989
 20
24.792457
 11
6.465656
 21
24.792522
  0
LINE
  8
1
  6
CONTINUOUS
 10
6.465656
 20
24.792522
 11
6.465656
 21
24.825856
  0
LINE
  8
1
  6
CONTINUOUS
 10
77.891904
 20
18.725763
 11
77.891904
 21
18.725763
  0
POLYLINE
  8
1
  6
CONTINUOUS
 66
     1
  0
VERTEX
  8
1
  6
CONTINUOUS
 10
78.271945
 20
18.275439
  0
VERTEX
  8
1
  6
CONTINUOUS
 10
78.342227
 20
19.105804
  0
VERTEX
  8
1
  6
CONTINUOUS
 10
77.511863
 20
19.176086
  0
VERTEX
  8
1
  6
CONTINUOUS
 10
77.441581
 20
18.345722
  0
VERTEX
  8
1
  6
CONTINUOUS
 10
78.271945
 20
18.275439
  0
SEQEND
  8
1
  6
CONTINUOUS
  0
LINE
  8
1
  6
CONTINUOUS
 10
78.807879
 20
29.546722
 11
78.807879
 21
29.546722
  0
POLYLINE
  8
1
  6
CONTINUOUS
 66
     1
  0
VERTEX
  8
1
  6
CONTINUOUS
 10
79.187920
 20
29.096399
  0
VERTEX
  8
1
  6
CONTINUOUS
 10
79.258203
 20
29.926763
  0
VERTEX
  8
1
  6
CONTINUOUS
 10
78.427838
 20
29.997045
  0
VERTEX
  8
1
  6
CONTINUOUS
 10
78.357556
 20
29.166681
  0
VERTEX
  8
1
  6
CONTINUOUS
 10
79.187920
 20
29.096399
  0
SEQEND
  8
1
  6
CONTINUOUS
  0
LINE
  8
1
  6
CONTINUOUS
 10
79.684308
 20
39.900472
 11
79.684308
 21
39.900472
  0
POLYLINE
  8
1
  6
CONTINUOUS
 66
     1
  0
VERTEX
  8
1
  6
CONTINUOUS
 10
80.064349
 20
39.450149
  0
VERTEX
  8
1
  6
CONTINUOUS
 10
80.134631
 20
40.280513
  0
VERTEX
  8
1
  6
CONTINUOUS
 10
79.304267
 20
40.350796
  0
VERTEX
  8
1
  6
CONTINUOUS
 10
79.233984
 20
39.520431
  0
VERTEX
  8
1
  6
CONTINUOUS
 10
80.064349
 20
39.450149
  0
SEQEND
  8
1
  6
CONTINUOUS
  0
LINE
  8
1
  6
CONTINUOUS
 10
61.284629
 20
20.131535
 11
61.284629
 21
20.131535
  0
POLYLINE
  8
1
  6
CONTINUOUS
 66
     1
  0
VERTEX
  8
1
  6
CONTINUOUS
 10
61.664670
 20
19.681212
  0
VERTEX
  8
1
  6
CONTINUOUS
 10
61.734953
 20
20.511576
  0
VERTEX
  8
1
  6
CONTINUOUS
 10
60.904588
 20
20.581859
  0
VERTEX
  8
1
  6
CONTINUOUS
 10
60.834306
 20
19.751494
  0
VERTEX
  8
1
  6
CONTINUOUS
 10
61.664670
 20
19.681212
  0
SEQEND
  8
1
  6
CONTINUOUS
  0
LINE
  8
1
  6
CONTINUOUS
 10
62.373706
 20
31.021475
 11
62.373706
 21
31.021475
  0
POLYLINE
  8
1
  6
CONTINUOUS
 66
     1
  0
VERTEX
  8
1
  6
CONTINUOUS
 10
62.753747
 20
30.571151
  0
VERTEX
  8
1
  6
CONTINUOUS
 10
62.824029
 20
31.401516
  0
VERTEX
  8
1
  6
CONTINUOUS
 10
61.993665
 20
31.471798
  0
VERTEX
  8
1
  6
CONTINUOUS
 10
61.923382
 20
30.641434
  0
VERTEX
  8
1
  6
CONTINUOUS
 10
62.753747
 20
30.571151
  0
SEQEND
  8
1
  6
CONTINUOUS
  0
LINE
  8
1
  6
CONTINUOUS
 10
63.243105
 20
41.292189
 11
63.243105
 21
41.292189
  0
POLYLINE
  8
1
  6
CONTINUOUS
 66
     1
  0
VERTEX
  8
1
  6
CONTINUOUS
 10
63.623146
 20
40.841865
  0
VERTEX
  8
1
  6
CONTINUOUS
 10
63.693429
 20
41.672230
  0
VERTEX
  8
1
  6
CONTINUOUS
 10
62.863064
 20
41.742512
  0
VERTEX
  8
1
  6
CONTINUOUS
 10
62.792782
 20
40.912148
  0
VERTEX
  8
1
  6
CONTINUOUS
 10
63.623146
 20
40.841865
  0
SEQEND
  8
1
  6
CONTINUOUS
  0
LINE
  8
1
  6
CONTINUOUS
 10
44.801258
 20
21.025033
 11
44.801258
 21
21.025033
  0
POLYLINE
  8
1
  6
CONTINUOUS
 66
     1
  0
VERTEX
  8
1
  6
CONTINUOUS
 10
45.001169
 20
20.422693
  0
VERTEX
  8
1
  6
CONTINUOUS
 10
45.099565
 20
21.585203
  0
VERTEX
  8
1
  6
CONTINUOUS
 10
44.601346
 20
21.627373
  0
VERTEX
  8
1
  6
CONTINUOUS
 10
44.502951
 20
20.464863
  0
VERTEX
  8
1
  6
CONTINUOUS
 10
45.001169
 20
20.422693
  0
SEQEND
  8
1
  6
CONTINUOUS
  0
LINE
  8
1
  6
CONTINUOUS
 10
45.801572
 20
32.842430
 11
45.801572
 21
32.842430
  0
POLYLINE
  8
1
  6
CONTINUOUS
 66
     1
  0
VERTEX
  8
1
  6
CONTINUOUS
 10
46.001483
 20
32.240090
  0
VERTEX
  8
1
  6
CONTINUOUS
 10
46.099879
 20
33.402600
  0
VERTEX
  8
1
  6
CONTINUOUS
 10
45.601660
 20
33.444769
  0
VERTEX
  8
1
  6
CONTINUOUS
 10
45.503265
 20
32.282259
  0
VERTEX
  8
1
  6
CONTINUOUS
 10
46.001483
 20
32.240090
  0
SEQEND
  8
1
  6
CONTINUOUS
  0
LINE
  8
1
  6
CONTINUOUS
 10
46.678000
 20
43.196180
 11
46.678000
 21
43.196180
  0
POLYLINE
  8
1
  6
CONTINUOUS
 66
     1
  0
VERTEX
  8
1
  6
CONTINUOUS
 10
46.877912
 20
42.593840
  0
VERTEX
  8
1
  6
CONTINUOUS
 10
46.976307
 20
43.756350
  0
VERTEX
  8
1
  6
CONTINUOUS
 10
46.478088
 20
43.798519
  0
VERTEX
  8
1
  6
CONTINUOUS
 10
46.379693
 20
42.636009
  0
VERTEX
  8
1
  6
CONTINUOUS
 10
46.877912
 20
42.593840
  0
SEQEND
  8
1
  6
CONTINUOUS
  0
LINE
  8
1
  6
CONTINUOUS
 10
15.824193
 20
23.477859
 11
15.824193
 21
23.477859
  0
POLYLINE
  8
1
  6
CONTINUOUS
 66
     1
  0
VERTEX
  8
1
  6
CONTINUOUS
 10
16.024105
 20
22.875520
  0
VERTEX
  8
1
  6
CONTINUOUS
 10
16.122500
 20
24.038030
  0
VERTEX
  8
1
  6
CONTINUOUS
 10
15.624282
 20
24.080199
  0
VERTEX
  8
1
  6
CONTINUOUS
 10
15.525887
 20
22.917689
  0
VERTEX
  8
1
  6
CONTINUOUS
 10
16.024105
 20
22.875520
  0
SEQEND
  8
1
  6
CONTINUOUS
  0
LINE
  8
1
  6
CONTINUOUS
 10
16.824507
 20
35.295256
 11
16.824507
 21
35.295256
  0
POLYLINE
  8
1
  6
CONTINUOUS
 66
     1
  0
VERTEX
  8
1
  6
CONTINUOUS
 10
17.024419
 20
34.692916
  0
VERTEX
  8
1
  6
CONTINUOUS
 10
17.122814
 20
35.855426
  0
VERTEX
  8
1
  6
CONTINUOUS
 10
16.624596
 20
35.897596
  0
VERTEX
  8
1
  6
CONTINUOUS
 10
16.526201
 20
34.735086
  0
VERTEX
  8
1
  6
CONTINUOUS
 10
17.024419
 20
34.692916
  0
SEQEND
  8
1
  6
CONTINUOUS
  0
LINE
  8
1
  6
CONTINUOUS
 10
94.855989
 20
17.583283
 11
94.855989
 21
17.583283
  0
POLYLINE
  8
1
  6
CONTINUOUS
 66
     1
  0
VERTEX
  8
1
  6
CONTINUOUS
 10
95.160022
 20
17.223025
  0
VERTEX
  8
1
  6
CONTINUOUS
 10
95.216248
 20
17.887316
  0
VERTEX
  8
1
  6
CONTINUOUS
 10
94.551957
 20
17.943542
  0
VERTEX
  8
1
  6
CONTINUOUS
 10
94.495731
 20
17.279251
  0
VERTEX
  8
1
  6
CONTINUOUS
 10
95.160022
 20
17.223025
  0
SEQEND
  8
1
  6
CONTINUOUS
  0
LINE
  8
1
  6
CONTINUOUS
 10
95.727425
 20
27.879070
 11
95.727425
 21
27.879070
  0
POLYLINE
  8
1
  6
CONTINUOUS
 66
     1
  0
VERTEX
  8
1
  6
CONTINUOUS
 10
96.031458
 20
27.518811
  0
VERTEX
  8
1
  6
CONTINUOUS
 10
96.087684
 20
28.183103
  0
VERTEX
  8
1
  6
CONTINUOUS
 10
95.423392
 20
28.239329
  0
VERTEX
  8
1
  6
CONTINUOUS
 10
95.367167
 20
27.575037
  0
VERTEX
  8
1
  6
CONTINUOUS
 10
96.031458
 20
27.518811
  0
SEQEND
  8
1
  6
CONTINUOUS
  0
LINE
  8
1
  6
CONTINUOUS
 10
96.598923
 20
38.175585
 11
96.598923
 21
38.175585
  0
POLYLINE
  8
1
  6
CONTINUOUS
 66
     1
  0
VERTEX
  8
1
  6
CONTINUOUS
 10
96.902956
 20
37.815327
  0
VERTEX
  8
1
  6
CONTINUOUS
 10
96.959181
 20
38.479618
  0
VERTEX
  8
1
  6
CONTINUOUS
 10
96.294890
 20
38.535844
  0
VERTEX
  8
1
  6
CONTINUOUS
 10
96.238664
 20
37.871553
  0
VERTEX
  8
1
  6
CONTINUOUS
 10
96.902956
 20
37.815327
  0
SEQEND
  8
1
  6
CONTINUOUS
  0
LINE
  8
1
  6
CONTINUOUS
 10
13.891524
 20
13.956752
 11
13.891524
 21
13.956752
  0
POLYLINE
  8
1
  6
CONTINUOUS
 66
     1
  0
VERTEX
  8
1
  6
CONTINUOUS
 10
14.160313
 20
14.168169
  0
VERTEX
  8
1
  6
CONTINUOUS
 10
13.662094
 20
14.210338
  0
VERTEX
  8
1
  6
CONTINUOUS
 10
13.622736
 20
13.745334
  0
VERTEX
  8
1
  6
CONTINUOUS
 10
14.120955
 20
13.703165
  0
VERTEX
  8
1
  6
CONTINUOUS
 10
14.160313
 20
14.168169
  0
SEQEND
  8
1
  6
CONTINUOUS
  0
LINE
  8
1
  6
CONTINUOUS
 10
97.274339
 20
49.116236
 11
97.274339
 21
49.116236
  0
POLYLINE
  8
1
  6
CONTINUOUS
 66
     1
  0
VERTEX
  8
1
  6
CONTINUOUS
 10
97.834561
 20
48.818027
  0
VERTEX
  8
1
  6
CONTINUOUS
 10
97.876643
 20
49.316252
  0
VERTEX
  8
1
  6
CONTINUOUS
 10
96.714116
 20
49.414445
  0
VERTEX
  8
1
  6
CONTINUOUS
 10
96.672034
 20
48.916219
  0
VERTEX
  8
1
  6
CONTINUOUS
 10
97.834561
 20
48.818027
  0
SEQEND
  8
1
  6
CONTINUOUS
  0
LINE
  8
1
  6
CONTINUOUS
 10
87.775127
 20
49.920296
 11
87.775127
 21
49.920296
  0
POLYLINE
  8
1
  6
CONTINUOUS
 66
     1
  0
VERTEX
  8
1
  6
CONTINUOUS
 10
88.003198
 20
49.650142
  0
VERTEX
  8
1
  6
CONTINUOUS
 10
88.045281
 20
50.148368
  0
VERTEX
  8
1
  6
CONTINUOUS
 10
87.547055
 20
50.190450
  0
VERTEX
  8
1
  6
CONTINUOUS
 10
87.504972
 20
49.692224
  0
VERTEX
  8
1
  6
CONTINUOUS
 10
88.003198
 20
49.650142
  0
SEQEND
  8
1
  6
CONTINUOUS
  0
LINE
  8
1
  6
CONTINUOUS
 10
76.980386
 20
50.833911
 11
76.980386
 21
50.833911
  0
POLYLINE
  8
1
  6
CONTINUOUS
 66
     1
  0
VERTEX
  8
1
  6
CONTINUOUS
 10
77.208458
 20
50.563757
  0
VERTEX
  8
1
  6
CONTINUOUS
 10
77.250541
 20
51.061983
  0
VERTEX
  8
1
  6
CONTINUOUS
 10
76.752315
 20
51.104065
  0
VERTEX
  8
1
  6
CONTINUOUS
 10
76.710232
 20
50.605839
  0
VERTEX
  8
1
  6
CONTINUOUS
 10
77.208458
 20
50.563757
  0
SEQEND
  8
1
  6
CONTINUOUS
  0
LINE
  8
1
  6
CONTINUOUS
 10
67.846375
 20
51.606970
 11
67.846375
 21
51.606970
  0
POLYLINE
  8
1
  6
CONTINUOUS
 66
     1
  0
VERTEX
  8
1
  6
CONTINUOUS
 10
68.074447
 20
51.336816
  0
VERTEX
  8
1
  6
CONTINUOUS
 10
68.116530
 20
51.835042
  0
VERTEX
  8
1
  6
CONTINUOUS
 10
67.618304
 20
51.877124
  0
VERTEX
  8
1
  6
CONTINUOUS
 10
67.576221
 20
51.378898
  0
VERTEX
  8
1
  6
CONTINUOUS
 10
68.074447
 20
51.336816
  0
SEQEND
  8
1
  6
CONTINUOUS
  0
LINE
  8
1
  6
CONTINUOUS
 10
51.239083
 20
53.012537
 11
51.239083
 21
53.012537
  0
POLYLINE
  8
1
  6
CONTINUOUS
 66
     1
  0
VERTEX
  8
1
  6
CONTINUOUS
 10
51.467155
 20
52.742383
  0
VERTEX
  8
1
  6
CONTINUOUS
 10
51.509237
 20
53.240609
  0
VERTEX
  8
1
  6
CONTINUOUS
 10
51.011012
 20
53.282691
  0
VERTEX
  8
1
  6
CONTINUOUS
 10
50.968929
 20
52.784465
  0
VERTEX
  8
1
  6
CONTINUOUS
 10
51.467155
 20
52.742383
  0
SEQEND
  8
1
  6
CONTINUOUS
  0
LINE
  8
1
  6
CONTINUOUS
 10
44.596166
 20
53.574756
 11
44.596166
 21
53.574756
  0
POLYLINE
  8
1
  6
CONTINUOUS
 66
     1
  0
VERTEX
  8
1
  6
CONTINUOUS
 10
44.824238
 20
53.304602
  0
VERTEX
  8
1
  6
CONTINUOUS
 10
44.866320
 20
53.802828
  0
VERTEX
  8
1
  6
CONTINUOUS
 10
44.368094
 20
53.844910
  0
VERTEX
  8
1
  6
CONTINUOUS
 10
44.326012
 20
53.346684
  0
VERTEX
  8
1
  6
CONTINUOUS
 10
44.824238
 20
53.304602
  0
SEQEND
  8
1
  6
CONTINUOUS
  0
LINE
  8
1
  6
CONTINUOUS
 10
26.928915
 20
55.070041
 11
26.928915
 21
55.070041
  0
POLYLINE
  8
1
  6
CONTINUOUS
 66
     1
  0
VERTEX
  8
1
  6
CONTINUOUS
 10
27.156986
 20
54.799887
  0
VERTEX
  8
1
  6
CONTINUOUS
 10
27.199069
 20
55.298113
  0
VERTEX
  8
1
  6
CONTINUOUS
 10
26.700843
 20
55.340196
  0
VERTEX
  8
1
  6
CONTINUOUS
 10
26.658760
 20
54.841970
  0
VERTEX
  8
1
  6
CONTINUOUS
 10
27.156986
 20
54.799887
  0
SEQEND
  8
1
  6
CONTINUOUS
  0
LINE
  8
1
  6
CONTINUOUS
 10
17.344220
 20
55.881241
 11
17.344220
 21
55.881241
  0
POLYLINE
  8
1
  6
CONTINUOUS
 66
     1
  0
VERTEX
  8
1
  6
CONTINUOUS
 10
17.572292
 20
55.611087
  0
VERTEX
  8
1
  6
CONTINUOUS
 10
17.614374
 20
56.109313
  0
VERTEX
  8
1
  6
CONTINUOUS
 10
17.116148
 20
56.151395
  0
VERTEX
  8
1
  6
CONTINUOUS
 10
17.074066
 20
55.653169
  0
VERTEX
  8
1
  6
CONTINUOUS
 10
17.572292
 20
55.611087
  0
SEQEND
  8
1
  6
CONTINUOUS
  0
LINE
  8
1
  6
CONTINUOUS
 10
8.210212
 20
56.654343
 11
8.210212
 21
56.654343
  0
POLYLINE
  8
1
  6
CONTINUOUS
 66
     1
  0
VERTEX
  8
1
  6
CONTINUOUS
 10
8.770435
 20
56.356134
  0
VERTEX
  8
1
  6
CONTINUOUS
 10
8.812517
 20
56.854360
  0
VERTEX
  8
1
  6
CONTINUOUS
 10
7.649990
 20
56.952552
  0
VERTEX
  8
1
  6
CONTINUOUS
 10
7.607908
 20
56.454326
  0
VERTEX
  8
1
  6
CONTINUOUS
 10
8.770435
 20
56.356134
  0
SEQEND
  8
1
  6
CONTINUOUS
  0
LINE
  8
1
  6
CONTINUOUS
 10
6.731833
 20
24.542002
 11
6.731833
 21
24.542002
  0
POLYLINE
  8
1
  6
CONTINUOUS
 66
     1
  0
VERTEX
  8
1
  6
CONTINUOUS
 10
6.964678
 20
24.291546
  0
VERTEX
  8
1
  6
CONTINUOUS
 10
6.965655
 20
24.791545
  0
VERTEX
  8
1
  6
CONTINUOUS
 10
6.498989
 20
24.792457
  0
VERTEX
  8
1
  6
CONTINUOUS
 10
6.498012
 20
24.292458
  0
VERTEX
  8
1
  6
CONTINUOUS
 10
6.964678
 20
24.291546
  0
SEQEND
  8
1
  6
CONTINUOUS
  0
LINE
  8
1
  6
CONTINUOUS
 10
6.250769
 20
42.742977
 11
6.250769
 21
42.742977
  0
POLYLINE
  8
1
  6
CONTINUOUS
 66
     1
  0
VERTEX
  8
1
  6
CONTINUOUS
 10
6.500280
 20
42.492489
  0
VERTEX
  8
1
  6
CONTINUOUS
 10
6.501257
 20
42.992488
  0
VERTEX
  8
1
  6
CONTINUOUS
 10
6.001258
 20
42.993465
  0
VERTEX
  8
1
  6
CONTINUOUS
 10
6.000281
 20
42.493466
  0
VERTEX
  8
1
  6
CONTINUOUS
 10
6.500280
 20
42.492489
  0
SEQEND
  8
1
  6
CONTINUOUS
  0
LINE
  8
1
  6
CONTINUOUS
 10
6.275057
 20
55.159620
 11
6.275057
 21
55.159620
  0
POLYLINE
  8
1
  6
CONTINUOUS
 66
     1
  0
VERTEX
  8
1
  6
CONTINUOUS
 10
6.524568
 20
54.909131
  0
VERTEX
  8
1
  6
CONTINUOUS
 10
6.525545
 20
55.409130
  0
VERTEX
  8
1
  6
CONTINUOUS
 10
6.025546
 20
55.410108
  0
VERTEX
  8
1
  6
CONTINUOUS
 10
6.024569
 20
54.910109
  0
VERTEX
  8
1
  6
CONTINUOUS
 10
6.524568
 20
54.909131
  0
SEQEND
  8
1
  6
CONTINUOUS
  0
LINE
  8
1
  6
CONTINUOUS
 10
59.585481
 20
52.306196
 11
59.585481
 21
52.306196
  0
POLYLINE
  8
1
  6
CONTINUOUS
 66
     1
  0
VERTEX
  8
1
  6
CONTINUOUS
 10
60.145703
 20
52.007987
  0
VERTEX
  8
1
  6
CONTINUOUS
 10
60.187786
 20
52.506213
  0
VERTEX
  8
1
  6
CONTINUOUS
 10
59.025259
 20
52.604406
  0
VERTEX
  8
1
  6
CONTINUOUS
 10
58.983176
 20
52.106180
  0
VERTEX
  8
1
  6
CONTINUOUS
 10
60.145703
 20
52.007987
  0
SEQEND
  8
1
  6
CONTINUOUS
  0
LINE
  8
1
  6
CONTINUOUS
 10
21.406323
 20
13.320718
 11
21.406323
 21
13.320718
  0
POLYLINE
  8
1
  6
CONTINUOUS
 66
     1
  0
VERTEX
  8
1
  6
CONTINUOUS
 10
21.675112
 20
13.532136
  0
VERTEX
  8
1
  6
CONTINUOUS
 10
21.176893
 20
13.574305
  0
VERTEX
  8
1
  6
CONTINUOUS
 10
21.137535
 20
13.109301
  0
VERTEX
  8
1
  6
CONTINUOUS
 10
21.635754
 20
13.067132
  0
VERTEX
  8
1
  6
CONTINUOUS
 10
21.675112
 20
13.532136
  0
SEQEND
  8
1
  6
CONTINUOUS
  0
LINE
  8
1
  6
CONTINUOUS
 10
71.154117
 20
8.591287
 11
71.154117
 21
8.591287
  0
POLYLINE
  8
1
  6
CONTINUOUS
 66
     1
  0
VERTEX
  8
1
  6
CONTINUOUS
 10
71.424315
 20
8.819307
  0
VERTEX
  8
1
  6
CONTINUOUS
 10
70.926097
 20
8.861485
  0
VERTEX
  8
1
  6
CONTINUOUS
 10
70.883919
 20
8.363267
  0
VERTEX
  8
1
  6
CONTINUOUS
 10
71.382137
 20
8.321089
  0
VERTEX
  8
1
  6
CONTINUOUS
 10
71.424315
 20
8.819307
  0
SEQEND
  8
1
  6
CONTINUOUS
  0
LINE
  8
1
  6
CONTINUOUS
 10
81.118493
 20
7.747954
 11
81.118493
 21
7.747954
  0
POLYLINE
  8
1
  6
CONTINUOUS
 66
     1
  0
VERTEX
  8
1
  6
CONTINUOUS
 10
81.388691
 20
7.975974
  0
VERTEX
  8
1
  6
CONTINUOUS
 10
80.890473
 20
8.018152
  0
VERTEX
  8
1
  6
CONTINUOUS
 10
80.848295
 20
7.519934
  0
VERTEX
  8
1
  6
CONTINUOUS
 10
81.346513
 20
7.477756
  0
VERTEX
  8
1
  6
CONTINUOUS
 10
81.388691
 20
7.975974
  0
SEQEND
  8
1
  6
CONTINUOUS
  0
LINE
  8
1
  6
CONTINUOUS
 10
94.014661
 20
6.656192
 11
94.014661
 21
6.656192
  0
POLYLINE
  8
1
  6
CONTINUOUS
 66
     1
  0
VERTEX
  8
1
  6
CONTINUOUS
 10
94.284859
 20
6.884212
  0
VERTEX
  8
1
  6
CONTINUOUS
 10
93.786641
 20
6.926390
  0
VERTEX
  8
1
  6
CONTINUOUS
 10
93.744463
 20
6.428172
  0
VERTEX
  8
1
  6
CONTINUOUS
 10
94.242681
 20
6.385994
  0
VERTEX
  8
1
  6
CONTINUOUS
 10
94.284859
 20
6.884212
  0
SEQEND
  8
1
  6
CONTINUOUS
  0
LINE
  8
1
  6
CONTINUOUS
 10
36.062918
 20
54.296896
 11
36.062918
 21
54.296896
  0
POLYLINE
  8
1
  6
CONTINUOUS
 66
     1
  0
VERTEX
  8
1
  6
CONTINUOUS
 10
36.623141
 20
53.998687
  0
VERTEX
  8
1
  6
CONTINUOUS
 10
36.665223
 20
54.496912
  0
VERTEX
  8
1
  6
CONTINUOUS
 10
35.502696
 20
54.595105
  0
VERTEX
  8
1
  6
CONTINUOUS
 10
35.460614
 20
54.096879
  0
VERTEX
  8
1
  6
CONTINUOUS
 10
36.623141
 20
53.998687
  0
SEQEND
  8
1
  6
CONTINUOUS
  0
LINE
  8
1
  6
CONTINUOUS
 10
50.554335
 20
10.586088
 11
50.554335
 21
10.586088
  0
POLYLINE
  8
1
  6
CONTINUOUS
 66
     1
  0
VERTEX
  8
1
  6
CONTINUOUS
 10
51.011686
 20
11.049165
  0
VERTEX
  8
1
  6
CONTINUOUS
 10
50.181322
 20
11.119447
  0
VERTEX
  8
1
  6
CONTINUOUS
 10
50.096983
 20
10.123010
  0
VERTEX
  8
1
  6
CONTINUOUS
 10
50.927347
 20
10.052728
  0
VERTEX
  8
1
  6
CONTINUOUS
 10
51.011686
 20
11.049165
  0
SEQEND
  8
1
  6
CONTINUOUS
  0
LINE
  8
1
  6
CONTINUOUS
 10
31.418303
 20
22.047232
 11
31.418303
 21
22.047232
  0
POLYLINE
  8
1
  6
CONTINUOUS
 66
     1
  0
VERTEX
  8
1
  6
CONTINUOUS
 10
31.618215
 20
21.444892
  0
VERTEX
  8
1
  6
CONTINUOUS
 10
31.716610
 20
22.607402
  0
VERTEX
  8
1
  6
CONTINUOUS
 10
31.218391
 20
22.649571
  0
VERTEX
  8
1
  6
CONTINUOUS
 10
31.119996
 20
21.487061
  0
VERTEX
  8
1
  6
CONTINUOUS
 10
31.618215
 20
21.444892
  0
SEQEND
  8
1
  6
CONTINUOUS
  0
LINE
  8
1
  6
CONTINUOUS
 10
32.418466
 20
33.864641
 11
32.418466
 21
33.864641
  0
POLYLINE
  8
1
  6
CONTINUOUS
 66
     1
  0
VERTEX
  8
1
  6
CONTINUOUS
 10
32.618378
 20
33.262301
  0
VERTEX
  8
1
  6
CONTINUOUS
 10
32.716773
 20
34.424811
  0
VERTEX
  8
1
  6
CONTINUOUS
 10
32.218554
 20
34.466981
  0
VERTEX
  8
1
  6
CONTINUOUS
 10
32.120159
 20
33.304471
  0
VERTEX
  8
1
  6
CONTINUOUS
 10
32.618378
 20
33.262301
  0
SEQEND
  8
1
  6
CONTINUOUS
  0
LINE
  8
1
  6
CONTINUOUS
 10
33.051081
 20
41.339377
 11
33.051081
 21
41.339377
  0
POLYLINE
  8
1
  6
CONTINUOUS
 66
     1
  0
VERTEX
  8
1
  6
CONTINUOUS
 10
33.250993
 20
40.737038
  0
VERTEX
  8
1
  6
CONTINUOUS
 10
33.349388
 20
41.899548
  0
VERTEX
  8
1
  6
CONTINUOUS
 10
32.851169
 20
41.941717
  0
VERTEX
  8
1
  6
CONTINUOUS
 10
32.752774
 20
40.779207
  0
VERTEX
  8
1
  6
CONTINUOUS
 10
33.250993
 20
40.737038
  0
SEQEND
  8
1
  6
CONTINUOUS
  0
LINE
  8
1
  6
CONTINUOUS
 10
17.658769
 20
45.150810
 11
17.658769
 21
45.150810
  0
POLYLINE
  8
1
  6
CONTINUOUS
 66
     1
  0
VERTEX
  8
1
  6
CONTINUOUS
 10
17.858680
 20
44.548471
  0
VERTEX
  8
1
  6
CONTINUOUS
 10
17.957076
 20
45.710981
  0
VERTEX
  8
1
  6
CONTINUOUS
 10
17.458857
 20
45.753150
  0
VERTEX
  8
1
  6
CONTINUOUS
 10
17.360462
 20
44.590640
  0
VERTEX
  8
1
  6
CONTINUOUS
 10
17.858680
 20
44.548471
  0
SEQEND
  8
1
  6
CONTINUOUS
  0
LINE
  8
1
  6
CONTINUOUS
 10
61.095577
 20
9.443064
 11
61.095577
 21
9.443064
  0
POLYLINE
  8
1
  6
CONTINUOUS
 66
     1
  0
VERTEX
  8
1
  6
CONTINUOUS
 10
61.365771
 20
9.671089
  0
VERTEX
  8
1
  6
CONTINUOUS
 10
60.867553
 20
9.713258
  0
VERTEX
  8
1
  6
CONTINUOUS
 10
60.825384
 20
9.215040
  0
VERTEX
  8
1
  6
CONTINUOUS
 10
61.323602
 20
9.172870
  0
VERTEX
  8
1
  6
CONTINUOUS
 10
61.365771
 20
9.671089
  0
SEQEND
  8
1
  6
CONTINUOUS
  0
LINE
  8
5
  6
CONTINUOUS
 10
60.867553
 20
9.713258
 11
60.715536
 21
9.893387
  0
LINE
  8
5
  6
CONTINUOUS
 10
60.825384
 20
9.215040
 11
60.645254
 21
9.063023
  0
LINE
  8
5
  6
CONTINUOUS
 10
61.323602
 20
9.172870
 11
61.475619
 21
8.992741
  0
LINE
  8
5
  6
CONTINUOUS
 10
61.365771
 20
9.671089
 11
61.545901
 21
9.823105
  0
LINE
  8
1
  6
CONTINUOUS
 10
40.992584
 20
11.144694
 11
40.992584
 21
11.144694
  0
POLYLINE
  8
1
  6
CONTINUOUS
 66
     1
  0
VERTEX
  8
1
  6
CONTINUOUS
 10
41.262778
 20
11.372718
  0
VERTEX
  8
1
  6
CONTINUOUS
 10
40.764559
 20
11.414888
  0
VERTEX
  8
1
  6
CONTINUOUS
 10
40.722390
 20
10.916669
  0
VERTEX
  8
1
  6
CONTINUOUS
 10
41.220609
 20
10.874500
  0
VERTEX
  8
1
  6
CONTINUOUS
 10
41.262778
 20
11.372718
  0
SEQEND
  8
1
  6
CONTINUOUS
  0
LINE
  8
1
  6
CONTINUOUS
 10
6.235510
 20
34.942992
 11
6.235510
 21
34.942992
  0
POLYLINE
  8
1
  6
CONTINUOUS
 66
     1
  0
VERTEX
  8
1
  6
CONTINUOUS
 10
6.485021
 20
34.692503
  0
VERTEX
  8
1
  6
CONTINUOUS
 10
6.485999
 20
35.192502
  0
VERTEX
  8
1
  6
CONTINUOUS
 10
5.986000
 20
35.193480
  0
VERTEX
  8
1
  6
CONTINUOUS
 10
5.985022
 20
34.693481
  0
VERTEX
  8
1
  6
CONTINUOUS
 10
6.485021
 20
34.692503
  0
SEQEND
  8
1
  6
CONTINUOUS
  0
LINE
  8
1
  6
CONTINUOUS
 10
60.585240
 20
9.737154
 11
60.585240
 21
9.737154
  0
POLYLINE
  8
1
  6
CONTINUOUS
 66
     1
  0
VERTEX
  8
1
  6
CONTINUOUS
 10
60.876518
 20
10.214288
  0
VERTEX
  8
1
  6
CONTINUOUS
 10
60.378300
 20
10.256457
  0
VERTEX
  8
1
  6
CONTINUOUS
 10
60.293961
 20
9.260020
  0
VERTEX
  8
1
  6
CONTINUOUS
 10
60.792180
 20
9.217851
  0
VERTEX
  8
1
  6
CONTINUOUS
 10
60.876518
 20
10.214288
  0
SEQEND
  8
1
  6
CONTINUOUS
  0
LINE
  8
1
  6
CONTINUOUS
 10
30.737712
 20
12.531296
 11
30.737712
 21
12.531296
  0
POLYLINE
  8
1
  6
CONTINUOUS
 66
     1
  0
VERTEX
  8
1
  6
CONTINUOUS
 10
31.006500
 20
12.742714
  0
VERTEX
  8
1
  6
CONTINUOUS
 10
30.508281
 20
12.784883
  0
VERTEX
  8
1
  6
CONTINUOUS
 10
30.468923
 20
12.319879
  0
VERTEX
  8
1
  6
CONTINUOUS
 10
30.967142
 20
12.277710
  0
VERTEX
  8
1
  6
CONTINUOUS
 10
31.006500
 20
12.742714
  0
SEQEND
  8
1
  6
CONTINUOUS
  0
LINE
  8
1
  6
CONTINUOUS
 10
6.216145
 20
25.076344
 11
6.216145
 21
25.076344
  0
POLYLINE
  8
1
  6
CONTINUOUS
 66
     1
  0
VERTEX
  8
1
  6
CONTINUOUS
 10
6.465656
 20
24.825856
  0
VERTEX
  8
1
  6
CONTINUOUS
 10
6.466633
 20
25.325855
  0
VERTEX
  8
1
  6
CONTINUOUS
 10
5.966634
 20
25.326832
  0
VERTEX
  8
1
  6
CONTINUOUS
 10
5.965657
 20
24.826833
  0
VERTEX
  8
1
  6
CONTINUOUS
 10
6.465656
 20
24.825856
  0
SEQEND
  8
1
  6
CONTINUOUS
  0
LINE
  8
1
  6
CONTINUOUS
 10
6.713875
 20
15.361548
 11
6.713875
 21
15.361548
  0
POLYLINE
  8
1
  6
CONTINUOUS
 66
     1
  0
VERTEX
  8
1
  6
CONTINUOUS
 10
6.946719
 20
15.111092
  0
VERTEX
  8
1
  6
CONTINUOUS
 10
6.947697
 20
15.611091
  0
VERTEX
  8
1
  6
CONTINUOUS
 10
6.481031
 20
15.612003
  0
VERTEX
  8
1
  6
CONTINUOUS
 10
6.480054
 20
15.112004
  0
VERTEX
  8
1
  6
CONTINUOUS
 10
6.946719
 20
15.111092
  0
SEQEND
  8
1
  6
CONTINUOUS
  0
LINE
  8
1
  6
CONTINUOUS
 10
36.200094
 20
50.970700
 11
36.200094
 21
50.970700
  0
POLYLINE
  8
1
  6
CONTINUOUS
 66
     1
  0
VERTEX
  8
1
  6
CONTINUOUS
 10
36.352110
 20
50.790571
  0
VERTEX
  8
1
  6
CONTINUOUS
 10
36.380223
 20
51.122717
  0
VERTEX
  8
1
  6
CONTINUOUS
 10
36.048078
 20
51.150830
  0
VERTEX
  8
1
  6
CONTINUOUS
 10
36.019965
 20
50.818684
  0
VERTEX
  8
1
  6
CONTINUOUS
 10
36.352110
 20
50.790571
  0
SEQEND
  8
1
  6
CONTINUOUS
  0
LINE
  8
5
  6
CONTINUOUS
 10
36.380223
 20
51.122717
 11
36.560353
 21
51.274733
  0
LINE
  8
5
  6
CONTINUOUS
 10
36.048078
 20
51.150830
 11
35.896061
 21
51.330959
  0
LINE
  8
5
  6
CONTINUOUS
 10
36.019965
 20
50.818684
 11
35.839835
 21
50.666668
  0
LINE
  8
5
  6
CONTINUOUS
 10
36.352110
 20
50.790571
 11
36.504127
 21
50.610442
  0
LINE
  8
1
  6
CONTINUOUS
 10
47.545812
 20
50.012334
 11
47.545812
 21
50.012334
  0
POLYLINE
  8
1
  6
CONTINUOUS
 66
     1
  0
VERTEX
  8
1
  6
CONTINUOUS
 10
47.697829
 20
49.832204
  0
VERTEX
  8
1
  6
CONTINUOUS
 10
47.725942
 20
50.164350
  0
VERTEX
  8
1
  6
CONTINUOUS
 10
47.393796
 20
50.192463
  0
VERTEX
  8
1
  6
CONTINUOUS
 10
47.365683
 20
49.860317
  0
VERTEX
  8
1
  6
CONTINUOUS
 10
47.697829
 20
49.832204
  0
SEQEND
  8
1
  6
CONTINUOUS
  0
LINE
  8
5
  6
CONTINUOUS
 10
47.725942
 20
50.164350
 11
47.906071
 21
50.316366
  0
LINE
  8
5
  6
CONTINUOUS
 10
47.393796
 20
50.192463
 11
47.241779
 21
50.372592
  0
LINE
  8
5
  6
CONTINUOUS
 10
47.365683
 20
49.860317
 11
47.185554
 21
49.708301
  0
LINE
  8
5
  6
CONTINUOUS
 10
47.697829
 20
49.832204
 11
47.849845
 21
49.652075
  0
LINE
  8
1
  6
CONTINUOUS
 10
58.892699
 20
49.053924
 11
58.892699
 21
49.053924
  0
POLYLINE
  8
1
  6
CONTINUOUS
 66
     1
  0
VERTEX
  8
1
  6
CONTINUOUS
 10
59.044716
 20
48.873795
  0
VERTEX
  8
1
  6
CONTINUOUS
 10
59.072829
 20
49.205941
  0
VERTEX
  8
1
  6
CONTINUOUS
 10
58.740683
 20
49.234054
  0
VERTEX
  8
1
  6
CONTINUOUS
 10
58.712570
 20
48.901908
  0
VERTEX
  8
1
  6
CONTINUOUS
 10
59.044716
 20
48.873795
  0
SEQEND
  8
1
  6
CONTINUOUS
  0
LINE
  8
5
  6
CONTINUOUS
 10
59.072829
 20
49.205941
 11
59.252958
 21
49.357957
  0
LINE
  8
5
  6
CONTINUOUS
 10
58.740683
 20
49.234054
 11
58.588666
 21
49.414183
  0
LINE
  8
5
  6
CONTINUOUS
 10
58.712570
 20
48.901908
 11
58.532441
 21
48.749892
  0
LINE
  8
5
  6
CONTINUOUS
 10
59.044716
 20
48.873795
 11
59.196732
 21
48.693666
  0
LINE
  8
1
  6
CONTINUOUS
 10
40.338653
 20
11.718557
 11
40.338653
 21
11.718557
  0
POLYLINE
  8
1
  6
CONTINUOUS
 66
     1
  0
VERTEX
  8
1
  6
CONTINUOUS
 10
40.773514
 20
11.915918
  0
VERTEX
  8
1
  6
CONTINUOUS
 10
39.943150
 20
11.986201
  0
VERTEX
  8
1
  6
CONTINUOUS
 10
39.903792
 20
11.521197
  0
VERTEX
  8
1
  6
CONTINUOUS
 10
40.734156
 20
11.450914
  0
VERTEX
  8
1
  6
CONTINUOUS
 10
40.773514
 20
11.915918
  0
SEQEND
  8
1
  6
CONTINUOUS
  0
POLYLINE
  8
1
  6
CONTINUOUS
 66
     1
  0
VERTEX
  8
1
  6
CONTINUOUS
 10
40.944829
 20
9.600699
  0
VERTEX
  8
1
  6
CONTINUOUS
 10
40.944829
 20
10.725699
  0
VERTEX
  8
1
  6
CONTINUOUS
 10
40.693999
 20
11.454313
  0
VERTEX
  8
1
  6
CONTINUOUS
 10
40.768356
 20
11.305153
  0
VERTEX
  8
1
  6
CONTINUOUS
 10
40.693999
 20
11.454313
  0
VERTEX
  8
1
  6
CONTINUOUS
 10
40.727217
 20
11.290990
  0
SEQEND
  8
1
  6
CONTINUOUS
  0
LINE
  8
4
  6
CONTINUOUS
 10
96.097882
 20
12.533283
 11
96.845210
 21
12.470028
  0
LINE
  8
4
  6
CONTINUOUS
 10
96.840466
 20
12.413978
 11
96.849954
 21
12.526078
  0
LINE
  8
4
  6
CONTINUOUS
 10
96.840466
 20
12.413978
 11
97.592537
 21
12.406773
  0
LINE
  8
4
  6
CONTINUOUS
 10
96.849954
 20
12.526078
 11
97.592537
 21
12.406773
  0
LINE
  8
4
  6
CONTINUOUS
 10
96.686256
 20
12.370580
 11
96.705232
 21
12.594778
  0
LINE
  8
4
  6
CONTINUOUS
 10
96.592840
 20
12.378487
 11
96.611817
 21
12.602685
  0
LINE
  8
4
  6
CONTINUOUS
 10
96.499424
 20
12.386394
 11
96.518401
 21
12.610592
  0
LINE
  8
4
  6
CONTINUOUS
 10
7.437783
 20
20.037645
 11
6.441346
 21
20.121986
  0
LINE
  8
4
  6
CONTINUOUS
 10
6.449780
 20
20.221629
 11
6.432912
 21
20.022342
  0
LINE
  8
4
  6
CONTINUOUS
 10
6.469709
 20
20.219943
 11
6.452841
 21
20.020655
  0
LINE
  8
4
  6
CONTINUOUS
 10
6.489638
 20
20.218256
 11
6.472769
 21
20.018968
  0
POLYLINE
  8
4
  6
CONTINUOUS
 66
     1
  0
VERTEX
  8
4
  6
CONTINUOUS
 10
7.437783
 20
20.037645
  0
VERTEX
  8
4
  6
CONTINUOUS
 10
96.097882
 20
12.533283
  0
SEQEND
  8
4
  6
CONTINUOUS
  0
LINE
  8
4
  6
CONTINUOUS
 10
96.170977
 20
13.396862
 11
96.918305
 21
13.333607
  0
LINE
  8
4
  6
CONTINUOUS
 10
96.913561
 20
13.277557
 11
96.923049
 21
13.389656
  0
LINE
  8
4
  6
CONTINUOUS
 10
96.913561
 20
13.277557
 11
97.665632
 21
13.270352
  0
LINE
  8
4
  6
CONTINUOUS
 10
96.923049
 20
13.389656
 11
97.665632
 21
13.270352
  0
LINE
  8
4
  6
CONTINUOUS
 10
96.759351
 20
13.234159
 11
96.778327
 21
13.458357
  0
LINE
  8
4
  6
CONTINUOUS
 10
96.665935
 20
13.242066
 11
96.684911
 21
13.466264
  0
LINE
  8
4
  6
CONTINUOUS
 10
96.572519
 20
13.249973
 11
96.591496
 21
13.474171
  0
LINE
  8
4
  6
CONTINUOUS
 10
7.510878
 20
20.901224
 11
6.514441
 21
20.985565
  0
LINE
  8
4
  6
CONTINUOUS
 10
6.522875
 20
21.085208
 11
6.506007
 21
20.885921
  0
LINE
  8
4
  6
CONTINUOUS
 10
6.542804
 20
21.083521
 11
6.525936
 21
20.884234
  0
LINE
  8
4
  6
CONTINUOUS
 10
6.562732
 20
21.081835
 11
6.545864
 21
20.882547
  0
POLYLINE
  8
4
  6
CONTINUOUS
 66
     1
  0
VERTEX
  8
4
  6
CONTINUOUS
 10
7.510878
 20
20.901224
  0
VERTEX
  8
4
  6
CONTINUOUS
 10
96.170977
 20
13.396862
  0
SEQEND
  8
4
  6
CONTINUOUS
  0
LINE
  8
4
  6
CONTINUOUS
 10
96.244072
 20
14.260441
 11
96.991400
 21
14.197186
  0
LINE
  8
4
  6
CONTINUOUS
 10
96.986656
 20
14.141136
 11
96.996144
 21
14.253235
  0
LINE
  8
4
  6
CONTINUOUS
 10
96.986656
 20
14.141136
 11
97.738727
 21
14.133930
  0
LINE
  8
4
  6
CONTINUOUS
 10
96.996144
 20
14.253235
 11
97.738727
 21
14.133930
  0
LINE
  8
4
  6
CONTINUOUS
 10
96.832446
 20
14.097737
 11
96.851422
 21
14.321936
  0
LINE
  8
4
  6
CONTINUOUS
 10
96.739030
 20
14.105644
 11
96.758006
 21
14.329843
  0
LINE
  8
4
  6
CONTINUOUS
 10
96.645614
 20
14.113551
 11
96.664590
 21
14.337750
  0
LINE
  8
4
  6
CONTINUOUS
 10
7.583973
 20
21.764803
 11
6.587536
 21
21.849143
  0
LINE
  8
4
  6
CONTINUOUS
 10
6.595970
 20
21.948787
 11
6.579102
 21
21.749500
  0
LINE
  8
4
  6
CONTINUOUS
 10
6.615899
 20
21.947100
 11
6.599031
 21
21.747813
  0
LINE
  8
4
  6
CONTINUOUS
 10
6.635827
 20
21.945413
 11
6.618959
 21
21.746126
  0
POLYLINE
  8
4
  6
CONTINUOUS
 66
     1
  0
VERTEX
  8
4
  6
CONTINUOUS
 10
7.583973
 20
21.764803
  0
VERTEX
  8
4
  6
CONTINUOUS
 10
96.244072
 20
14.260441
  0
SEQEND
  8
4
  6
CONTINUOUS
  0
LINE
  8
4
  6
CONTINUOUS
 10
96.317167
 20
15.124020
 11
97.064495
 21
15.060764
  0
LINE
  8
4
  6
CONTINUOUS
 10
97.059751
 20
15.004715
 11
97.069239
 21
15.116814
  0
LINE
  8
4
  6
CONTINUOUS
 10
97.059751
 20
15.004715
 11
97.811822
 21
14.997509
  0
LINE
  8
4
  6
CONTINUOUS
 10
97.069239
 20
15.116814
 11
97.811822
 21
14.997509
  0
LINE
  8
4
  6
CONTINUOUS
 10
96.905541
 20
14.961316
 11
96.924517
 21
15.185514
  0
LINE
  8
4
  6
CONTINUOUS
 10
96.812125
 20
14.969223
 11
96.831101
 21
15.193421
  0
LINE
  8
4
  6
CONTINUOUS
 10
96.718709
 20
14.977130
 11
96.737685
 21
15.201328
  0
LINE
  8
4
  6
CONTINUOUS
 10
7.657068
 20
22.628382
 11
6.660631
 21
22.712722
  0
LINE
  8
4
  6
CONTINUOUS
 10
6.669065
 20
22.812366
 11
6.652197
 21
22.613078
  0
LINE
  8
4
  6
CONTINUOUS
 10
6.688994
 20
22.810679
 11
6.672126
 21
22.611391
  0
LINE
  8
4
  6
CONTINUOUS
 10
6.708922
 20
22.808992
 11
6.692054
 21
22.609705
  0
POLYLINE
  8
4
  6
CONTINUOUS
 66
     1
  0
VERTEX
  8
4
  6
CONTINUOUS
 10
7.657068
 20
22.628382
  0
VERTEX
  8
4
  6
CONTINUOUS
 10
96.317167
 20
15.124020
  0
SEQEND
  8
4
  6
CONTINUOUS
  0
LINE
  8
4
  6
CONTINUOUS
 10
96.390262
 20
15.987598
 11
97.137590
 21
15.924343
  0
LINE
  8
4
  6
CONTINUOUS
 10
97.132845
 20
15.868293
 11
97.142334
 21
15.980393
  0
LINE
  8
4
  6
CONTINUOUS
 10
97.132845
 20
15.868293
 11
97.884917
 21
15.861088
  0
LINE
  8
4
  6
CONTINUOUS
 10
97.142334
 20
15.980393
 11
97.884917
 21
15.861088
  0
LINE
  8
4
  6
CONTINUOUS
 10
96.978636
 20
15.824895
 11
96.997612
 21
16.049093
  0
LINE
  8
4
  6
CONTINUOUS
 10
96.885220
 20
15.832802
 11
96.904196
 21
16.057000
  0
LINE
  8
4
  6
CONTINUOUS
 10
96.791804
 20
15.840709
 11
96.810780
 21
16.064907
  0
LINE
  8
4
  6
CONTINUOUS
 10
7.730163
 20
23.491960
 11
6.733726
 21
23.576301
  0
LINE
  8
4
  6
CONTINUOUS
 10
6.742160
 20
23.675944
 11
6.725292
 21
23.476657
  0
LINE
  8
4
  6
CONTINUOUS
 10
6.762089
 20
23.674258
 11
6.745221
 21
23.474970
  0
LINE
  8
4
  6
CONTINUOUS
 10
6.782017
 20
23.672571
 11
6.765149
 21
23.473283
  0
POLYLINE
  8
4
  6
CONTINUOUS
 66
     1
  0
VERTEX
  8
4
  6
CONTINUOUS
 10
7.730163
 20
23.491960
  0
VERTEX
  8
4
  6
CONTINUOUS
 10
96.390262
 20
15.987598
  0
SEQEND
  8
4
  6
CONTINUOUS
  0
LINE
  8
4
  6
CONTINUOUS
 10
96.463357
 20
16.851177
 11
97.210685
 21
16.787922
  0
LINE
  8
4
  6
CONTINUOUS
 10
97.205940
 20
16.731872
 11
97.215429
 21
16.843971
  0
LINE
  8
4
  6
CONTINUOUS
 10
97.205940
 20
16.731872
 11
97.958012
 21
16.724666
  0
LINE
  8
4
  6
CONTINUOUS
 10
97.215429
 20
16.843971
 11
97.958012
 21
16.724666
  0
LINE
  8
4
  6
CONTINUOUS
 10
97.051731
 20
16.688474
 11
97.070707
 21
16.912672
  0
LINE
  8
4
  6
CONTINUOUS
 10
96.958315
 20
16.696381
 11
96.977291
 21
16.920579
  0
LINE
  8
4
  6
CONTINUOUS
 10
96.864899
 20
16.704287
 11
96.883875
 21
16.928486
  0
LINE
  8
4
  6
CONTINUOUS
 10
7.803258
 20
24.355539
 11
6.806821
 21
24.439879
  0
LINE
  8
4
  6
CONTINUOUS
 10
6.815255
 20
24.539523
 11
6.798387
 21
24.340236
  0
LINE
  8
4
  6
CONTINUOUS
 10
6.835184
 20
24.537836
 11
6.818316
 21
24.338549
  0
LINE
  8
4
  6
CONTINUOUS
 10
6.855112
 20
24.536150
 11
6.838244
 21
24.336862
  0
POLYLINE
  8
4
  6
CONTINUOUS
 66
     1
  0
VERTEX
  8
4
  6
CONTINUOUS
 10
7.803258
 20
24.355539
  0
VERTEX
  8
4
  6
CONTINUOUS
 10
96.463357
 20
16.851177
  0
SEQEND
  8
4
  6
CONTINUOUS
  0
LINE
  8
4
  6
CONTINUOUS
 10
96.536452
 20
17.714756
 11
97.283780
 21
17.651500
  0
LINE
  8
4
  6
CONTINUOUS
 10
97.279035
 20
17.595451
 11
97.288524
 21
17.707550
  0
LINE
  8
4
  6
CONTINUOUS
 10
97.279035
 20
17.595451
 11
98.031107
 21
17.588245
  0
LINE
  8
4
  6
CONTINUOUS
 10
97.288524
 20
17.707550
 11
98.031107
 21
17.588245
  0
LINE
  8
4
  6
CONTINUOUS
 10
97.124826
 20
17.552052
 11
97.143802
 21
17.776251
  0
LINE
  8
4
  6
CONTINUOUS
 10
97.031410
 20
17.559959
 11
97.050386
 21
17.784158
  0
LINE
  8
4
  6
CONTINUOUS
 10
96.937994
 20
17.567866
 11
96.956970
 21
17.792065
  0
LINE
  8
4
  6
CONTINUOUS
 10
7.876353
 20
25.219118
 11
6.879916
 21
25.303458
  0
LINE
  8
4
  6
CONTINUOUS
 10
6.888350
 20
25.403102
 11
6.871482
 21
25.203814
  0
LINE
  8
4
  6
CONTINUOUS
 10
6.908279
 20
25.401415
 11
6.891411
 21
25.202128
  0
LINE
  8
4
  6
CONTINUOUS
 10
6.928207
 20
25.399728
 11
6.911339
 21
25.200441
  0
POLYLINE
  8
4
  6
CONTINUOUS
 66
     1
  0
VERTEX
  8
4
  6
CONTINUOUS
 10
7.876353
 20
25.219118
  0
VERTEX
  8
4
  6
CONTINUOUS
 10
96.536452
 20
17.714756
  0
SEQEND
  8
4
  6
CONTINUOUS
  0
LINE
  8
4
  6
CONTINUOUS
 10
96.609547
 20
18.578334
 11
97.356875
 21
18.515079
  0
LINE
  8
4
  6
CONTINUOUS
 10
97.352130
 20
18.459030
 11
97.361619
 21
18.571129
  0
LINE
  8
4
  6
CONTINUOUS
 10
97.352130
 20
18.459030
 11
98.104202
 21
18.451824
  0
LINE
  8
4
  6
CONTINUOUS
 10
97.361619
 20
18.571129
 11
98.104202
 21
18.451824
  0
LINE
  8
4
  6
CONTINUOUS
 10
97.197921
 20
18.415631
 11
97.216897
 21
18.639829
  0
LINE
  8
4
  6
CONTINUOUS
 10
97.104505
 20
18.423538
 11
97.123481
 21
18.647736
  0
LINE
  8
4
  6
CONTINUOUS
 10
97.011089
 20
18.431445
 11
97.030065
 21
18.655643
  0
LINE
  8
4
  6
CONTINUOUS
 10
7.949448
 20
26.082697
 11
6.953011
 21
26.167037
  0
LINE
  8
4
  6
CONTINUOUS
 10
6.961445
 20
26.266681
 11
6.944577
 21
26.067393
  0
LINE
  8
4
  6
CONTINUOUS
 10
6.981374
 20
26.264994
 11
6.964506
 21
26.065706
  0
LINE
  8
4
  6
CONTINUOUS
 10
7.001302
 20
26.263307
 11
6.984434
 21
26.064020
  0
POLYLINE
  8
4
  6
CONTINUOUS
 66
     1
  0
VERTEX
  8
4
  6
CONTINUOUS
 10
7.949448
 20
26.082697
  0
VERTEX
  8
4
  6
CONTINUOUS
 10
96.609547
 20
18.578334
  0
SEQEND
  8
4
  6
CONTINUOUS
  0
LINE
  8
4
  6
CONTINUOUS
 10
96.682642
 20
19.441913
 11
97.429970
 21
19.378658
  0
LINE
  8
4
  6
CONTINUOUS
 10
97.425225
 20
19.322608
 11
97.434714
 21
19.434708
  0
LINE
  8
4
  6
CONTINUOUS
 10
97.425225
 20
19.322608
 11
98.177297
 21
19.315403
  0
LINE
  8
4
  6
CONTINUOUS
 10
97.434714
 20
19.434708
 11
98.177297
 21
19.315403
  0
LINE
  8
4
  6
CONTINUOUS
 10
97.271016
 20
19.279210
 11
97.289992
 21
19.503408
  0
LINE
  8
4
  6
CONTINUOUS
 10
97.177600
 20
19.287117
 11
97.196576
 21
19.511315
  0
LINE
  8
4
  6
CONTINUOUS
 10
97.084184
 20
19.295024
 11
97.103160
 21
19.519222
  0
LINE
  8
4
  6
CONTINUOUS
 10
8.022543
 20
26.946275
 11
7.026106
 21
27.030616
  0
LINE
  8
4
  6
CONTINUOUS
 10
7.034540
 20
27.130259
 11
7.017672
 21
26.930972
  0
LINE
  8
4
  6
CONTINUOUS
 10
7.054469
 20
27.128573
 11
7.037600
 21
26.929285
  0
LINE
  8
4
  6
CONTINUOUS
 10
7.074397
 20
27.126886
 11
7.057529
 21
26.927598
  0
POLYLINE
  8
4
  6
CONTINUOUS
 66
     1
  0
VERTEX
  8
4
  6
CONTINUOUS
 10
8.022543
 20
26.946275
  0
VERTEX
  8
4
  6
CONTINUOUS
 10
96.682642
 20
19.441913
  0
SEQEND
  8
4
  6
CONTINUOUS
  0
LINE
  8
4
  6
CONTINUOUS
 10
96.755737
 20
20.305492
 11
97.503064
 21
20.242237
  0
LINE
  8
4
  6
CONTINUOUS
 10
97.498320
 20
20.186187
 11
97.507809
 21
20.298286
  0
LINE
  8
4
  6
CONTINUOUS
 10
97.498320
 20
20.186187
 11
98.250392
 21
20.178981
  0
LINE
  8
4
  6
CONTINUOUS
 10
97.507809
 20
20.298286
 11
98.250392
 21
20.178981
  0
LINE
  8
4
  6
CONTINUOUS
 10
97.344111
 20
20.142789
 11
97.363087
 21
20.366987
  0
LINE
  8
4
  6
CONTINUOUS
 10
97.250695
 20
20.150696
 11
97.269671
 21
20.374894
  0
LINE
  8
4
  6
CONTINUOUS
 10
97.157279
 20
20.158602
 11
97.176255
 21
20.382801
  0
LINE
  8
4
  6
CONTINUOUS
 10
8.095638
 20
27.809854
 11
7.099201
 21
27.894194
  0
LINE
  8
4
  6
CONTINUOUS
 10
7.107635
 20
27.993838
 11
7.090767
 21
27.794551
  0
LINE
  8
4
  6
CONTINUOUS
 10
7.127564
 20
27.992151
 11
7.110695
 21
27.792864
  0
LINE
  8
4
  6
CONTINUOUS
 10
7.147492
 20
27.990464
 11
7.130624
 21
27.791177
  0
POLYLINE
  8
4
  6
CONTINUOUS
 66
     1
  0
VERTEX
  8
4
  6
CONTINUOUS
 10
8.095638
 20
27.809854
  0
VERTEX
  8
4
  6
CONTINUOUS
 10
96.755737
 20
20.305492
  0
SEQEND
  8
4
  6
CONTINUOUS
  0
LINE
  8
4
  6
CONTINUOUS
 10
96.828832
 20
21.169071
 11
97.576159
 21
21.105815
  0
LINE
  8
4
  6
CONTINUOUS
 10
97.571415
 20
21.049766
 11
97.580904
 21
21.161865
  0
LINE
  8
4
  6
CONTINUOUS
 10
97.571415
 20
21.049766
 11
98.323487
 21
21.042560
  0
LINE
  8
4
  6
CONTINUOUS
 10
97.580904
 20
21.161865
 11
98.323487
 21
21.042560
  0
LINE
  8
4
  6
CONTINUOUS
 10
97.417206
 20
21.006367
 11
97.436182
 21
21.230566
  0
LINE
  8
4
  6
CONTINUOUS
 10
97.323790
 20
21.014274
 11
97.342766
 21
21.238473
  0
LINE
  8
4
  6
CONTINUOUS
 10
97.230374
 20
21.022181
 11
97.249350
 21
21.246379
  0
LINE
  8
4
  6
CONTINUOUS
 10
8.168733
 20
28.673433
 11
7.172296
 21
28.757773
  0
LINE
  8
4
  6
CONTINUOUS
 10
7.180730
 20
28.857417
 11
7.163862
 21
28.658129
  0
LINE
  8
4
  6
CONTINUOUS
 10
7.200659
 20
28.855730
 11
7.183790
 21
28.656443
  0
LINE
  8
4
  6
CONTINUOUS
 10
7.220587
 20
28.854043
 11
7.203719
 21
28.654756
  0
POLYLINE
  8
4
  6
CONTINUOUS
 66
     1
  0
VERTEX
  8
4
  6
CONTINUOUS
 10
8.168733
 20
28.673433
  0
VERTEX
  8
4
  6
CONTINUOUS
 10
96.828832
 20
21.169071
  0
SEQEND
  8
4
  6
CONTINUOUS
  0
LINE
  8
4
  6
CONTINUOUS
 10
96.901927
 20
22.032649
 11
97.649254
 21
21.969394
  0
LINE
  8
4
  6
CONTINUOUS
 10
97.644510
 20
21.913345
 11
97.653999
 21
22.025444
  0
LINE
  8
4
  6
CONTINUOUS
 10
97.644510
 20
21.913345
 11
98.396582
 21
21.906139
  0
LINE
  8
4
  6
CONTINUOUS
 10
97.653999
 20
22.025444
 11
98.396582
 21
21.906139
  0
LINE
  8
4
  6
CONTINUOUS
 10
97.490301
 20
21.869946
 11
97.509277
 21
22.094144
  0
LINE
  8
4
  6
CONTINUOUS
 10
97.396885
 20
21.877853
 11
97.415861
 21
22.102051
  0
LINE
  8
4
  6
CONTINUOUS
 10
97.303469
 20
21.885760
 11
97.322445
 21
22.109958
  0
LINE
  8
4
  6
CONTINUOUS
 10
8.241828
 20
29.537012
 11
7.245391
 21
29.621352
  0
LINE
  8
4
  6
CONTINUOUS
 10
7.253825
 20
29.720996
 11
7.236957
 21
29.521708
  0
LINE
  8
4
  6
CONTINUOUS
 10
7.273753
 20
29.719309
 11
7.256885
 21
29.520021
  0
LINE
  8
4
  6
CONTINUOUS
 10
7.293682
 20
29.717622
 11
7.276814
 21
29.518335
  0
POLYLINE
  8
4
  6
CONTINUOUS
 66
     1
  0
VERTEX
  8
4
  6
CONTINUOUS
 10
8.241828
 20
29.537012
  0
VERTEX
  8
4
  6
CONTINUOUS
 10
96.901927
 20
22.032649
  0
SEQEND
  8
4
  6
CONTINUOUS
  0
LINE
  8
4
  6
CONTINUOUS
 10
95.720575
 20
8.076279
 11
96.467903
 21
8.013024
  0
LINE
  8
4
  6
CONTINUOUS
 10
96.463159
 20
7.956974
 11
96.472647
 21
8.069074
  0
LINE
  8
4
  6
CONTINUOUS
 10
96.463159
 20
7.956974
 11
97.215230
 21
7.949769
  0
LINE
  8
4
  6
CONTINUOUS
 10
96.472647
 20
8.069074
 11
97.215230
 21
7.949769
  0
LINE
  8
4
  6
CONTINUOUS
 10
96.296492
 20
7.914630
 11
96.315469
 21
8.138829
  0
LINE
  8
4
  6
CONTINUOUS
 10
96.171938
 20
7.925173
 11
96.190915
 21
8.149371
  0
LINE
  8
4
  6
CONTINUOUS
 10
7.669508
 20
15.529088
 11
6.673071
 21
15.613428
  0
LINE
  8
4
  6
CONTINUOUS
 10
6.681505
 20
15.713072
 11
6.664637
 21
15.513784
  0
LINE
  8
4
  6
CONTINUOUS
 10
6.701434
 20
15.711385
 11
6.684566
 21
15.512098
  0
LINE
  8
4
  6
CONTINUOUS
 10
6.721362
 20
15.709698
 11
6.704494
 21
15.510411
  0
POLYLINE
  8
4
  6
CONTINUOUS
 66
     1
  0
VERTEX
  8
4
  6
CONTINUOUS
 10
7.669508
 20
15.529088
  0
VERTEX
  8
4
  6
CONTINUOUS
 10
95.720575
 20
8.076279
  0
SEQEND
  8
4
  6
CONTINUOUS
  0
LINE
  8
4
  6
CONTINUOUS
 10
95.852708
 20
9.637364
 11
96.600036
 21
9.574109
  0
LINE
  8
4
  6
CONTINUOUS
 10
96.595292
 20
9.518059
 11
96.604780
 21
9.630158
  0
LINE
  8
4
  6
CONTINUOUS
 10
96.595292
 20
9.518059
 11
97.347364
 21
9.510853
  0
LINE
  8
4
  6
CONTINUOUS
 10
96.604780
 20
9.630158
 11
97.347364
 21
9.510853
  0
LINE
  8
4
  6
CONTINUOUS
 10
96.428626
 20
9.475715
 11
96.447602
 21
9.699913
  0
LINE
  8
4
  6
CONTINUOUS
 10
96.304071
 20
9.486257
 11
96.323048
 21
9.710456
  0
LINE
  8
4
  6
CONTINUOUS
 10
7.801641
 20
17.090173
 11
6.805204
 21
17.174513
  0
LINE
  8
4
  6
CONTINUOUS
 10
6.813638
 20
17.274157
 11
6.796770
 21
17.074869
  0
LINE
  8
4
  6
CONTINUOUS
 10
6.833567
 20
17.272470
 11
6.816699
 21
17.073182
  0
LINE
  8
4
  6
CONTINUOUS
 10
6.853496
 20
17.270783
 11
6.836628
 21
17.071495
  0
POLYLINE
  8
4
  6
CONTINUOUS
 66
     1
  0
VERTEX
  8
4
  6
CONTINUOUS
 10
7.801641
 20
17.090173
  0
VERTEX
  8
4
  6
CONTINUOUS
 10
95.852708
 20
9.637364
  0
SEQEND
  8
4
  6
CONTINUOUS
  0
LINE
  8
4
  6
CONTINUOUS
 10
95.984841
 20
11.198449
 11
96.732169
 21
11.135193
  0
LINE
  8
4
  6
CONTINUOUS
 10
96.727425
 20
11.079144
 11
96.736913
 21
11.191243
  0
LINE
  8
4
  6
CONTINUOUS
 10
96.727425
 20
11.079144
 11
97.479497
 21
11.071938
  0
LINE
  8
4
  6
CONTINUOUS
 10
96.736913
 20
11.191243
 11
97.479497
 21
11.071938
  0
LINE
  8
4
  6
CONTINUOUS
 10
96.560759
 20
11.036800
 11
96.579735
 21
11.260998
  0
LINE
  8
4
  6
CONTINUOUS
 10
96.436205
 20
11.047342
 11
96.455181
 21
11.271540
  0
LINE
  8
4
  6
CONTINUOUS
 10
7.933774
 20
18.651257
 11
6.937337
 21
18.735597
  0
LINE
  8
4
  6
CONTINUOUS
 10
6.945771
 20
18.835241
 11
6.928903
 21
18.635954
  0
LINE
  8
4
  6
CONTINUOUS
 10
6.965700
 20
18.833554
 11
6.948832
 21
18.634267
  0
LINE
  8
4
  6
CONTINUOUS
 10
6.985629
 20
18.831868
 11
6.968761
 21
18.632580
  0
POLYLINE
  8
4
  6
CONTINUOUS
 66
     1
  0
VERTEX
  8
4
  6
CONTINUOUS
 10
7.933774
 20
18.651257
  0
VERTEX
  8
4
  6
CONTINUOUS
 10
95.984841
 20
11.198449
  0
SEQEND
  8
4
  6
CONTINUOUS
  0
LINE
  8
4
  6
CONTINUOUS
 10
96.991643
 20
23.091812
 11
97.738971
 21
23.028556
  0
LINE
  8
4
  6
CONTINUOUS
 10
97.734227
 20
22.972507
 11
97.743715
 21
23.084606
  0
LINE
  8
4
  6
CONTINUOUS
 10
97.734227
 20
22.972507
 11
98.486299
 21
22.965301
  0
LINE
  8
4
  6
CONTINUOUS
 10
97.743715
 20
23.084606
 11
98.486299
 21
22.965301
  0
LINE
  8
4
  6
CONTINUOUS
 10
97.580017
 20
22.929108
 11
97.598994
 21
23.153307
  0
LINE
  8
4
  6
CONTINUOUS
 10
97.486601
 20
22.937015
 11
97.505578
 21
23.161213
  0
LINE
  8
4
  6
CONTINUOUS
 10
97.393185
 20
22.944922
 11
97.412162
 21
23.169120
  0
LINE
  8
4
  6
CONTINUOUS
 10
6.936001
 20
30.714304
 11
5.939564
 21
30.798644
  0
LINE
  8
4
  6
CONTINUOUS
 10
5.947998
 20
30.898288
 11
5.931130
 21
30.699001
  0
LINE
  8
4
  6
CONTINUOUS
 10
5.967927
 20
30.896601
 11
5.951059
 21
30.697314
  0
LINE
  8
4
  6
CONTINUOUS
 10
5.987856
 20
30.894915
 11
5.970988
 21
30.695627
  0
POLYLINE
  8
4
  6
CONTINUOUS
 66
     1
  0
VERTEX
  8
4
  6
CONTINUOUS
 10
6.936001
 20
30.714304
  0
VERTEX
  8
4
  6
CONTINUOUS
 10
96.991643
 20
23.091812
  0
SEQEND
  8
4
  6
CONTINUOUS
  0
LINE
  8
4
  6
CONTINUOUS
 10
97.064738
 20
23.955390
 11
97.812066
 21
23.892135
  0
LINE
  8
4
  6
CONTINUOUS
 10
97.807322
 20
23.836085
 11
97.816810
 21
23.948185
  0
LINE
  8
4
  6
CONTINUOUS
 10
97.807322
 20
23.836085
 11
98.559394
 21
23.828880
  0
LINE
  8
4
  6
CONTINUOUS
 10
97.816810
 20
23.948185
 11
98.559394
 21
23.828880
  0
LINE
  8
4
  6
CONTINUOUS
 10
97.653112
 20
23.792687
 11
97.672089
 21
24.016885
  0
LINE
  8
4
  6
CONTINUOUS
 10
97.559696
 20
23.800594
 11
97.578673
 21
24.024792
  0
LINE
  8
4
  6
CONTINUOUS
 10
97.466280
 20
23.808501
 11
97.485257
 21
24.032699
  0
LINE
  8
4
  6
CONTINUOUS
 10
7.009096
 20
31.577883
 11
6.012659
 21
31.662223
  0
LINE
  8
4
  6
CONTINUOUS
 10
6.021093
 20
31.761867
 11
6.004225
 21
31.562579
  0
LINE
  8
4
  6
CONTINUOUS
 10
6.041022
 20
31.760180
 11
6.024154
 21
31.560893
  0
LINE
  8
4
  6
CONTINUOUS
 10
6.060951
 20
31.758493
 11
6.044083
 21
31.559206
  0
POLYLINE
  8
4
  6
CONTINUOUS
 66
     1
  0
VERTEX
  8
4
  6
CONTINUOUS
 10
7.009096
 20
31.577883
  0
VERTEX
  8
4
  6
CONTINUOUS
 10
97.064738
 20
23.955390
  0
SEQEND
  8
4
  6
CONTINUOUS
  0
LINE
  8
4
  6
CONTINUOUS
 10
97.137833
 20
24.818969
 11
97.885161
 21
24.755714
  0
LINE
  8
4
  6
CONTINUOUS
 10
97.880417
 20
24.699664
 11
97.889905
 21
24.811763
  0
LINE
  8
4
  6
CONTINUOUS
 10
97.880417
 20
24.699664
 11
98.632489
 21
24.692458
  0
LINE
  8
4
  6
CONTINUOUS
 10
97.889905
 20
24.811763
 11
98.632489
 21
24.692458
  0
LINE
  8
4
  6
CONTINUOUS
 10
97.726207
 20
24.656266
 11
97.745184
 21
24.880464
  0
LINE
  8
4
  6
CONTINUOUS
 10
97.632791
 20
24.664173
 11
97.651768
 21
24.888371
  0
LINE
  8
4
  6
CONTINUOUS
 10
97.539375
 20
24.672080
 11
97.558352
 21
24.896278
  0
LINE
  8
4
  6
CONTINUOUS
 10
7.082191
 20
32.441461
 11
6.085754
 21
32.525802
  0
LINE
  8
4
  6
CONTINUOUS
 10
6.094188
 20
32.625446
 11
6.077320
 21
32.426158
  0
LINE
  8
4
  6
CONTINUOUS
 10
6.114117
 20
32.623759
 11
6.097249
 21
32.424471
  0
LINE
  8
4
  6
CONTINUOUS
 10
6.134046
 20
32.622072
 11
6.117178
 21
32.422785
  0
POLYLINE
  8
4
  6
CONTINUOUS
 66
     1
  0
VERTEX
  8
4
  6
CONTINUOUS
 10
7.082191
 20
32.441461
  0
VERTEX
  8
4
  6
CONTINUOUS
 10
97.137833
 20
24.818969
  0
SEQEND
  8
4
  6
CONTINUOUS
  0
LINE
  8
4
  6
CONTINUOUS
 10
97.210928
 20
25.682548
 11
97.958256
 21
25.619293
  0
LINE
  8
4
  6
CONTINUOUS
 10
97.953512
 20
25.563243
 11
97.963000
 21
25.675342
  0
LINE
  8
4
  6
CONTINUOUS
 10
97.953512
 20
25.563243
 11
98.705584
 21
25.556037
  0
LINE
  8
4
  6
CONTINUOUS
 10
97.963000
 20
25.675342
 11
98.705584
 21
25.556037
  0
LINE
  8
4
  6
CONTINUOUS
 10
97.799302
 20
25.519844
 11
97.818279
 21
25.744043
  0
LINE
  8
4
  6
CONTINUOUS
 10
97.705886
 20
25.527751
 11
97.724863
 21
25.751950
  0
LINE
  8
4
  6
CONTINUOUS
 10
97.612470
 20
25.535658
 11
97.631447
 21
25.759857
  0
LINE
  8
4
  6
CONTINUOUS
 10
7.155286
 20
33.305040
 11
6.158849
 21
33.389381
  0
LINE
  8
4
  6
CONTINUOUS
 10
6.167283
 20
33.489024
 11
6.150415
 21
33.289737
  0
LINE
  8
4
  6
CONTINUOUS
 10
6.187212
 20
33.487338
 11
6.170344
 21
33.288050
  0
LINE
  8
4
  6
CONTINUOUS
 10
6.207141
 20
33.485651
 11
6.190273
 21
33.286363
  0
POLYLINE
  8
4
  6
CONTINUOUS
 66
     1
  0
VERTEX
  8
4
  6
CONTINUOUS
 10
7.155286
 20
33.305040
  0
VERTEX
  8
4
  6
CONTINUOUS
 10
97.210928
 20
25.682548
  0
SEQEND
  8
4
  6
CONTINUOUS
  0
LINE
  8
4
  6
CONTINUOUS
 10
97.284023
 20
26.546127
 11
98.031351
 21
26.482871
  0
LINE
  8
4
  6
CONTINUOUS
 10
98.026607
 20
26.426822
 11
98.036095
 21
26.538921
  0
LINE
  8
4
  6
CONTINUOUS
 10
98.026607
 20
26.426822
 11
98.778679
 21
26.419616
  0
LINE
  8
4
  6
CONTINUOUS
 10
98.036095
 20
26.538921
 11
98.778679
 21
26.419616
  0
LINE
  8
4
  6
CONTINUOUS
 10
97.872397
 20
26.383423
 11
97.891374
 21
26.607621
  0
LINE
  8
4
  6
CONTINUOUS
 10
97.778981
 20
26.391330
 11
97.797958
 21
26.615528
  0
LINE
  8
4
  6
CONTINUOUS
 10
97.685565
 20
26.399237
 11
97.704542
 21
26.623435
  0
LINE
  8
4
  6
CONTINUOUS
 10
7.228381
 20
34.168619
 11
6.231944
 21
34.252959
  0
LINE
  8
4
  6
CONTINUOUS
 10
6.240378
 20
34.352603
 11
6.223510
 21
34.153316
  0
LINE
  8
4
  6
CONTINUOUS
 10
6.260307
 20
34.350916
 11
6.243439
 21
34.151629
  0
LINE
  8
4
  6
CONTINUOUS
 10
6.280236
 20
34.349229
 11
6.263368
 21
34.149942
  0
POLYLINE
  8
4
  6
CONTINUOUS
 66
     1
  0
VERTEX
  8
4
  6
CONTINUOUS
 10
7.228381
 20
34.168619
  0
VERTEX
  8
4
  6
CONTINUOUS
 10
97.284023
 20
26.546127
  0
SEQEND
  8
4
  6
CONTINUOUS
  0
LINE
  8
4
  6
CONTINUOUS
 10
97.357118
 20
27.409705
 11
98.104446
 21
27.346450
  0
LINE
  8
4
  6
CONTINUOUS
 10
98.099702
 20
27.290400
 11
98.109190
 21
27.402500
  0
LINE
  8
4
  6
CONTINUOUS
 10
98.099702
 20
27.290400
 11
98.851774
 21
27.283195
  0
LINE
  8
4
  6
CONTINUOUS
 10
98.109190
 20
27.402500
 11
98.851774
 21
27.283195
  0
LINE
  8
4
  6
CONTINUOUS
 10
97.945492
 20
27.247002
 11
97.964469
 21
27.471200
  0
LINE
  8
4
  6
CONTINUOUS
 10
97.852076
 20
27.254909
 11
97.871053
 21
27.479107
  0
LINE
  8
4
  6
CONTINUOUS
 10
97.758660
 20
27.262816
 11
97.777637
 21
27.487014
  0
LINE
  8
4
  6
CONTINUOUS
 10
7.301476
 20
35.032198
 11
6.305039
 21
35.116538
  0
LINE
  8
4
  6
CONTINUOUS
 10
6.313473
 20
35.216182
 11
6.296605
 21
35.016894
  0
LINE
  8
4
  6
CONTINUOUS
 10
6.333402
 20
35.214495
 11
6.316534
 21
35.015208
  0
LINE
  8
4
  6
CONTINUOUS
 10
6.353331
 20
35.212808
 11
6.336463
 21
35.013521
  0
POLYLINE
  8
4
  6
CONTINUOUS
 66
     1
  0
VERTEX
  8
4
  6
CONTINUOUS
 10
7.301476
 20
35.032198
  0
VERTEX
  8
4
  6
CONTINUOUS
 10
97.357118
 20
27.409705
  0
SEQEND
  8
4
  6
CONTINUOUS
  0
LINE
  8
4
  6
CONTINUOUS
 10
97.430213
 20
28.273284
 11
98.177541
 21
28.210029
  0
LINE
  8
4
  6
CONTINUOUS
 10
98.172797
 20
28.153979
 11
98.182285
 21
28.266078
  0
LINE
  8
4
  6
CONTINUOUS
 10
98.172797
 20
28.153979
 11
98.924869
 21
28.146773
  0
LINE
  8
4
  6
CONTINUOUS
 10
98.182285
 20
28.266078
 11
98.924869
 21
28.146773
  0
LINE
  8
4
  6
CONTINUOUS
 10
98.018587
 20
28.110581
 11
98.037564
 21
28.334779
  0
LINE
  8
4
  6
CONTINUOUS
 10
97.925171
 20
28.118488
 11
97.944148
 21
28.342686
  0
LINE
  8
4
  6
CONTINUOUS
 10
97.831755
 20
28.126394
 11
97.850732
 21
28.350593
  0
LINE
  8
4
  6
CONTINUOUS
 10
7.374571
 20
35.895776
 11
6.378134
 21
35.980117
  0
LINE
  8
4
  6
CONTINUOUS
 10
6.386568
 20
36.079761
 11
6.369700
 21
35.880473
  0
LINE
  8
4
  6
CONTINUOUS
 10
6.406497
 20
36.078074
 11
6.389629
 21
35.878786
  0
LINE
  8
4
  6
CONTINUOUS
 10
6.426426
 20
36.076387
 11
6.409558
 21
35.877100
  0
POLYLINE
  8
4
  6
CONTINUOUS
 66
     1
  0
VERTEX
  8
4
  6
CONTINUOUS
 10
7.374571
 20
35.895776
  0
VERTEX
  8
4
  6
CONTINUOUS
 10
97.430213
 20
28.273284
  0
SEQEND
  8
4
  6
CONTINUOUS
  0
LINE
  8
4
  6
CONTINUOUS
 10
97.503308
 20
29.136863
 11
98.250636
 21
29.073607
  0
LINE
  8
4
  6
CONTINUOUS
 10
98.245892
 20
29.017558
 11
98.255380
 21
29.129657
  0
LINE
  8
4
  6
CONTINUOUS
 10
98.245892
 20
29.017558
 11
98.997964
 21
29.010352
  0
LINE
  8
4
  6
CONTINUOUS
 10
98.255380
 20
29.129657
 11
98.997964
 21
29.010352
  0
LINE
  8
4
  6
CONTINUOUS
 10
98.091682
 20
28.974159
 11
98.110659
 21
29.198358
  0
LINE
  8
4
  6
CONTINUOUS
 10
97.998266
 20
28.982066
 11
98.017243
 21
29.206265
  0
LINE
  8
4
  6
CONTINUOUS
 10
97.904850
 20
28.989973
 11
97.923827
 21
29.214172
  0
LINE
  8
4
  6
CONTINUOUS
 10
7.447667
 20
36.759355
 11
6.451230
 21
36.843696
  0
LINE
  8
4
  6
CONTINUOUS
 10
6.459664
 20
36.943339
 11
6.442795
 21
36.744052
  0
LINE
  8
4
  6
CONTINUOUS
 10
6.479592
 20
36.941652
 11
6.462724
 21
36.742365
  0
LINE
  8
4
  6
CONTINUOUS
 10
6.499521
 20
36.939966
 11
6.482653
 21
36.740678
  0
POLYLINE
  8
4
  6
CONTINUOUS
 66
     1
  0
VERTEX
  8
4
  6
CONTINUOUS
 10
7.447667
 20
36.759355
  0
VERTEX
  8
4
  6
CONTINUOUS
 10
97.503308
 20
29.136863
  0
SEQEND
  8
4
  6
CONTINUOUS
  0
LINE
  8
4
  6
CONTINUOUS
 10
97.576403
 20
30.000442
 11
98.323731
 21
29.937186
  0
LINE
  8
4
  6
CONTINUOUS
 10
98.318987
 20
29.881137
 11
98.328475
 21
29.993236
  0
LINE
  8
4
  6
CONTINUOUS
 10
98.318987
 20
29.881137
 11
99.071059
 21
29.873931
  0
LINE
  8
4
  6
CONTINUOUS
 10
98.328475
 20
29.993236
 11
99.071059
 21
29.873931
  0
LINE
  8
4
  6
CONTINUOUS
 10
98.164777
 20
29.837738
 11
98.183754
 21
30.061936
  0
LINE
  8
4
  6
CONTINUOUS
 10
98.071361
 20
29.845645
 11
98.090338
 21
30.069843
  0
LINE
  8
4
  6
CONTINUOUS
 10
97.977945
 20
29.853552
 11
97.996922
 21
30.077750
  0
LINE
  8
4
  6
CONTINUOUS
 10
7.520762
 20
37.622934
 11
6.524325
 21
37.707274
  0
LINE
  8
4
  6
CONTINUOUS
 10
6.532759
 20
37.806918
 11
6.515891
 21
37.607631
  0
LINE
  8
4
  6
CONTINUOUS
 10
6.552687
 20
37.805231
 11
6.535819
 21
37.605944
  0
LINE
  8
4
  6
CONTINUOUS
 10
6.572616
 20
37.803544
 11
6.555748
 21
37.604257
  0
POLYLINE
  8
4
  6
CONTINUOUS
 66
     1
  0
VERTEX
  8
4
  6
CONTINUOUS
 10
7.520762
 20
37.622934
  0
VERTEX
  8
4
  6
CONTINUOUS
 10
97.576403
 20
30.000442
  0
SEQEND
  8
4
  6
CONTINUOUS
  0
LINE
  8
4
  6
CONTINUOUS
 10
97.649499
 20
30.864020
 11
98.396826
 21
30.800765
  0
LINE
  8
4
  6
CONTINUOUS
 10
98.392082
 20
30.744715
 11
98.401570
 21
30.856814
  0
LINE
  8
4
  6
CONTINUOUS
 10
98.392082
 20
30.744715
 11
99.144154
 21
30.737510
  0
LINE
  8
4
  6
CONTINUOUS
 10
98.401570
 20
30.856814
 11
99.144154
 21
30.737510
  0
LINE
  8
4
  6
CONTINUOUS
 10
98.237872
 20
30.701317
 11
98.256849
 21
30.925515
  0
LINE
  8
4
  6
CONTINUOUS
 10
98.144456
 20
30.709224
 11
98.163433
 21
30.933422
  0
LINE
  8
4
  6
CONTINUOUS
 10
98.051041
 20
30.717131
 11
98.070017
 21
30.941329
  0
LINE
  8
4
  6
CONTINUOUS
 10
7.593857
 20
38.486513
 11
6.597420
 21
38.570853
  0
LINE
  8
4
  6
CONTINUOUS
 10
6.605854
 20
38.670497
 11
6.588986
 21
38.471209
  0
LINE
  8
4
  6
CONTINUOUS
 10
6.625782
 20
38.668810
 11
6.608914
 21
38.469523
  0
LINE
  8
4
  6
CONTINUOUS
 10
6.645711
 20
38.667123
 11
6.628843
 21
38.467836
  0
POLYLINE
  8
4
  6
CONTINUOUS
 66
     1
  0
VERTEX
  8
4
  6
CONTINUOUS
 10
7.593857
 20
38.486513
  0
VERTEX
  8
4
  6
CONTINUOUS
 10
97.649499
 20
30.864020
  0
SEQEND
  8
4
  6
CONTINUOUS
  0
LINE
  8
4
  6
CONTINUOUS
 10
97.722594
 20
31.727599
 11
98.469921
 21
31.664344
  0
LINE
  8
4
  6
CONTINUOUS
 10
98.465177
 20
31.608294
 11
98.474666
 21
31.720393
  0
LINE
  8
4
  6
CONTINUOUS
 10
98.465177
 20
31.608294
 11
99.217249
 21
31.601088
  0
LINE
  8
4
  6
CONTINUOUS
 10
98.474666
 20
31.720393
 11
99.217249
 21
31.601088
  0
LINE
  8
4
  6
CONTINUOUS
 10
98.310968
 20
31.564896
 11
98.329944
 21
31.789094
  0
LINE
  8
4
  6
CONTINUOUS
 10
98.217552
 20
31.572802
 11
98.236528
 21
31.797001
  0
LINE
  8
4
  6
CONTINUOUS
 10
98.124136
 20
31.580709
 11
98.143112
 21
31.804908
  0
LINE
  8
4
  6
CONTINUOUS
 10
7.666952
 20
39.350091
 11
6.670515
 21
39.434432
  0
LINE
  8
4
  6
CONTINUOUS
 10
6.678949
 20
39.534075
 11
6.662081
 21
39.334788
  0
LINE
  8
4
  6
CONTINUOUS
 10
6.698877
 20
39.532389
 11
6.682009
 21
39.333101
  0
LINE
  8
4
  6
CONTINUOUS
 10
6.718806
 20
39.530702
 11
6.701938
 21
39.331414
  0
POLYLINE
  8
4
  6
CONTINUOUS
 66
     1
  0
VERTEX
  8
4
  6
CONTINUOUS
 10
7.666952
 20
39.350091
  0
VERTEX
  8
4
  6
CONTINUOUS
 10
97.722594
 20
31.727599
  0
SEQEND
  8
4
  6
CONTINUOUS
  0
LINE
  8
4
  6
CONTINUOUS
 10
97.795689
 20
32.591178
 11
98.543016
 21
32.527922
  0
LINE
  8
4
  6
CONTINUOUS
 10
98.538272
 20
32.471873
 11
98.547761
 21
32.583972
  0
LINE
  8
4
  6
CONTINUOUS
 10
98.538272
 20
32.471873
 11
99.290344
 21
32.464667
  0
LINE
  8
4
  6
CONTINUOUS
 10
98.547761
 20
32.583972
 11
99.290344
 21
32.464667
  0
LINE
  8
4
  6
CONTINUOUS
 10
98.384063
 20
32.428474
 11
98.403039
 21
32.652673
  0
LINE
  8
4
  6
CONTINUOUS
 10
98.290647
 20
32.436381
 11
98.309623
 21
32.660580
  0
LINE
  8
4
  6
CONTINUOUS
 10
98.197231
 20
32.444288
 11
98.216207
 21
32.668486
  0
LINE
  8
4
  6
CONTINUOUS
 10
7.740047
 20
40.213670
 11
6.743610
 21
40.298010
  0
LINE
  8
4
  6
CONTINUOUS
 10
6.752044
 20
40.397654
 11
6.735176
 21
40.198367
  0
LINE
  8
4
  6
CONTINUOUS
 10
6.771973
 20
40.395967
 11
6.755104
 21
40.196680
  0
LINE
  8
4
  6
CONTINUOUS
 10
6.791901
 20
40.394281
 11
6.775033
 21
40.194993
  0
POLYLINE
  8
4
  6
CONTINUOUS
 66
     1
  0
VERTEX
  8
4
  6
CONTINUOUS
 10
7.740047
 20
40.213670
  0
VERTEX
  8
4
  6
CONTINUOUS
 10
97.795689
 20
32.591178
  0
SEQEND
  8
4
  6
CONTINUOUS
  0
LINE
  8
4
  6
CONTINUOUS
 10
97.879552
 20
33.581188
 11
98.626879
 21
33.517933
  0
LINE
  8
4
  6
CONTINUOUS
 10
98.622135
 20
33.461883
 11
98.631624
 21
33.573982
  0
LINE
  8
4
  6
CONTINUOUS
 10
98.622135
 20
33.461883
 11
99.374207
 21
33.454677
  0
LINE
  8
4
  6
CONTINUOUS
 10
98.631624
 20
33.573982
 11
99.374207
 21
33.454677
  0
LINE
  8
4
  6
CONTINUOUS
 10
98.467926
 20
33.418485
 11
98.486902
 21
33.642683
  0
LINE
  8
4
  6
CONTINUOUS
 10
98.374510
 20
33.426392
 11
98.393486
 21
33.650590
  0
LINE
  8
4
  6
CONTINUOUS
 10
98.281094
 20
33.434299
 11
98.300070
 21
33.658497
  0
LINE
  8
4
  6
CONTINUOUS
 10
6.946637
 20
41.277940
 11
5.950200
 21
41.362281
  0
LINE
  8
4
  6
CONTINUOUS
 10
5.958634
 20
41.461924
 11
5.941766
 21
41.262637
  0
LINE
  8
4
  6
CONTINUOUS
 10
5.978563
 20
41.460237
 11
5.961695
 21
41.260950
  0
LINE
  8
4
  6
CONTINUOUS
 10
5.998492
 20
41.458551
 11
5.981624
 21
41.259263
  0
POLYLINE
  8
4
  6
CONTINUOUS
 66
     1
  0
VERTEX
  8
4
  6
CONTINUOUS
 10
6.946637
 20
41.277940
  0
VERTEX
  8
4
  6
CONTINUOUS
 10
97.879552
 20
33.581188
  0
SEQEND
  8
4
  6
CONTINUOUS
  0
LINE
  8
4
  6
CONTINUOUS
 10
97.954052
 20
34.461374
 11
98.701380
 21
34.398119
  0
LINE
  8
4
  6
CONTINUOUS
 10
98.696636
 20
34.342069
 11
98.706124
 21
34.454168
  0
LINE
  8
4
  6
CONTINUOUS
 10
98.696636
 20
34.342069
 11
99.448708
 21
34.334863
  0
LINE
  8
4
  6
CONTINUOUS
 10
98.706124
 20
34.454168
 11
99.448708
 21
34.334863
  0
LINE
  8
4
  6
CONTINUOUS
 10
98.542426
 20
34.298671
 11
98.561403
 21
34.522869
  0
LINE
  8
4
  6
CONTINUOUS
 10
98.449010
 20
34.306578
 11
98.467987
 21
34.530776
  0
LINE
  8
4
  6
CONTINUOUS
 10
98.355594
 20
34.314485
 11
98.374571
 21
34.538683
  0
LINE
  8
4
  6
CONTINUOUS
 10
7.021138
 20
42.158126
 11
6.024701
 21
42.242467
  0
LINE
  8
4
  6
CONTINUOUS
 10
6.033135
 20
42.342110
 11
6.016267
 21
42.142823
  0
LINE
  8
4
  6
CONTINUOUS
 10
6.053064
 20
42.340423
 11
6.036196
 21
42.141136
  0
LINE
  8
4
  6
CONTINUOUS
 10
6.072993
 20
42.338737
 11
6.056125
 21
42.139449
  0
POLYLINE
  8
4
  6
CONTINUOUS
 66
     1
  0
VERTEX
  8
4
  6
CONTINUOUS
 10
7.021138
 20
42.158126
  0
VERTEX
  8
4
  6
CONTINUOUS
 10
97.954052
 20
34.461374
  0
SEQEND
  8
4
  6
CONTINUOUS
  0
LINE
  8
4
  6
CONTINUOUS
 10
98.028553
 20
35.341560
 11
98.775881
 21
35.278305
  0
LINE
  8
4
  6
CONTINUOUS
 10
98.771137
 20
35.222255
 11
98.780625
 21
35.334354
  0
LINE
  8
4
  6
CONTINUOUS
 10
98.771137
 20
35.222255
 11
99.523209
 21
35.215049
  0
LINE
  8
4
  6
CONTINUOUS
 10
98.780625
 20
35.334354
 11
99.523209
 21
35.215049
  0
LINE
  8
4
  6
CONTINUOUS
 10
98.616927
 20
35.178857
 11
98.635904
 21
35.403055
  0
LINE
  8
4
  6
CONTINUOUS
 10
98.523511
 20
35.186764
 11
98.542488
 21
35.410962
  0
LINE
  8
4
  6
CONTINUOUS
 10
98.430095
 20
35.194671
 11
98.449072
 21
35.418869
  0
LINE
  8
4
  6
CONTINUOUS
 10
7.095639
 20
43.038312
 11
6.099202
 21
43.122653
  0
LINE
  8
4
  6
CONTINUOUS
 10
6.107636
 20
43.222296
 11
6.090768
 21
43.023009
  0
LINE
  8
4
  6
CONTINUOUS
 10
6.127565
 20
43.220609
 11
6.110697
 21
43.021322
  0
LINE
  8
4
  6
CONTINUOUS
 10
6.147493
 20
43.218923
 11
6.130625
 21
43.019635
  0
POLYLINE
  8
4
  6
CONTINUOUS
 66
     1
  0
VERTEX
  8
4
  6
CONTINUOUS
 10
7.095639
 20
43.038312
  0
VERTEX
  8
4
  6
CONTINUOUS
 10
98.028553
 20
35.341560
  0
SEQEND
  8
4
  6
CONTINUOUS
  0
LINE
  8
4
  6
CONTINUOUS
 10
98.103054
 20
36.221746
 11
98.850382
 21
36.158491
  0
LINE
  8
4
  6
CONTINUOUS
 10
98.845638
 20
36.102441
 11
98.855126
 21
36.214540
  0
LINE
  8
4
  6
CONTINUOUS
 10
98.845638
 20
36.102441
 11
99.597710
 21
36.095235
  0
LINE
  8
4
  6
CONTINUOUS
 10
98.855126
 20
36.214540
 11
99.597710
 21
36.095235
  0
LINE
  8
4
  6
CONTINUOUS
 10
98.691428
 20
36.059043
 11
98.710405
 21
36.283241
  0
LINE
  8
4
  6
CONTINUOUS
 10
98.598012
 20
36.066950
 11
98.616989
 21
36.291148
  0
LINE
  8
4
  6
CONTINUOUS
 10
98.504596
 20
36.074857
 11
98.523573
 21
36.299055
  0
LINE
  8
4
  6
CONTINUOUS
 10
7.170140
 20
43.918498
 11
6.173703
 21
44.002839
  0
LINE
  8
4
  6
CONTINUOUS
 10
6.182137
 20
44.102482
 11
6.165269
 21
43.903195
  0
LINE
  8
4
  6
CONTINUOUS
 10
6.202065
 20
44.100795
 11
6.185197
 21
43.901508
  0
LINE
  8
4
  6
CONTINUOUS
 10
6.221994
 20
44.099109
 11
6.205126
 21
43.899821
  0
POLYLINE
  8
4
  6
CONTINUOUS
 66
     1
  0
VERTEX
  8
4
  6
CONTINUOUS
 10
7.170140
 20
43.918498
  0
VERTEX
  8
4
  6
CONTINUOUS
 10
98.103054
 20
36.221746
  0
SEQEND
  8
4
  6
CONTINUOUS
  0
LINE
  8
4
  6
CONTINUOUS
 10
98.177555
 20
37.101932
 11
98.924883
 21
37.038677
  0
LINE
  8
4
  6
CONTINUOUS
 10
98.920138
 20
36.982627
 11
98.929627
 21
37.094726
  0
LINE
  8
4
  6
CONTINUOUS
 10
98.920138
 20
36.982627
 11
99.672210
 21
36.975421
  0
LINE
  8
4
  6
CONTINUOUS
 10
98.929627
 20
37.094726
 11
99.672210
 21
36.975421
  0
LINE
  8
4
  6
CONTINUOUS
 10
98.765929
 20
36.939229
 11
98.784905
 21
37.163427
  0
LINE
  8
4
  6
CONTINUOUS
 10
98.672513
 20
36.947136
 11
98.691489
 21
37.171334
  0
LINE
  8
4
  6
CONTINUOUS
 10
98.579097
 20
36.955043
 11
98.598073
 21
37.179241
  0
LINE
  8
4
  6
CONTINUOUS
 10
7.244640
 20
44.798684
 11
6.248203
 21
44.883025
  0
LINE
  8
4
  6
CONTINUOUS
 10
6.256638
 20
44.982668
 11
6.239769
 21
44.783381
  0
LINE
  8
4
  6
CONTINUOUS
 10
6.276566
 20
44.980981
 11
6.259698
 21
44.781694
  0
LINE
  8
4
  6
CONTINUOUS
 10
6.296495
 20
44.979295
 11
6.279627
 21
44.780007
  0
POLYLINE
  8
4
  6
CONTINUOUS
 66
     1
  0
VERTEX
  8
4
  6
CONTINUOUS
 10
7.244640
 20
44.798684
  0
VERTEX
  8
4
  6
CONTINUOUS
 10
98.177555
 20
37.101932
  0
SEQEND
  8
4
  6
CONTINUOUS
  0
LINE
  8
4
  6
CONTINUOUS
 10
98.252056
 20
37.982118
 11
98.999383
 21
37.918863
  0
LINE
  8
4
  6
CONTINUOUS
 10
98.994639
 20
37.862813
 11
99.004128
 21
37.974912
  0
LINE
  8
4
  6
CONTINUOUS
 10
98.994639
 20
37.862813
 11
99.746711
 21
37.855607
  0
LINE
  8
4
  6
CONTINUOUS
 10
99.004128
 20
37.974912
 11
99.746711
 21
37.855607
  0
LINE
  8
4
  6
CONTINUOUS
 10
98.840429
 20
37.819415
 11
98.859406
 21
38.043613
  0
LINE
  8
4
  6
CONTINUOUS
 10
98.747014
 20
37.827322
 11
98.765990
 21
38.051520
  0
LINE
  8
4
  6
CONTINUOUS
 10
98.653598
 20
37.835229
 11
98.672574
 21
38.059427
  0
LINE
  8
4
  6
CONTINUOUS
 10
7.319141
 20
45.678870
 11
6.322704
 21
45.763211
  0
LINE
  8
4
  6
CONTINUOUS
 10
6.331138
 20
45.862854
 11
6.314270
 21
45.663567
  0
LINE
  8
4
  6
CONTINUOUS
 10
6.351067
 20
45.861167
 11
6.334199
 21
45.661880
  0
LINE
  8
4
  6
CONTINUOUS
 10
6.370996
 20
45.859481
 11
6.354128
 21
45.660193
  0
POLYLINE
  8
4
  6
CONTINUOUS
 66
     1
  0
VERTEX
  8
4
  6
CONTINUOUS
 10
7.319141
 20
45.678870
  0
VERTEX
  8
4
  6
CONTINUOUS
 10
98.252056
 20
37.982118
  0
SEQEND
  8
4
  6
CONTINUOUS
  0
LINE
  8
4
  6
CONTINUOUS
 10
98.326556
 20
38.862304
 11
99.073884
 21
38.799049
  0
LINE
  8
4
  6
CONTINUOUS
 10
99.069140
 20
38.742999
 11
99.078628
 21
38.855098
  0
LINE
  8
4
  6
CONTINUOUS
 10
99.069140
 20
38.742999
 11
99.821212
 21
38.735793
  0
LINE
  8
4
  6
CONTINUOUS
 10
99.078628
 20
38.855098
 11
99.821212
 21
38.735793
  0
LINE
  8
4
  6
CONTINUOUS
 10
98.914930
 20
38.699601
 11
98.933907
 21
38.923799
  0
LINE
  8
4
  6
CONTINUOUS
 10
98.821514
 20
38.707508
 11
98.840491
 21
38.931706
  0
LINE
  8
4
  6
CONTINUOUS
 10
98.728098
 20
38.715415
 11
98.747075
 21
38.939613
  0
LINE
  8
4
  6
CONTINUOUS
 10
7.393642
 20
46.559056
 11
6.397205
 21
46.643397
  0
LINE
  8
4
  6
CONTINUOUS
 10
6.405639
 20
46.743040
 11
6.388771
 21
46.543753
  0
LINE
  8
4
  6
CONTINUOUS
 10
6.425568
 20
46.741353
 11
6.408700
 21
46.542066
  0
LINE
  8
4
  6
CONTINUOUS
 10
6.445497
 20
46.739667
 11
6.428628
 21
46.540379
  0
POLYLINE
  8
4
  6
CONTINUOUS
 66
     1
  0
VERTEX
  8
4
  6
CONTINUOUS
 10
7.393642
 20
46.559056
  0
VERTEX
  8
4
  6
CONTINUOUS
 10
98.326556
 20
38.862304
  0
SEQEND
  8
4
  6
CONTINUOUS
  0
LINE
  8
4
  6
CONTINUOUS
 10
98.401057
 20
39.742490
 11
99.148385
 21
39.679235
  0
LINE
  8
4
  6
CONTINUOUS
 10
99.143641
 20
39.623185
 11
99.153129
 21
39.735284
  0
LINE
  8
4
  6
CONTINUOUS
 10
99.143641
 20
39.623185
 11
99.895713
 21
39.615979
  0
LINE
  8
4
  6
CONTINUOUS
 10
99.153129
 20
39.735284
 11
99.895713
 21
39.615979
  0
LINE
  8
4
  6
CONTINUOUS
 10
98.989431
 20
39.579787
 11
99.008408
 21
39.803985
  0
LINE
  8
4
  6
CONTINUOUS
 10
98.896015
 20
39.587694
 11
98.914992
 21
39.811892
  0
LINE
  8
4
  6
CONTINUOUS
 10
98.802599
 20
39.595601
 11
98.821576
 21
39.819799
  0
LINE
  8
4
  6
CONTINUOUS
 10
7.468143
 20
47.439242
 11
6.471706
 21
47.523583
  0
LINE
  8
4
  6
CONTINUOUS
 10
6.480140
 20
47.623226
 11
6.463272
 21
47.423939
  0
LINE
  8
4
  6
CONTINUOUS
 10
6.500069
 20
47.621539
 11
6.483201
 21
47.422252
  0
LINE
  8
4
  6
CONTINUOUS
 10
6.519997
 20
47.619853
 11
6.503129
 21
47.420565
  0
POLYLINE
  8
4
  6
CONTINUOUS
 66
     1
  0
VERTEX
  8
4
  6
CONTINUOUS
 10
7.468143
 20
47.439242
  0
VERTEX
  8
4
  6
CONTINUOUS
 10
98.401057
 20
39.742490
  0
SEQEND
  8
4
  6
CONTINUOUS
  0
LINE
  8
4
  6
CONTINUOUS
 10
98.475558
 20
40.622676
 11
99.222886
 21
40.559421
  0
LINE
  8
4
  6
CONTINUOUS
 10
99.218142
 20
40.503371
 11
99.227630
 21
40.615470
  0
LINE
  8
4
  6
CONTINUOUS
 10
99.218142
 20
40.503371
 11
99.970213
 21
40.496165
  0
LINE
  8
4
  6
CONTINUOUS
 10
99.227630
 20
40.615470
 11
99.970213
 21
40.496165
  0
LINE
  8
4
  6
CONTINUOUS
 10
99.063932
 20
40.459973
 11
99.082908
 21
40.684171
  0
LINE
  8
4
  6
CONTINUOUS
 10
98.970516
 20
40.467880
 11
98.989492
 21
40.692078
  0
LINE
  8
4
  6
CONTINUOUS
 10
98.877100
 20
40.475787
 11
98.896077
 21
40.699985
  0
LINE
  8
4
  6
CONTINUOUS
 10
7.542644
 20
48.319428
 11
6.546207
 21
48.403769
  0
LINE
  8
4
  6
CONTINUOUS
 10
6.554641
 20
48.503412
 11
6.537773
 21
48.304125
  0
LINE
  8
4
  6
CONTINUOUS
 10
6.574569
 20
48.501725
 11
6.557701
 21
48.302438
  0
LINE
  8
4
  6
CONTINUOUS
 10
6.594498
 20
48.500039
 11
6.577630
 21
48.300751
  0
POLYLINE
  8
4
  6
CONTINUOUS
 66
     1
  0
VERTEX
  8
4
  6
CONTINUOUS
 10
7.542644
 20
48.319428
  0
VERTEX
  8
4
  6
CONTINUOUS
 10
98.475558
 20
40.622676
  0
SEQEND
  8
4
  6
CONTINUOUS
  0
LINE
  8
4
  6
CONTINUOUS
 10
98.550059
 20
41.502862
 11
99.297386
 21
41.439607
  0
LINE
  8
4
  6
CONTINUOUS
 10
99.292642
 20
41.383557
 11
99.302131
 21
41.495656
  0
LINE
  8
4
  6
CONTINUOUS
 10
99.292642
 20
41.383557
 11
100.044714
 21
41.376351
  0
LINE
  8
4
  6
CONTINUOUS
 10
99.302131
 20
41.495656
 11
100.044714
 21
41.376351
  0
LINE
  8
4
  6
CONTINUOUS
 10
99.138433
 20
41.340159
 11
99.157409
 21
41.564357
  0
LINE
  8
4
  6
CONTINUOUS
 10
99.045017
 20
41.348066
 11
99.063993
 21
41.572264
  0
LINE
  8
4
  6
CONTINUOUS
 10
98.951601
 20
41.355973
 11
98.970577
 21
41.580171
  0
LINE
  8
4
  6
CONTINUOUS
 10
7.617144
 20
49.199614
 11
6.620707
 21
49.283955
  0
LINE
  8
4
  6
CONTINUOUS
 10
6.629141
 20
49.383598
 11
6.612273
 21
49.184311
  0
LINE
  8
4
  6
CONTINUOUS
 10
6.649070
 20
49.381911
 11
6.632202
 21
49.182624
  0
LINE
  8
4
  6
CONTINUOUS
 10
6.668999
 20
49.380225
 11
6.652131
 21
49.180937
  0
POLYLINE
  8
4
  6
CONTINUOUS
 66
     1
  0
VERTEX
  8
4
  6
CONTINUOUS
 10
7.617144
 20
49.199614
  0
VERTEX
  8
4
  6
CONTINUOUS
 10
98.550059
 20
41.502862
  0
SEQEND
  8
4
  6
CONTINUOUS
  0
LINE
  8
4
  6
CONTINUOUS
 10
98.624560
 20
42.383048
 11
99.371887
 21
42.319793
  0
LINE
  8
4
  6
CONTINUOUS
 10
99.367143
 20
42.263743
 11
99.376631
 21
42.375842
  0
LINE
  8
4
  6
CONTINUOUS
 10
99.367143
 20
42.263743
 11
100.119215
 21
42.256537
  0
LINE
  8
4
  6
CONTINUOUS
 10
99.376631
 20
42.375842
 11
100.119215
 21
42.256537
  0
LINE
  8
4
  6
CONTINUOUS
 10
99.212933
 20
42.220345
 11
99.231910
 21
42.444543
  0
LINE
  8
4
  6
CONTINUOUS
 10
99.119517
 20
42.228252
 11
99.138494
 21
42.452450
  0
LINE
  8
4
  6
CONTINUOUS
 10
99.026101
 20
42.236159
 11
99.045078
 21
42.460357
  0
LINE
  8
4
  6
CONTINUOUS
 10
7.691645
 20
50.079800
 11
6.695208
 21
50.164141
  0
LINE
  8
4
  6
CONTINUOUS
 10
6.703642
 20
50.263784
 11
6.686774
 21
50.064497
  0
LINE
  8
4
  6
CONTINUOUS
 10
6.723571
 20
50.262097
 11
6.706703
 21
50.062810
  0
LINE
  8
4
  6
CONTINUOUS
 10
6.743500
 20
50.260411
 11
6.726632
 21
50.061123
  0
POLYLINE
  8
4
  6
CONTINUOUS
 66
     1
  0
VERTEX
  8
4
  6
CONTINUOUS
 10
7.691645
 20
50.079800
  0
VERTEX
  8
4
  6
CONTINUOUS
 10
98.624560
 20
42.383048
  0
SEQEND
  8
4
  6
CONTINUOUS
  0
LINE
  8
4
  6
CONTINUOUS
 10
98.699060
 20
43.263234
 11
99.446388
 21
43.199979
  0
LINE
  8
4
  6
CONTINUOUS
 10
99.441644
 20
43.143929
 11
99.451132
 21
43.256028
  0
LINE
  8
4
  6
CONTINUOUS
 10
99.441644
 20
43.143929
 11
100.193716
 21
43.136723
  0
LINE
  8
4
  6
CONTINUOUS
 10
99.451132
 20
43.256028
 11
100.193716
 21
43.136723
  0
LINE
  8
4
  6
CONTINUOUS
 10
99.287434
 20
43.100531
 11
99.306411
 21
43.324729
  0
LINE
  8
4
  6
CONTINUOUS
 10
99.194018
 20
43.108438
 11
99.212995
 21
43.332636
  0
LINE
  8
4
  6
CONTINUOUS
 10
99.100602
 20
43.116345
 11
99.119579
 21
43.340543
  0
LINE
  8
4
  6
CONTINUOUS
 10
7.766146
 20
50.959986
 11
6.769709
 21
51.044327
  0
LINE
  8
4
  6
CONTINUOUS
 10
6.778143
 20
51.143970
 11
6.761275
 21
50.944683
  0
LINE
  8
4
  6
CONTINUOUS
 10
6.798072
 20
51.142284
 11
6.781204
 21
50.942996
  0
LINE
  8
4
  6
CONTINUOUS
 10
6.818000
 20
51.140597
 11
6.801132
 21
50.941309
  0
POLYLINE
  8
4
  6
CONTINUOUS
 66
     1
  0
VERTEX
  8
4
  6
CONTINUOUS
 10
7.766146
 20
50.959986
  0
VERTEX
  8
4
  6
CONTINUOUS
 10
98.699060
 20
43.263234
  0
SEQEND
  8
4
  6
CONTINUOUS
  0
LINE
  8
4
  6
CONTINUOUS
 10
98.811351
 20
44.589488
 11
99.558679
 21
44.526232
  0
LINE
  8
4
  6
CONTINUOUS
 10
99.553935
 20
44.470183
 11
99.563423
 21
44.582282
  0
LINE
  8
4
  6
CONTINUOUS
 10
99.553935
 20
44.470183
 11
100.306007
 21
44.462977
  0
LINE
  8
4
  6
CONTINUOUS
 10
99.563423
 20
44.582282
 11
100.306007
 21
44.462977
  0
LINE
  8
4
  6
CONTINUOUS
 10
99.399725
 20
44.426784
 11
99.418702
 21
44.650982
  0
LINE
  8
4
  6
CONTINUOUS
 10
99.306309
 20
44.434691
 11
99.325286
 21
44.658889
  0
LINE
  8
4
  6
CONTINUOUS
 10
99.212893
 20
44.442598
 11
99.231870
 21
44.666796
  0
LINE
  8
4
  6
CONTINUOUS
 10
7.240718
 20
52.340221
 11
6.244281
 21
52.424562
  0
LINE
  8
4
  6
CONTINUOUS
 10
6.252715
 20
52.524205
 11
6.235847
 21
52.324918
  0
LINE
  8
4
  6
CONTINUOUS
 10
6.272644
 20
52.522519
 11
6.255776
 21
52.323231
  0
LINE
  8
4
  6
CONTINUOUS
 10
6.292573
 20
52.520832
 11
6.275704
 21
52.321544
  0
POLYLINE
  8
4
  6
CONTINUOUS
 66
     1
  0
VERTEX
  8
4
  6
CONTINUOUS
 10
7.240718
 20
52.340221
  0
VERTEX
  8
4
  6
CONTINUOUS
 10
98.811351
 20
44.589488
  0
SEQEND
  8
4
  6
CONTINUOUS
  0
LINE
  8
4
  6
CONTINUOUS
 10
98.949107
 20
46.217001
 11
99.696435
 21
46.153746
  0
LINE
  8
4
  6
CONTINUOUS
 10
99.691691
 20
46.097696
 11
99.701179
 21
46.209795
  0
LINE
  8
4
  6
CONTINUOUS
 10
99.691691
 20
46.097696
 11
100.443763
 21
46.090490
  0
LINE
  8
4
  6
CONTINUOUS
 10
99.701179
 20
46.209795
 11
100.443763
 21
46.090490
  0
LINE
  8
4
  6
CONTINUOUS
 10
99.537481
 20
46.054298
 11
99.556458
 21
46.278496
  0
LINE
  8
4
  6
CONTINUOUS
 10
99.444065
 20
46.062205
 11
99.463042
 21
46.286403
  0
LINE
  8
4
  6
CONTINUOUS
 10
99.350649
 20
46.070112
 11
99.369626
 21
46.294310
  0
LINE
  8
4
  6
CONTINUOUS
 10
7.378474
 20
53.967735
 11
6.382037
 21
54.052075
  0
LINE
  8
4
  6
CONTINUOUS
 10
6.390471
 20
54.151719
 11
6.373603
 21
53.952432
  0
LINE
  8
4
  6
CONTINUOUS
 10
6.410400
 20
54.150032
 11
6.393532
 21
53.950745
  0
LINE
  8
4
  6
CONTINUOUS
 10
6.430329
 20
54.148346
 11
6.413461
 21
53.949058
  0
POLYLINE
  8
4
  6
CONTINUOUS
 66
     1
  0
VERTEX
  8
4
  6
CONTINUOUS
 10
7.378474
 20
53.967735
  0
VERTEX
  8
4
  6
CONTINUOUS
 10
98.949107
 20
46.217001
  0
SEQEND
  8
4
  6
CONTINUOUS
  0
LINE
  8
4
  6
CONTINUOUS
 10
99.086864
 20
47.844515
 11
99.834191
 21
47.781260
  0
LINE
  8
4
  6
CONTINUOUS
 10
99.829447
 20
47.725210
 11
99.838936
 21
47.837309
  0
LINE
  8
4
  6
CONTINUOUS
 10
99.829447
 20
47.725210
 11
100.581519
 21
47.718004
  0
LINE
  8
4
  6
CONTINUOUS
 10
99.838936
 20
47.837309
 11
100.581519
 21
47.718004
  0
LINE
  8
4
  6
CONTINUOUS
 10
99.675237
 20
47.681812
 11
99.694214
 21
47.906010
  0
LINE
  8
4
  6
CONTINUOUS
 10
99.581822
 20
47.689718
 11
99.600798
 21
47.913917
  0
LINE
  8
4
  6
CONTINUOUS
 10
99.488406
 20
47.697625
 11
99.507382
 21
47.921824
  0
LINE
  8
4
  6
CONTINUOUS
 10
7.516230
 20
55.595249
 11
6.519793
 21
55.679589
  0
LINE
  8
4
  6
CONTINUOUS
 10
6.528228
 20
55.779233
 11
6.511359
 21
55.579945
  0
LINE
  8
4
  6
CONTINUOUS
 10
6.548156
 20
55.777546
 11
6.531288
 21
55.578259
  0
LINE
  8
4
  6
CONTINUOUS
 10
6.568085
 20
55.775859
 11
6.551217
 21
55.576572
  0
POLYLINE
  8
4
  6
CONTINUOUS
 66
     1
  0
VERTEX
  8
4
  6
CONTINUOUS
 10
7.516230
 20
55.595249
  0
VERTEX
  8
4
  6
CONTINUOUS
 10
99.086864
 20
47.844515
  0
SEQEND
  8
4
  6
CONTINUOUS
  0
LINE
  8
1
  6
CONTINUOUS
 10
4.901330
 20
75.949600
 11
24.325058
 21
75.949600
  0
LINE
  8
1
  6
CONTINUOUS
 10
4.901330
 20
75.949600
 11
4.901330
 21
74.949600
  0
LINE
  8
1
  6
CONTINUOUS
 10
4.901330
 20
74.949600
 11
21.190610
 21
74.949600
  0
LINE
  8
1
  6
CONTINUOUS
 10
4.901330
 20
74.949600
 11
4.901330
 21
73.949600
  0
LINE
  8
1
  6
CONTINUOUS
 10
7.390446
 20
74.949600
 11
7.390446
 21
73.949600
  0
LINE
  8
1
  6
CONTINUOUS
 10
9.528159
 20
74.949600
 11
9.528159
 21
73.949600
  0
LINE
  8
1
  6
CONTINUOUS
 10
10.903526
 20
74.949600
 11
10.903526
 21
73.949600
  0
LINE
  8
1
  6
CONTINUOUS
 10
15.068039
 20
74.449600
 11
15.068039
 21
73.949600
  0
LINE
  8
1
  6
CONTINUOUS
 10
18.056162
 20
74.949600
 11
18.056162
 21
73.949600
  0
LINE
  8
1
  6
CONTINUOUS
 10
19.100977
 20
74.449600
 11
19.100978
 21
73.949600
  0
LINE
  8
1
  6
CONTINUOUS
 10
20.145794
 20
74.449600
 11
20.145794
 21
73.949600
  0
LINE
  8
1
  6
CONTINUOUS
 10
21.190610
 20
74.949600
 11
21.190610
 21
73.949600
  0
LINE
  8
1
  6
CONTINUOUS
 10
4.901330
 20
73.949600
 11
24.325058
 21
73.949600
  0
LINE
  8
1
  6
CONTINUOUS
 10
10.903526
 20
74.449600
 11
15.068039
 21
74.449600
  0
LINE
  8
1
  6
CONTINUOUS
 10
15.068039
 20
74.449600
 11
18.056162
 21
74.449600
  0
LINE
  8
1
  6
CONTINUOUS
 10
18.056162
 20
74.449600
 11
19.100978
 21
74.449600
  0
LINE
  8
1
  6
CONTINUOUS
 10
19.100978
 20
74.449600
 11
20.145794
 21
74.449600
  0
LINE
  8
1
  6
CONTINUOUS
 10
20.145794
 20
74.449600
 11
24.325058
 21
74.449600
  0
LINE
  8
1
  6
CONTINUOUS
 10
24.325058
 20
73.949600
 11
24.325058
 21
75.949600
  0
LINE
  8
1
  6
CONTINUOUS
 10
22.757834
 20
74.449600
 11
22.757834
 21
73.949600
  0
LINE
  8
1
  6
CONTINUOUS
 10
21.190610
 20
74.949600
 11
24.325058
 21
74.949600
  0
LINE
  8
1
  6
CONTINUOUS
 10
4.901330
 20
73.949600
 11
4.901330
 21
73.449599
  0
LINE
  8
1
  6
CONTINUOUS
 10
4.901330
 20
73.449599
 11
24.325058
 21
73.449599
  0
LINE
  8
1
  6
CONTINUOUS
 10
7.390446
 20
73.949600
 11
7.390446
 21
73.449599
  0
LINE
  8
1
  6
CONTINUOUS
 10
9.528159
 20
73.949600
 11
9.528159
 21
73.449599
  0
LINE
  8
1
  6
CONTINUOUS
 10
10.903526
 20
73.949600
 11
10.903526
 21
73.449599
  0
LINE
  8
1
  6
CONTINUOUS
 10
15.068039
 20
73.949600
 11
15.068039
 21
73.449599
  0
LINE
  8
1
  6
CONTINUOUS
 10
18.056162
 20
73.949600
 11
18.056162
 21
73.449599
  0
LINE
  8
1
  6
CONTINUOUS
 10
19.100978
 20
73.949600
 11
19.100978
 21
73.449599
  0
LINE
  8
1
  6
CONTINUOUS
 10
20.145794
 20
73.949600
 11
20.145794
 21
73.449599
  0
LINE
  8
1
  6
CONTINUOUS
 10
21.190610
 20
73.949600
 11
21.190610
 21
73.449599
  0
LINE
  8
1
  6
CONTINUOUS
 10
21.190610
 20
73.449599
 11
21.190610
 21
73.949600
  0
LINE
  8
1
  6
CONTINUOUS
 10
21.190610
 20
73.949600
 11
21.190610
 21
73.449599
  0
LINE
  8
1
  6
CONTINUOUS
 10
22.757834
 20
73.949600
 11
22.757834
 21
73.449599
  0
LINE
  8
1
  6
CONTINUOUS
 10
24.325058
 20
73.949600
 11
24.325058
 21
73.449599
  0
LINE
  8
1
  6
CONTINUOUS
 10
4.901330
 20
73.449599
 11
4.901330
 21
72.949599
  0
LINE
  8
1
  6
CONTINUOUS
 10
4.901330
 20
72.949599
 11
24.325058
 21
72.949599
  0
LINE
  8
1
  6
CONTINUOUS
 10
7.390446
 20
73.449599
 11
7.390446
 21
72.949599
  0
LINE
  8
1
  6
CONTINUOUS
 10
9.528159
 20
73.449599
 11
9.528159
 21
72.949599
  0
LINE
  8
1
  6
CONTINUOUS
 10
10.903526
 20
73.449599
 11
10.903526
 21
72.949599
  0
LINE
  8
1
  6
CONTINUOUS
 10
15.068039
 20
73.449599
 11
15.068039
 21
72.949599
  0
LINE
  8
1
  6
CONTINUOUS
 10
18.056162
 20
73.449599
 11
18.056162
 21
72.949599
  0
LINE
  8
1
  6
CONTINUOUS
 10
19.100978
 20
73.449599
 11
19.100978
 21
72.949599
  0
LINE
  8
1
  6
CONTINUOUS
 10
20.145794
 20
73.449599
 11
20.145794
 21
72.949599
  0
LINE
  8
1
  6
CONTINUOUS
 10
21.190610
 20
73.449599
 11
21.190610
 21
72.949599
  0
LINE
  8
1
  6
CONTINUOUS
 10
21.190610
 20
72.949599
 11
21.190610
 21
73.449599
  0
LINE
  8
1
  6
CONTINUOUS
 10
21.190610
 20
73.449599
 11
21.190610
 21
72.949599
  0
LINE
  8
1
  6
CONTINUOUS
 10
22.757834
 20
73.449599
 11
22.757834
 21
72.949599
  0
LINE
  8
1
  6
CONTINUOUS
 10
24.325058
 20
73.449599
 11
24.325058
 21
72.949599
  0
LINE
  8
1
  6
CONTINUOUS
 10
4.901330
 20
72.949598
 11
4.901330
 21
72.449598
  0
LINE
  8
1
  6
CONTINUOUS
 10
4.901330
 20
72.449598
 11
24.325058
 21
72.449598
  0
LINE
  8
1
  6
CONTINUOUS
 10
7.390446
 20
72.949598
 11
7.390446
 21
72.449598
  0
LINE
  8
1
  6
CONTINUOUS
 10
9.528159
 20
72.949598
 11
9.528159
 21
72.449598
  0
LINE
  8
1
  6
CONTINUOUS
 10
10.903526
 20
72.949598
 11
10.903526
 21
72.449598
  0
LINE
  8
1
  6
CONTINUOUS
 10
15.068039
 20
72.949598
 11
15.068039
 21
72.449598
  0
LINE
  8
1
  6
CONTINUOUS
 10
18.056162
 20
72.949598
 11
18.056162
 21
72.449598
  0
LINE
  8
1
  6
CONTINUOUS
 10
19.100978
 20
72.949598
 11
19.100978
 21
72.449598
  0
LINE
  8
1
  6
CONTINUOUS
 10
20.145794
 20
72.949598
 11
20.145794
 21
72.449598
  0
LINE
  8
1
  6
CONTINUOUS
 10
21.190610
 20
72.949598
 11
21.190610
 21
72.449598
  0
LINE
  8
1
  6
CONTINUOUS
 10
21.190610
 20
72.449598
 11
21.190610
 21
72.949598
  0
LINE
  8
1
  6
CONTINUOUS
 10
21.190610
 20
72.949599
 11
21.190610
 21
72.449598
  0
LINE
  8
1
  6
CONTINUOUS
 10
22.757834
 20
72.949598
 11
22.757834
 21
72.449598
  0
LINE
  8
1
  6
CONTINUOUS
 10
24.325058
 20
72.949598
 11
24.325058
 21
72.449598
  0
LINE
  8
1
  6
CONTINUOUS
 10
4.901330
 20
72.449597
 11
4.901330
 21
71.949597
  0
LINE
  8
1
  6
CONTINUOUS
 10
4.901330
 20
71.949597
 11
24.325058
 21
71.949597
  0
LINE
  8
1
  6
CONTINUOUS
 10
7.390446
 20
72.449597
 11
7.390446
 21
71.949597
  0
LINE
  8
1
  6
CONTINUOUS
 10
9.528159
 20
72.449597
 11
9.528159
 21
71.949597
  0
LINE
  8
1
  6
CONTINUOUS
 10
10.903526
 20
72.449597
 11
10.903526
 21
71.949597
  0
LINE
  8
1
  6
CONTINUOUS
 10
15.068039
 20
72.449597
 11
15.068039
 21
71.949597
  0
LINE
  8
1
  6
CONTINUOUS
 10
18.056162
 20
72.449597
 11
18.056162
 21
71.949597
  0
LINE
  8
1
  6
CONTINUOUS
 10
19.100978
 20
72.449597
 11
19.100978
 21
71.949597
  0
LINE
  8
1
  6
CONTINUOUS
 10
20.145794
 20
72.449597
 11
20.145794
 21
71.949597
  0
LINE
  8
1
  6
CONTINUOUS
 10
21.190610
 20
72.449597
 11
21.190610
 21
71.949597
  0
LINE
  8
1
  6
CONTINUOUS
 10
21.190610
 20
71.949597
 11
21.190610
 21
72.449597
  0
LINE
  8
1
  6
CONTINUOUS
 10
21.190610
 20
72.449598
 11
21.190610
 21
71.949597
  0
LINE
  8
1
  6
CONTINUOUS
 10
22.757834
 20
72.449597
 11
22.757834
 21
71.949597
  0
LINE
  8
1
  6
CONTINUOUS
 10
24.325058
 20
72.449597
 11
24.325058
 21
71.949597
  0
LINE
  8
1
  6
CONTINUOUS
 10
4.901330
 20
71.949597
 11
4.901330
 21
71.449597
  0
LINE
  8
1
  6
CONTINUOUS
 10
4.901330
 20
71.449597
 11
24.325058
 21
71.449597
  0
LINE
  8
1
  6
CONTINUOUS
 10
7.390446
 20
71.949597
 11
7.390446
 21
71.449597
  0
LINE
  8
1
  6
CONTINUOUS
 10
9.528159
 20
71.949597
 11
9.528159
 21
71.449597
  0
LINE
  8
1
  6
CONTINUOUS
 10
10.903526
 20
71.949597
 11
10.903526
 21
71.449597
  0
LINE
  8
1
  6
CONTINUOUS
 10
15.068039
 20
71.949597
 11
15.068039
 21
71.449597
  0
LINE
  8
1
  6
CONTINUOUS
 10
18.056162
 20
71.949597
 11
18.056162
 21
71.449597
  0
LINE
  8
1
  6
CONTINUOUS
 10
19.100978
 20
71.949597
 11
19.100978
 21
71.449597
  0
LINE
  8
1
  6
CONTINUOUS
 10
20.145794
 20
71.949597
 11
20.145794
 21
71.449597
  0
LINE
  8
1
  6
CONTINUOUS
 10
21.190610
 20
71.949597
 11
21.190610
 21
71.449597
  0
LINE
  8
1
  6
CONTINUOUS
 10
21.190610
 20
71.449597
 11
21.190610
 21
71.949597
  0
LINE
  8
1
  6
CONTINUOUS
 10
21.190610
 20
71.949597
 11
21.190610
 21
71.449596
  0
LINE
  8
1
  6
CONTINUOUS
 10
22.757834
 20
71.949597
 11
22.757834
 21
71.449597
  0
LINE
  8
1
  6
CONTINUOUS
 10
24.325058
 20
71.949597
 11
24.325058
 21
71.449597
  0
LINE
  8
1
  6
CONTINUOUS
 10
4.901330
 20
70.812244
 11
18.184422
 21
70.812244
  0
LINE
  8
1
  6
CONTINUOUS
 10
4.901330
 20
69.449596
 11
18.184422
 21
69.449596
  0
LINE
  8
1
  6
CONTINUOUS
 10
4.901330
 20
68.949596
 11
13.823039
 21
68.949596
  0
LINE
  8
1
  6
CONTINUOUS
 10
13.823039
 20
68.949596
 11
16.011162
 21
68.949596
  0
LINE
  8
1
  6
CONTINUOUS
 10
15.391142
 20
68.949596
 11
16.435958
 21
68.949596
  0
LINE
  8
1
  6
CONTINUOUS
 10
16.435958
 20
68.949596
 11
18.100794
 21
68.949596
  0
LINE
  8
1
  6
CONTINUOUS
 10
18.100794
 20
68.949596
 11
18.184422
 21
68.949596
  0
LINE
  8
1
  6
CONTINUOUS
 10
4.901330
 20
70.812244
 11
4.901330
 21
67.949596
  0
LINE
  8
1
  6
CONTINUOUS
 10
4.901330
 20
67.949596
 11
18.184422
 21
67.949597
  0
LINE
  8
1
  6
CONTINUOUS
 10
7.039042
 20
68.949596
 11
7.039042
 21
67.949596
  0
LINE
  8
1
  6
CONTINUOUS
 10
9.227166
 20
67.949596
 11
9.227166
 21
68.949596
  0
LINE
  8
1
  6
CONTINUOUS
 10
16.094790
 20
68.949596
 11
16.094790
 21
67.949597
  0
LINE
  8
1
  6
CONTINUOUS
 10
17.139607
 20
68.949596
 11
17.139607
 21
67.949597
  0
LINE
  8
1
  6
CONTINUOUS
 10
10.929978
 20
67.949596
 11
10.929978
 21
68.449596
  0
LINE
  8
1
  6
CONTINUOUS
 10
18.184422
 20
67.949597
 11
18.184422
 21
70.812244
  0
LINE
  8
1
  6
CONTINUOUS
 10
9.227166
 20
68.449596
 11
15.049975
 21
68.449596
  0
LINE
  8
1
  6
CONTINUOUS
 10
15.049975
 20
67.949597
 11
15.049975
 21
69.449596
  0
LINE
  8
1
  6
CONTINUOUS
 10
12.989977
 20
67.949596
 11
12.989977
 21
68.449596
  0
LINE
  8
1
  6
CONTINUOUS
 10
4.901330
 20
67.949596
 11
4.901330
 21
67.449595
  0
LINE
  8
1
  6
CONTINUOUS
 10
7.039042
 20
67.949596
 11
7.039042
 21
67.449595
  0
LINE
  8
1
  6
CONTINUOUS
 10
9.227166
 20
67.949596
 11
9.227166
 21
67.449595
  0
LINE
  8
1
  6
CONTINUOUS
 10
4.901330
 20
67.449595
 11
18.184422
 21
67.449595
  0
LINE
  8
1
  6
CONTINUOUS
 10
15.049975
 20
67.949596
 11
15.049975
 21
67.449596
  0
LINE
  8
1
  6
CONTINUOUS
 10
16.094790
 20
67.949596
 11
16.094790
 21
67.449596
  0
LINE
  8
1
  6
CONTINUOUS
 10
17.139607
 20
67.949596
 11
17.139607
 21
67.449596
  0
LINE
  8
1
  6
CONTINUOUS
 10
10.929978
 20
67.949596
 11
10.929978
 21
67.449595
  0
LINE
  8
1
  6
CONTINUOUS
 10
12.989977
 20
67.449595
 11
12.989977
 21
67.949596
  0
LINE
  8
1
  6
CONTINUOUS
 10
15.049975
 20
67.449595
 11
15.049975
 21
67.949596
  0
LINE
  8
1
  6
CONTINUOUS
 10
18.184422
 20
67.949596
 11
18.184422
 21
67.449595
  0
LINE
  8
1
  6
CONTINUOUS
 10
4.901330
 20
67.449595
 11
4.901330
 21
66.949595
  0
LINE
  8
1
  6
CONTINUOUS
 10
7.039042
 20
67.449595
 11
7.039042
 21
66.949595
  0
LINE
  8
1
  6
CONTINUOUS
 10
9.227166
 20
67.449595
 11
9.227166
 21
66.949595
  0
LINE
  8
1
  6
CONTINUOUS
 10
4.901330
 20
66.949595
 11
18.184422
 21
66.949595
  0
LINE
  8
1
  6
CONTINUOUS
 10
15.049975
 20
67.449595
 11
15.049975
 21
66.949595
  0
LINE
  8
1
  6
CONTINUOUS
 10
16.094790
 20
67.449595
 11
16.094790
 21
66.949595
  0
LINE
  8
1
  6
CONTINUOUS
 10
17.139607
 20
67.449595
 11
17.139607
 21
66.949595
  0
LINE
  8
1
  6
CONTINUOUS
 10
10.929978
 20
67.449595
 11
10.929978
 21
66.949595
  0
LINE
  8
1
  6
CONTINUOUS
 10
12.989977
 20
66.949595
 11
12.989977
 21
67.449595
  0
LINE
  8
1
  6
CONTINUOUS
 10
15.049975
 20
66.949595
 11
15.049975
 21
67.449595
  0
LINE
  8
1
  6
CONTINUOUS
 10
18.184422
 20
67.449595
 11
18.184422
 21
66.949595
  0
LINE
  8
2
  6
CONTINUOUS
 10
101.700000
 20
23.900000
 11
101.700000
 21
23.900000
  0
LINE
  8
2
  6
CONTINUOUS
 10
118.000000
 20
23.900000
 11
118.000000
 21
23.900000
  0
LINE
  8
2
  6
CONTINUOUS
 10
118.000000
 20
23.900000
 11
101.700000
 21
23.900000
  0
LINE
  8
2
  6
CONTINUOUS
 10
118.000000
 20
22.200000
 11
101.700000
 21
22.200000
  0
LINE
  8
2
  6
CONTINUOUS
 10
101.700000
 20
23.900000
 11
101.700000
 21
22.200000
  0
LINE
  8
2
  6
CONTINUOUS
 10
118.000000
 20
22.200000
 11
118.000000
 21
23.900000
  0
LINE
  8
1
  6
CONTINUOUS
 10
118.000002
 20
29.700001
 11
119.000002
 21
29.700001
  0
LINE
  8
1
  6
CONTINUOUS
 10
118.000002
 20
59.400002
 11
119.000002
 21
59.400002
  0
LINE
  8
1
  6
CONTINUOUS
 10
0.000000
 20
29.700001
 11
2.500000
 21
29.700001
  0
LINE
  8
1
  6
CONTINUOUS
 10
0.000000
 20
59.400002
 11
2.500000
 21
59.400002
  0
LINE
  8
1
  6
CONTINUOUS
 10
100.500002
 20
82.999998
 11
100.500002
 21
83.999998
  0
LINE
  8
1
  6
CONTINUOUS
 10
82.000002
 20
82.999998
 11
82.000002
 21
83.999998
  0
LINE
  8
1
  6
CONTINUOUS
 10
63.500002
 20
82.999998
 11
63.500002
 21
83.999998
  0
LINE
  8
1
  6
CONTINUOUS
 10
45.000002
 20
82.999998
 11
45.000002
 21
83.999998
  0
LINE
  8
1
  6
CONTINUOUS
 10
33.050001
 20
82.999998
 11
33.050001
 21
83.999998
  0
LINE
  8
1
  6
CONTINUOUS
 10
21.100000
 20
82.999998
 11
21.100000
 21
83.999998
  0
LINE
  8
1
  6
CONTINUOUS
 10
100.500002
 20
0.000000
 11
100.500002
 21
1.000000
  0
LINE
  8
1
  6
CONTINUOUS
 10
82.000002
 20
0.000000
 11
82.000002
 21
1.000000
  0
LINE
  8
1
  6
CONTINUOUS
 10
63.500002
 20
0.000000
 11
63.500002
 21
1.000000
  0
LINE
  8
1
  6
CONTINUOUS
 10
45.000002
 20
0.000000
 11
45.000002
 21
1.000000
  0
LINE
  8
1
  6
CONTINUOUS
 10
33.050001
 20
0.000000
 11
33.050001
 21
1.000000
  0
LINE
  8
1
  6
CONTINUOUS
 10
21.100000
 20
0.000000
 11
21.100000
 21
1.000000
  0
LINE
  8
1
  6
CONTINUOUS
 10
0.000000
 20
0.000000
 11
119.000002
 21
0.000000
  0
LINE
  8
1
  6
CONTINUOUS
 10
119.000002
 20
0.000000
 11
119.000002
 21
83.999998
  0
LINE
  8
1
  6
CONTINUOUS
 10
0.000000
 20
0.000000
 11
0.000000
 21
83.999998
  0
LINE
  8
8
  6
CONTINUOUS
 10
2.500000
 20
1.000000
 11
118.000002
 21
1.000000
  0
LINE
  8
8
  6
CONTINUOUS
 10
118.000002
 20
1.000000
 11
118.000002
 21
82.999998
  0
LINE
  8
1
  6
CONTINUOUS
 10
0.000000
 20
83.999998
 11
119.000002
 21
83.999998
  0
LINE
  8
8
  6
CONTINUOUS
 10
2.500000
 20
82.999998
 11
118.000002
 21
82.999998
  0
LINE
  8
8
  6
CONTINUOUS
 10
2.500000
 20
82.999998
 11
2.500000
 21
1.000000
  0
LINE
  8
2
  6
CONTINUOUS
 10
102.650002
 20
17.625000
 11
102.650002
 21
18.125000
  0
LINE
  8
1
  6
CONTINUOUS
 10
101.700002
 20
18.200000
 11
118.000002
 21
18.200000
  0
LINE
  8
1
  6
CONTINUOUS
 10
101.700002
 20
17.700000
 11
118.000002
 21
17.700000
  0
LINE
  8
1
  6
CONTINUOUS
 10
102.200002
 20
17.700000
 11
118.000002
 21
17.700000
  0
LINE
  8
2
  6
CONTINUOUS
 10
102.650002
 20
17.125000
 11
102.650002
 21
17.625000
  0
LINE
  8
1
  6
CONTINUOUS
 10
102.200002
 20
17.700000
 11
118.000002
 21
17.700000
  0
LINE
  8
1
  6
CONTINUOUS
 10
101.700002
 20
17.200000
 11
118.000002
 21
17.200000
  0
LINE
  8
2
  6
CONTINUOUS
 10
102.650002
 20
16.700000
 11
102.650002
 21
17.200000
  0
LINE
  8
1
  6
CONTINUOUS
 10
116.008223
 20
16.000000
 11
116.008223
 21
22.200000
  0
LINE
  8
1
  6
CONTINUOUS
 10
104.850002
 20
16.000000
 11
104.850002
 21
22.200000
  0
LINE
  8
6
  6
CONTINUOUS
 10
101.700002
 20
16.000000
 11
118.000002
 21
16.000000
  0
LINE
  8
1
  6
CONTINUOUS
 10
102.650002
 20
16.000000
 11
102.650002
 21
16.700000
  0
LINE
  8
1
  6
CONTINUOUS
 10
102.200002
 20
17.200000
 11
118.000002
 21
17.200000
  0
LINE
  8
1
  6
CONTINUOUS
 10
101.700002
 20
16.700000
 11
118.000002
 21
16.700000
  0
LINE
  8
2
  6
CONTINUOUS
 10
102.650002
 20
18.625000
 11
102.650002
 21
22.200000
  0
LINE
  8
6
  6
CONTINUOUS
 10
101.700002
 20
22.200000
 11
118.000002
 21
22.200000
  0
LINE
  8
1
  6
CONTINUOUS
 10
101.700002
 20
18.700000
 11
118.000002
 21
18.700000
  0
LINE
  8
1
  6
CONTINUOUS
 10
102.200002
 20
18.700000
 11
118.000002
 21
18.700000
  0
LINE
  8
2
  6
CONTINUOUS
 10
102.650002
 20
18.125000
 11
102.650002
 21
18.625000
  0
LINE
  8
1
  6
CONTINUOUS
 10
102.200002
 20
18.700000
 11
118.000002
 21
18.700000
  0
LINE
  8
1
  6
CONTINUOUS
 10
102.200002
 20
18.200000
 11
118.000002
 21
18.200000
  0
LINE
  8
1
  6
CONTINUOUS
 10
102.200002
 20
18.200000
 11
118.000002
 21
18.200000
  0
LINE
  8
6
  6
CONTINUOUS
 10
101.700002
 20
6.600000
 11
118.000002
 21
6.600000
  0
LINE
  8
6
  6
CONTINUOUS
 10
101.700002
 20
8.500000
 11
118.000002
 21
8.500000
  0
LINE
  8
6
  6
CONTINUOUS
 10
101.700002
 20
1.000000
 11
101.700002
 21
8.500000
  0
LINE
  8
6
  6
CONTINUOUS
 10
101.700002
 20
16.000000
 11
101.700002
 21
22.200000
  0
LINE
  8
6
  6
CONTINUOUS
 10
101.700002
 20
15.900000
 11
118.000002
 21
15.900000
  0
LINE
  8
6
  6
CONTINUOUS
 10
101.700002
 20
11.400000
 11
101.700002
 21
15.900000
  0
LINE
  8
1
  6
CONTINUOUS
 10
101.700002
 20
14.400000
 11
118.000002
 21
14.400000
  0
LINE
  8
6
  6
CONTINUOUS
 10
101.700002
 20
3.000000
 11
118.000002
 21
3.000000
  0
LINE
  8
6
  6
CONTINUOUS
 10
105.024321
 20
3.000000
 11
105.024321
 21
1.000000
  0
LINE
  8
1
  6
CONTINUOUS
 10
101.700002
 20
12.900000
 11
118.000002
 21
12.900000
  0
POLYLINE
  8
1
  6
CONTINUOUS
 66
     1
  0
VERTEX
  8
1
  6
CONTINUOUS
 10
103.635546
 20
9.498246
  0
VERTEX
  8
1
  6
CONTINUOUS
 10
101.971546
 20
9.498246
  0
VERTEX
  8
1
  6
CONTINUOUS
 10
101.971546
 20
11.162246
  0
VERTEX
  8
1
  6
CONTINUOUS
 10
103.635546
 20
11.162246
  0
VERTEX
  8
1
  6
CONTINUOUS
 10
103.635546
 20
9.498246
  0
SEQEND
  8
1
  6
CONTINUOUS
  0
POLYLINE
  8
13
  6
CONTINUOUS
 66
     1
  0
VERTEX
  8
13
  6
CONTINUOUS
 10
102.095046
 20
10.244446
  0
VERTEX
  8
13
  6
CONTINUOUS
 10
102.095046
 20
9.498246
  0
VERTEX
  8
13
  6
CONTINUOUS
 10
101.971546
 20
9.498246
  0
VERTEX
  8
13
  6
CONTINUOUS
 10
101.971546
 20
11.162246
  0
VERTEX
  8
13
  6
CONTINUOUS
 10
102.095046
 20
11.162246
  0
VERTEX
  8
13
  6
CONTINUOUS
 10
102.095046
 20
10.244446
  0
SEQEND
  8
13
  6
CONTINUOUS
  0
POLYLINE
  8
13
  6
CONTINUOUS
 66
     1
  0
VERTEX
  8
13
  6
CONTINUOUS
 10
102.522746
 20
10.230979
  0
VERTEX
  8
13
  6
CONTINUOUS
 10
102.522746
 20
9.498246
  0
VERTEX
  8
13
  6
CONTINUOUS
 10
102.095046
 20
9.498246
  0
VERTEX
  8
13
  6
CONTINUOUS
 10
102.095046
 20
10.244446
  0
VERTEX
  8
13
  6
CONTINUOUS
 10
102.143544
 20
10.248642
  0
VERTEX
  8
13
  6
CONTINUOUS
 10
102.211078
 20
10.252071
  0
VERTEX
  8
13
  6
CONTINUOUS
 10
102.259959
 20
10.252484
  0
VERTEX
  8
13
  6
CONTINUOUS
 10
102.290321
 20
10.252141
  0
VERTEX
  8
13
  6
CONTINUOUS
 10
102.334203
 20
10.250668
  0
VERTEX
  8
13
  6
CONTINUOUS
 10
102.394518
 20
10.246747
  0
VERTEX
  8
13
  6
CONTINUOUS
 10
102.446340
 20
10.241621
  0
VERTEX
  8
13
  6
CONTINUOUS
 10
102.490083
 20
10.235974
  0
VERTEX
  8
13
  6
CONTINUOUS
 10
102.522746
 20
10.230979
  0
SEQEND
  8
13
  6
CONTINUOUS
  0
POLYLINE
  8
13
  6
CONTINUOUS
 66
     1
  0
VERTEX
  8
13
  6
CONTINUOUS
 10
102.594246
 20
10.217654
  0
VERTEX
  8
13
  6
CONTINUOUS
 10
102.594246
 20
9.498246
  0
VERTEX
  8
13
  6
CONTINUOUS
 10
103.021946
 20
9.498246
  0
VERTEX
  8
13
  6
CONTINUOUS
 10
103.021946
 20
10.064184
  0
VERTEX
  8
13
  6
CONTINUOUS
 10
103.003898
 20
10.073542
  0
VERTEX
  8
13
  6
CONTINUOUS
 10
102.981716
 20
10.084501
  0
VERTEX
  8
13
  6
CONTINUOUS
 10
102.953307
 20
10.098271
  0
VERTEX
  8
13
  6
CONTINUOUS
 10
102.912865
 20
10.116383
  0
VERTEX
  8
13
  6
CONTINUOUS
 10
102.885024
 20
10.128001
  0
VERTEX
  8
13
  6
CONTINUOUS
 10
102.844071
 20
10.144755
  0
VERTEX
  8
13
  6
CONTINUOUS
 10
102.813490
 20
10.155923
  0
VERTEX
  8
13
  6
CONTINUOUS
 10
102.778388
 20
10.168156
  0
VERTEX
  8
13
  6
CONTINUOUS
 10
102.744083
 20
10.178793
  0
VERTEX
  8
13
  6
CONTINUOUS
 10
102.703465
 20
10.191172
  0
VERTEX
  8
13
  6
CONTINUOUS
 10
102.665141
 20
10.201162
  0
VERTEX
  8
13
  6
CONTINUOUS
 10
102.624819
 20
10.210970
  0
VERTEX
  8
13
  6
CONTINUOUS
 10
102.594246
 20
10.217654
  0
SEQEND
  8
13
  6
CONTINUOUS
  0
POLYLINE
  8
13
  6
CONTINUOUS
 66
     1
  0
VERTEX
  8
13
  6
CONTINUOUS
 10
103.093446
 20
10.024343
  0
VERTEX
  8
13
  6
CONTINUOUS
 10
103.093446
 20
9.498246
  0
VERTEX
  8
13
  6
CONTINUOUS
 10
103.521146
 20
9.498246
  0
VERTEX
  8
13
  6
CONTINUOUS
 10
103.521146
 20
9.661030
  0
VERTEX
  8
13
  6
CONTINUOUS
 10
103.507797
 20
9.676793
  0
VERTEX
  8
13
  6
CONTINUOUS
 10
103.495964
 20
9.690528
  0
VERTEX
  8
13
  6
CONTINUOUS
 10
103.473877
 20
9.715277
  0
VERTEX
  8
13
  6
CONTINUOUS
 10
103.454164
 20
9.736530
  0
VERTEX
  8
13
  6
CONTINUOUS
 10
103.434048
 20
9.757502
  0
VERTEX
  8
13
  6
CONTINUOUS
 10
103.410015
 20
9.781535
  0
VERTEX
  8
13
  6
CONTINUOUS
 10
103.399294
 20
9.791943
  0
VERTEX
  8
13
  6
CONTINUOUS
 10
103.388429
 20
9.802406
  0
VERTEX
  8
13
  6
CONTINUOUS
 10
103.359952
 20
9.828752
  0
VERTEX
  8
13
  6
CONTINUOUS
 10
103.325139
 20
9.859181
  0
VERTEX
  8
13
  6
CONTINUOUS
 10
103.286846
 20
9.890826
  0
VERTEX
  8
13
  6
CONTINUOUS
 10
103.251036
 20
9.918745
  0
VERTEX
  8
13
  6
CONTINUOUS
 10
103.200839
 20
9.955427
  0
VERTEX
  8
13
  6
CONTINUOUS
 10
103.134352
 20
9.999676
  0
VERTEX
  8
13
  6
CONTINUOUS
 10
103.093446
 20
10.024343
  0
SEQEND
  8
13
  6
CONTINUOUS
  0
POLYLINE
  8
13
  6
CONTINUOUS
 66
     1
  0
VERTEX
  8
13
  6
CONTINUOUS
 10
102.522746
 20
10.635283
  0
VERTEX
  8
13
  6
CONTINUOUS
 10
102.522746
 20
11.162246
  0
VERTEX
  8
13
  6
CONTINUOUS
 10
102.095046
 20
11.162246
  0
VERTEX
  8
13
  6
CONTINUOUS
 10
102.095046
 20
10.995122
  0
VERTEX
  8
13
  6
CONTINUOUS
 10
102.153689
 20
10.929235
  0
VERTEX
  8
13
  6
CONTINUOUS
 10
102.237359
 20
10.846559
  0
VERTEX
  8
13
  6
CONTINUOUS
 10
102.308389
 20
10.784730
  0
VERTEX
  8
13
  6
CONTINUOUS
 10
102.366624
 20
10.739274
  0
VERTEX
  8
13
  6
CONTINUOUS
 10
102.406322
 20
10.710064
  0
VERTEX
  8
13
  6
CONTINUOUS
 10
102.455827
 20
10.676682
  0
VERTEX
  8
13
  6
CONTINUOUS
 10
102.493954
 20
10.652515
  0
VERTEX
  8
13
  6
CONTINUOUS
 10
102.522746
 20
10.635283
  0
SEQEND
  8
13
  6
CONTINUOUS
  0
POLYLINE
  8
13
  6
CONTINUOUS
 66
     1
  0
VERTEX
  8
13
  6
CONTINUOUS
 10
103.021946
 20
10.443678
  0
VERTEX
  8
13
  6
CONTINUOUS
 10
103.021946
 20
11.162246
  0
VERTEX
  8
13
  6
CONTINUOUS
 10
102.594246
 20
11.162246
  0
VERTEX
  8
13
  6
CONTINUOUS
 10
102.594246
 20
10.595859
  0
VERTEX
  8
13
  6
CONTINUOUS
 10
102.663800
 20
10.561766
  0
VERTEX
  8
13
  6
CONTINUOUS
 10
102.744359
 20
10.527375
  0
VERTEX
  8
13
  6
CONTINUOUS
 10
102.812197
 20
10.501464
  0
VERTEX
  8
13
  6
CONTINUOUS
 10
102.889458
 20
10.476967
  0
VERTEX
  8
13
  6
CONTINUOUS
 10
102.950702
 20
10.460007
  0
VERTEX
  8
13
  6
CONTINUOUS
 10
103.021946
 20
10.443678
  0
SEQEND
  8
13
  6
CONTINUOUS
  0
POLYLINE
  8
13
  6
CONTINUOUS
 66
     1
  0
VERTEX
  8
13
  6
CONTINUOUS
 10
103.093446
 20
10.430307
  0
VERTEX
  8
13
  6
CONTINUOUS
 10
103.093446
 20
11.162246
  0
VERTEX
  8
13
  6
CONTINUOUS
 10
103.521146
 20
11.162246
  0
VERTEX
  8
13
  6
CONTINUOUS
 10
103.521146
 20
10.417580
  0
VERTEX
  8
13
  6
CONTINUOUS
 10
103.476372
 20
10.413637
  0
VERTEX
  8
13
  6
CONTINUOUS
 10
103.416577
 20
10.410480
  0
VERTEX
  8
13
  6
CONTINUOUS
 10
103.366788
 20
10.409453
  0
VERTEX
  8
13
  6
CONTINUOUS
 10
103.336830
 20
10.409453
  0
VERTEX
  8
13
  6
CONTINUOUS
 10
103.286182
 20
10.410821
  0
VERTEX
  8
13
  6
CONTINUOUS
 10
103.241261
 20
10.413321
  0
VERTEX
  8
13
  6
CONTINUOUS
 10
103.205545
 20
10.416539
  0
VERTEX
  8
13
  6
CONTINUOUS
 10
103.155349
 20
10.421044
  0
VERTEX
  8
13
  6
CONTINUOUS
 10
103.093446
 20
10.430307
  0
SEQEND
  8
13
  6
CONTINUOUS
  0
POLYLINE
  8
13
  6
CONTINUOUS
 66
     1
  0
VERTEX
  8
13
  6
CONTINUOUS
 10
102.522746
 20
9.498246
  0
VERTEX
  8
13
  6
CONTINUOUS
 10
102.594246
 20
9.498246
  0
VERTEX
  8
13
  6
CONTINUOUS
 10
102.594246
 20
11.162246
  0
VERTEX
  8
13
  6
CONTINUOUS
 10
102.522746
 20
11.162246
  0
VERTEX
  8
13
  6
CONTINUOUS
 10
102.522746
 20
9.498246
  0
VERTEX
  8
13
  6
CONTINUOUS
 10
102.594246
 20
9.498246
  0
SEQEND
  8
13
  6
CONTINUOUS
  0
POLYLINE
  8
13
  6
CONTINUOUS
 66
     1
  0
VERTEX
  8
13
  6
CONTINUOUS
 10
103.021946
 20
11.162246
  0
VERTEX
  8
13
  6
CONTINUOUS
 10
103.093446
 20
11.162246
  0
VERTEX
  8
13
  6
CONTINUOUS
 10
103.093446
 20
9.498246
  0
VERTEX
  8
13
  6
CONTINUOUS
 10
103.021946
 20
9.498246
  0
VERTEX
  8
13
  6
CONTINUOUS
 10
103.021946
 20
11.162246
  0
SEQEND
  8
13
  6
CONTINUOUS
  0
POLYLINE
  8
13
  6
CONTINUOUS
 66
     1
  0
VERTEX
  8
13
  6
CONTINUOUS
 10
103.521146
 20
9.498246
  0
VERTEX
  8
13
  6
CONTINUOUS
 10
103.635546
 20
9.498246
  0
VERTEX
  8
13
  6
CONTINUOUS
 10
103.635546
 20
11.162246
  0
VERTEX
  8
13
  6
CONTINUOUS
 10
103.521146
 20
11.162246
  0
VERTEX
  8
13
  6
CONTINUOUS
 10
103.521146
 20
9.498246
  0
SEQEND
  8
13
  6
CONTINUOUS
  0
LINE
  8
6
  6
CONTINUOUS
 10
107.924321
 20
3.000000
 11
107.924321
 21
2.000000
  0
LINE
  8
6
  6
CONTINUOUS
 10
101.700002
 20
2.000000
 11
114.124321
 21
2.000000
  0
LINE
  8
6
  6
CONTINUOUS
 10
114.124321
 20
3.000000
 11
114.124321
 21
1.000000
  0
LINE
  8
6
  6
CONTINUOUS
 10
101.700002
 20
8.600000
 11
118.000002
 21
8.600000
  0
LINE
  8
6
  6
CONTINUOUS
 10
101.700002
 20
8.600000
 11
101.700002
 21
11.300000
  0
LINE
  8
6
  6
CONTINUOUS
 10
101.700002
 20
11.300000
 11
118.000002
 21
11.300000
  0
LINE
  8
6
  6
CONTINUOUS
 10
101.700002
 20
11.400000
 11
118.000002
 21
11.400000
  0
LINE
  8
1
  6
CONTINUOUS
 10
101.700002
 20
19.200000
 11
118.000002
 21
19.200000
  0
LINE
  8
1
  6
CONTINUOUS
 10
102.200002
 20
19.200000
 11
118.000002
 21
19.200000
  0
LINE
  8
1
  6
CONTINUOUS
 10
102.200002
 20
19.200000
 11
118.000002
 21
19.200000
  0
LINE
  8
1
  6
CONTINUOUS
 10
101.700002
 20
19.700000
 11
118.000002
 21
19.700000
  0
LINE
  8
1
  6
CONTINUOUS
 10
102.200002
 20
19.700000
 11
118.000002
 21
19.700000
  0
LINE
  8
1
  6
CONTINUOUS
 10
102.200002
 20
19.700000
 11
118.000002
 21
19.700000
  0
LINE
  8
1
  6
CONTINUOUS
 10
101.700002
 20
20.200000
 11
118.000002
 21
20.200000
  0
LINE
  8
1
  6
CONTINUOUS
 10
102.200002
 20
20.200000
 11
118.000002
 21
20.200000
  0
LINE
  8
1
  6
CONTINUOUS
 10
102.200002
 20
20.200000
 11
118.000002
 21
20.200000
  0
LINE
  8
1
  6
CONTINUOUS
 10
101.700002
 20
20.700000
 11
118.000002
 21
20.700000
  0
LINE
  8
1
  6
CONTINUOUS
 10
102.200002
 20
20.700000
 11
118.000002
 21
20.700000
  0
LINE
  8
1
  6
CONTINUOUS
 10
102.200002
 20
20.700000
 11
118.000002
 21
20.700000
  0
LINE
  8
1
  6
CONTINUOUS
 10
101.700002
 20
21.200000
 11
118.000002
 21
21.200000
  0
LINE
  8
1
  6
CONTINUOUS
 10
102.200002
 20
21.200000
 11
118.000002
 21
21.200000
  0
LINE
  8
1
  6
CONTINUOUS
 10
102.200002
 20
21.200000
 11
118.000002
 21
21.200000
  0
LINE
  8
1
  6
CONTINUOUS
 10
101.700002
 20
21.700000
 11
118.000002
 21
21.700000
  0
LINE
  8
6
  6
CONTINUOUS
 10
110.708935
 20
11.300000
 11
110.708935
 21
8.600000
  0
TEXT
  8
1
  6
CONTINUOUS
 10
53.064239
 20
31.953655
 40
0.250000
 50
90.000000
  1
L1
  7
TQS_CALIBRI
  0
TEXT
  8
1
  6
CONTINUOUS
 10
54.077151
 20
50.692521
 40
0.250000
 50
90.000000
  1
L2
  7
TQS_CALIBRI
  0
TEXT
  8
1
  6
CONTINUOUS
 10
78.654727
 20
19.301086
 40
0.250000
 50
90.000000
  1
P125
  7
TQS_CALIBRI
  0
TEXT
  8
1
  6
CONTINUOUS
 10
79.570703
 20
30.122045
 40
0.250000
 50
90.000000
  1
P126
  7
TQS_CALIBRI
  0
TEXT
  8
1
  6
CONTINUOUS
 10
80.447131
 20
40.475796
 40
0.250000
 50
90.000000
  1
P127
  7
TQS_CALIBRI
  0
TEXT
  8
1
  6
CONTINUOUS
 10
62.047453
 20
20.706859
 40
0.250000
 50
90.000000
  1
P119
  7
TQS_CALIBRI
  0
TEXT
  8
1
  6
CONTINUOUS
 10
63.136529
 20
31.596798
 40
0.250000
 50
90.000000
  1
P120
  7
TQS_CALIBRI
  0
TEXT
  8
1
  6
CONTINUOUS
 10
64.005929
 20
41.867512
 40
0.250000
 50
90.000000
  1
P121
  7
TQS_CALIBRI
  0
TEXT
  8
1
  6
CONTINUOUS
 10
45.412065
 20
21.752373
 40
0.250000
 50
90.000000
  1
P111
  7
TQS_CALIBRI
  0
TEXT
  8
1
  6
CONTINUOUS
 10
46.412379
 20
33.569769
 40
0.250000
 50
90.000000
  1
P113
  7
TQS_CALIBRI
  0
TEXT
  8
1
  6
CONTINUOUS
 10
47.288807
 20
43.923519
 40
0.250000
 50
90.000000
  1
P114
  7
TQS_CALIBRI
  0
TEXT
  8
1
  6
CONTINUOUS
 10
16.435000
 20
24.205199
 40
0.250000
 50
90.000000
  1
P99
  7
TQS_CALIBRI
  0
TEXT
  8
1
  6
CONTINUOUS
 10
17.435314
 20
36.022596
 40
0.250000
 50
90.000000
  1
P100
  7
TQS_CALIBRI
  0
TEXT
  8
1
  6
CONTINUOUS
 10
95.528748
 20
18.068542
 40
0.250000
 50
90.000000
  1
P131
  7
TQS_CALIBRI
  0
TEXT
  8
1
  6
CONTINUOUS
 10
96.400184
 20
28.364329
 40
0.250000
 50
90.000000
  1
P132
  7
TQS_CALIBRI
  0
TEXT
  8
1
  6
CONTINUOUS
 10
97.271681
 20
38.660844
 40
0.250000
 50
90.000000
  1
P133
  7
TQS_CALIBRI
  0
TEXT
  8
1
  6
CONTINUOUS
 10
14.472813
 20
14.335338
 40
0.250000
 50
90.000000
  1
P98
  7
TQS_CALIBRI
  0
TEXT
  8
1
  6
CONTINUOUS
 10
98.189143
 20
49.539445
 40
0.250000
 50
90.000000
  1
P134
  7
TQS_CALIBRI
  0
TEXT
  8
1
  6
CONTINUOUS
 10
88.357781
 20
50.315450
 40
0.250000
 50
90.000000
  1
P129
  7
TQS_CALIBRI
  0
TEXT
  8
1
  6
CONTINUOUS
 10
77.563041
 20
51.229065
 40
0.250000
 50
90.000000
  1
P124
  7
TQS_CALIBRI
  0
TEXT
  8
1
  6
CONTINUOUS
 10
68.429030
 20
52.002124
 40
0.250000
 50
90.000000
  1
P122
  7
TQS_CALIBRI
  0
TEXT
  8
1
  6
CONTINUOUS
 10
51.821737
 20
53.407691
 40
0.250000
 50
90.000000
  1
P116
  7
TQS_CALIBRI
  0
TEXT
  8
1
  6
CONTINUOUS
 10
45.178820
 20
53.969910
 40
0.250000
 50
90.000000
  1
P112
  7
TQS_CALIBRI
  0
TEXT
  8
1
  6
CONTINUOUS
 10
27.511569
 20
55.465196
 40
0.250000
 50
90.000000
  1
P104
  7
TQS_CALIBRI
  0
TEXT
  8
1
  6
CONTINUOUS
 10
17.926874
 20
56.276395
 40
0.250000
 50
90.000000
  1
P101
  7
TQS_CALIBRI
  0
TEXT
  8
1
  6
CONTINUOUS
 10
9.125017
 20
57.077552
 40
0.250000
 50
90.000000
  1
P97
  7
TQS_CALIBRI
  0
TEXT
  8
1
  6
CONTINUOUS
 10
7.278155
 20
24.917457
 40
0.250000
 50
90.000000
  1
P93
  7
TQS_CALIBRI
  0
TEXT
  8
1
  6
CONTINUOUS
 10
6.813757
 20
43.118465
 40
0.250000
 50
90.000000
  1
P95
  7
TQS_CALIBRI
  0
TEXT
  8
1
  6
CONTINUOUS
 10
6.838045
 20
55.535108
 40
0.250000
 50
90.000000
  1
P96
  7
TQS_CALIBRI
  0
TEXT
  8
1
  6
CONTINUOUS
 10
60.500286
 20
52.729406
 40
0.250000
 50
90.000000
  1
P117
  7
TQS_CALIBRI
  0
TEXT
  8
1
  6
CONTINUOUS
 10
21.987612
 20
13.699305
 40
0.250000
 50
90.000000
  1
P103
  7
TQS_CALIBRI
  0
TEXT
  8
1
  6
CONTINUOUS
 10
71.736815
 20
8.986485
 40
0.250000
 50
90.000000
  1
P123
  7
TQS_CALIBRI
  0
TEXT
  8
1
  6
CONTINUOUS
 10
81.701191
 20
8.143152
 40
0.250000
 50
90.000000
  1
P128
  7
TQS_CALIBRI
  0
TEXT
  8
1
  6
CONTINUOUS
 10
94.597359
 20
7.051390
 40
0.250000
 50
90.000000
  1
P130
  7
TQS_CALIBRI
  0
TEXT
  8
1
  6
CONTINUOUS
 10
36.977723
 20
54.720105
 40
0.250000
 50
90.000000
  1
P109
  7
TQS_CALIBRI
  0
TEXT
  8
1
  6
CONTINUOUS
 10
50.416940
 20
9.043177
 40
0.250000
 50
90.000000
  1
P115
  7
TQS_CALIBRI
  0
TEXT
  8
1
  6
CONTINUOUS
 10
32.029110
 20
22.774571
 40
0.250000
 50
90.000000
  1
P106
  7
TQS_CALIBRI
  0
TEXT
  8
1
  6
CONTINUOUS
 10
33.029273
 20
34.591981
 40
0.250000
 50
90.000000
  1
P107
  7
TQS_CALIBRI
  0
TEXT
  8
1
  6
CONTINUOUS
 10
33.661888
 20
42.066717
 40
0.250000
 50
90.000000
  1
P108
  7
TQS_CALIBRI
  0
TEXT
  8
1
  6
CONTINUOUS
 10
18.269576
 20
45.878150
 40
0.250000
 50
90.000000
  1
P102
  7
TQS_CALIBRI
  0
TEXT
  8
1
  6
CONTINUOUS
 10
61.167703
 20
8.118359
 40
0.250000
 50
90.000000
  1
P304
  7
TQS_CALIBRI
  0
TEXT
  8
1
  6
CONTINUOUS
 10
41.575278
 20
11.539888
 40
0.250000
 50
90.000000
  1
P303
  7
TQS_CALIBRI
  0
TEXT
  8
1
  6
CONTINUOUS
 10
6.798499
 20
35.318480
 40
0.250000
 50
90.000000
  1
P302
  7
TQS_CALIBRI
  0
TEXT
  8
1
  6
CONTINUOUS
 10
61.189018
 20
10.381457
 40
0.250000
 50
90.000000
  1
P118
  7
TQS_CALIBRI
  0
TEXT
  8
1
  6
CONTINUOUS
 10
31.319000
 20
12.909883
 40
0.250000
 50
90.000000
  1
P105
  7
TQS_CALIBRI
  0
TEXT
  8
1
  6
CONTINUOUS
 10
6.779133
 20
25.451832
 40
0.250000
 50
90.000000
  1
P301
  7
TQS_CALIBRI
  0
TEXT
  8
1
  6
CONTINUOUS
 10
7.260197
 20
15.737003
 40
0.250000
 50
90.000000
  1
P92
  7
TQS_CALIBRI
  0
TEXT
  8
1
  6
CONTINUOUS
 10
36.692723
 20
51.275830
 40
0.250000
 50
90.000000
  1
P305
  7
TQS_CALIBRI
  0
TEXT
  8
1
  6
CONTINUOUS
 10
48.038442
 20
50.317463
 40
0.250000
 50
90.000000
  1
P306
  7
TQS_CALIBRI
  0
TEXT
  8
1
  6
CONTINUOUS
 10
59.385329
 20
49.359054
 40
0.250000
 50
90.000000
  1
P307
  7
TQS_CALIBRI
  0
TEXT
  8
1
  6
CONTINUOUS
 10
40.882329
 20
9.725699
 40
0.250000
 50
90.000000
  1
P110
  7
TQS_CALIBRI
  0
TEXT
  8
4
  6
CONTINUOUS
 10
51.222825
 20
16.268871
 40
0.250000
 50
175.161906
  1
C35
  7
TQS_CALIBRI
  0
TEXT
  8
4
  6
CONTINUOUS
 10
51.295919
 20
17.132450
 40
0.250000
 50
175.161906
  1
C36
  7
TQS_CALIBRI
  0
TEXT
  8
4
  6
CONTINUOUS
 10
51.369014
 20
17.996029
 40
0.250000
 50
175.161906
  1
C37
  7
TQS_CALIBRI
  0
TEXT
  8
4
  6
CONTINUOUS
 10
51.442109
 20
18.859608
 40
0.250000
 50
175.161906
  1
C38
  7
TQS_CALIBRI
  0
TEXT
  8
4
  6
CONTINUOUS
 10
51.515204
 20
19.723186
 40
0.250000
 50
175.161906
  1
C39
  7
TQS_CALIBRI
  0
TEXT
  8
4
  6
CONTINUOUS
 10
51.588299
 20
20.586765
 40
0.250000
 50
175.161906
  1
C40
  7
TQS_CALIBRI
  0
TEXT
  8
4
  6
CONTINUOUS
 10
51.661394
 20
21.450344
 40
0.250000
 50
175.161906
  1
C41
  7
TQS_CALIBRI
  0
TEXT
  8
4
  6
CONTINUOUS
 10
51.734489
 20
22.313923
 40
0.250000
 50
175.161906
  1
C42
  7
TQS_CALIBRI
  0
TEXT
  8
4
  6
CONTINUOUS
 10
51.807584
 20
23.177501
 40
0.250000
 50
175.161906
  1
C43
  7
TQS_CALIBRI
  0
TEXT
  8
4
  6
CONTINUOUS
 10
51.880679
 20
24.041080
 40
0.250000
 50
175.161906
  1
C44
  7
TQS_CALIBRI
  0
TEXT
  8
4
  6
CONTINUOUS
 10
51.953774
 20
24.904659
 40
0.250000
 50
175.161906
  1
C45
  7
TQS_CALIBRI
  0
TEXT
  8
4
  6
CONTINUOUS
 10
52.026869
 20
25.768238
 40
0.250000
 50
175.161906
  1
C46
  7
TQS_CALIBRI
  0
TEXT
  8
4
  6
CONTINUOUS
 10
51.150033
 20
11.786091
 40
0.250000
 50
175.161909
  1
C32
  7
TQS_CALIBRI
  0
TEXT
  8
4
  6
CONTINUOUS
 10
51.282167
 20
13.347175
 40
0.250000
 50
175.161909
  1
C33
  7
TQS_CALIBRI
  0
TEXT
  8
4
  6
CONTINUOUS
 10
51.414300
 20
14.908260
 40
0.250000
 50
175.161909
  1
C34
  7
TQS_CALIBRI
  0
TEXT
  8
4
  6
CONTINUOUS
 10
51.418814
 20
26.886465
 40
0.250000
 50
175.161901
  1
C47
  7
TQS_CALIBRI
  0
TEXT
  8
4
  6
CONTINUOUS
 10
51.491909
 20
27.750044
 40
0.250000
 50
175.161901
  1
C48
  7
TQS_CALIBRI
  0
TEXT
  8
4
  6
CONTINUOUS
 10
51.565004
 20
28.613622
 40
0.250000
 50
175.161901
  1
C49
  7
TQS_CALIBRI
  0
TEXT
  8
4
  6
CONTINUOUS
 10
51.638099
 20
29.477201
 40
0.250000
 50
175.161901
  1
C50
  7
TQS_CALIBRI
  0
TEXT
  8
4
  6
CONTINUOUS
 10
51.711194
 20
30.340780
 40
0.250000
 50
175.161901
  1
C51
  7
TQS_CALIBRI
  0
TEXT
  8
4
  6
CONTINUOUS
 10
51.784289
 20
31.204359
 40
0.250000
 50
175.161901
  1
C52
  7
TQS_CALIBRI
  0
TEXT
  8
4
  6
CONTINUOUS
 10
51.857384
 20
32.067937
 40
0.250000
 50
175.161901
  1
C53
  7
TQS_CALIBRI
  0
TEXT
  8
4
  6
CONTINUOUS
 10
51.930479
 20
32.931516
 40
0.250000
 50
175.161901
  1
C54
  7
TQS_CALIBRI
  0
TEXT
  8
4
  6
CONTINUOUS
 10
52.003575
 20
33.795095
 40
0.250000
 50
175.161901
  1
C55
  7
TQS_CALIBRI
  0
TEXT
  8
4
  6
CONTINUOUS
 10
52.076670
 20
34.658674
 40
0.250000
 50
175.161901
  1
C56
  7
TQS_CALIBRI
  0
TEXT
  8
4
  6
CONTINUOUS
 10
52.149765
 20
35.522252
 40
0.250000
 50
175.161901
  1
C57
  7
TQS_CALIBRI
  0
TEXT
  8
4
  6
CONTINUOUS
 10
52.222860
 20
36.385831
 40
0.250000
 50
175.161901
  1
C58
  7
TQS_CALIBRI
  0
TEXT
  8
4
  6
CONTINUOUS
 10
51.868087
 20
37.412971
 40
0.250000
 50
175.161897
  1
C59
  7
TQS_CALIBRI
  0
TEXT
  8
4
  6
CONTINUOUS
 10
51.942587
 20
38.293157
 40
0.250000
 50
175.161897
  1
C60
  7
TQS_CALIBRI
  0
TEXT
  8
4
  6
CONTINUOUS
 10
52.017088
 20
39.173343
 40
0.250000
 50
175.161897
  1
C61
  7
TQS_CALIBRI
  0
TEXT
  8
4
  6
CONTINUOUS
 10
52.091589
 20
40.053529
 40
0.250000
 50
175.161897
  1
C62
  7
TQS_CALIBRI
  0
TEXT
  8
4
  6
CONTINUOUS
 10
52.166090
 20
40.933715
 40
0.250000
 50
175.161897
  1
C63
  7
TQS_CALIBRI
  0
TEXT
  8
4
  6
CONTINUOUS
 10
52.240590
 20
41.813901
 40
0.250000
 50
175.161897
  1
C64
  7
TQS_CALIBRI
  0
TEXT
  8
4
  6
CONTINUOUS
 10
52.315091
 20
42.694087
 40
0.250000
 50
175.161897
  1
C65
  7
TQS_CALIBRI
  0
TEXT
  8
4
  6
CONTINUOUS
 10
52.389592
 20
43.574273
 40
0.250000
 50
175.161897
  1
C66
  7
TQS_CALIBRI
  0
TEXT
  8
4
  6
CONTINUOUS
 10
52.464093
 20
44.454459
 40
0.250000
 50
175.161897
  1
C67
  7
TQS_CALIBRI
  0
TEXT
  8
4
  6
CONTINUOUS
 10
52.538594
 20
45.334645
 40
0.250000
 50
175.161897
  1
C68
  7
TQS_CALIBRI
  0
TEXT
  8
4
  6
CONTINUOUS
 10
52.613094
 20
46.214831
 40
0.250000
 50
175.161897
  1
C69
  7
TQS_CALIBRI
  0
TEXT
  8
4
  6
CONTINUOUS
 10
52.687595
 20
47.095017
 40
0.250000
 50
175.161897
  1
C70
  7
TQS_CALIBRI
  0
TEXT
  8
4
  6
CONTINUOUS
 10
52.481027
 20
48.448261
 40
0.250000
 50
175.161895
  1
C71
  7
TQS_CALIBRI
  0
TEXT
  8
4
  6
CONTINUOUS
 10
52.618783
 20
50.075775
 40
0.250000
 50
175.161895
  1
C72
  7
TQS_CALIBRI
  0
TEXT
  8
4
  6
CONTINUOUS
 10
52.756539
 20
51.703289
 40
0.250000
 50
175.161895
  1
C73
  7
TQS_CALIBRI
  0
TEXT
  8
1
  6
CONTINUOUS
 10
5.630232
 20
74.299600
 40
0.220000
  1
CABO
  7
TQS_CALIBRI
  0
TEXT
  8
1
  6
CONTINUOUS
 10
12.694713
 20
74.589600
 40
0.220000
  1
COMPRIMENTO
  7
TQS_CALIBRI
  0
TEXT
  8
1
  6
CONTINUOUS
 10
15.689019
 20
74.089600
 40
0.220000
  1
TOTAL
  7
TQS_CALIBRI
  0
TEXT
  8
1
  6
CONTINUOUS
 10
18.519373
 20
74.089600
 40
0.220000
  1
A
  7
TQS_CALIBRI
  0
TEXT
  8
1
  6
CONTINUOUS
 10
19.564189
 20
74.089600
 40
0.220000
  1
P
  7
TQS_CALIBRI
  0
TEXT
  8
1
  6
CONTINUOUS
 10
20.609005
 20
74.089600
 40
0.220000
  1
I
  7
TQS_CALIBRI
  0
TEXT
  8
1
  6
CONTINUOUS
 10
18.536686
 20
74.589600
 40
0.220000
  1
ANCORAGENS
  7
TQS_CALIBRI
  0
TEXT
  8
1
  6
CONTINUOUS
 10
10.089193
 20
74.299600
 40
0.220000
  1
Q
  7
TQS_CALIBRI
  0
TEXT
  8
1
  6
CONTINUOUS
 10
6.788854
 20
75.249600
 40
0.400000
  1
PROTENSÃO: AÇO
  7
TQS_CALIBRI
  0
TEXT
  8
1
  6
CONTINUOUS
 10
12.107583
 20
74.089600
 40
0.220000
  1
UNITÁRIO
  7
TQS_CALIBRI
  0
TEXT
  8
1
  6
CONTINUOUS
 10
21.564068
 20
74.089600
 40
0.220000
  1
INI
  7
TQS_CALIBRI
  0
TEXT
  8
1
  6
CONTINUOUS
 10
23.131292
 20
74.089600
 40
0.220000
  1
FIN
  7
TQS_CALIBRI
  0
TEXT
  8
1
  6
CONTINUOUS
 10
8.018444
 20
74.301819
 40
0.220000
  1
%%c
  7
TQS_CALIBRI
  0
TEXT
  8
1
  6
CONTINUOUS
 10
21.657834
 20
74.589600
 40
0.220000
  1
ALONG
  7
TQS_CALIBRI
  0
TEXT
  8
1
  6
CONTINUOUS
 10
13.117084
 20
75.249600
 40
0.400000
  1
CP190 RB 12.7 - 12.7
  7
TQS_CALIBRI
  0
TEXT
  8
1
  6
CONTINUOUS
 10
8.303592
 20
74.301819
 40
0.220000
  1
(mm)
  7
TQS_CALIBRI
  0
TEXT
  8
1
  6
CONTINUOUS
 10
15.354789
 20
74.589600
 40
0.220000
  1
(m)
  7
TQS_CALIBRI
  0
TEXT
  8
1
  6
CONTINUOUS
 10
22.845330
 20
74.589600
 40
0.220000
  1
(mm)
  7
TQS_CALIBRI
  0
TEXT
  8
1
  6
CONTINUOUS
 10
5.275654
 20
73.589600
 40
0.220000
  1
C32 A C34
  7
TQS_CALIBRI
  0
TEXT
  8
1
  6
CONTINUOUS
 10
7.629135
 20
73.589600
 40
0.220000
  1
2 %%c 12.7
  7
TQS_CALIBRI
  0
TEXT
  8
1
  6
CONTINUOUS
 10
9.843532
 20
73.589600
 40
0.220000
  1
3
  7
TQS_CALIBRI
  0
TEXT
  8
1
  6
CONTINUOUS
 10
12.080115
 20
73.589600
 40
0.220000
  1
54.2
  7
TQS_CALIBRI
  0
TEXT
  8
1
  6
CONTINUOUS
 10
15.356948
 20
73.589600
 40
0.220000
  1
325.3
  7
TQS_CALIBRI
  0
TEXT
  8
1
  6
CONTINUOUS
 10
18.334920
 20
73.589600
 40
0.220000
  1
6
  7
TQS_CALIBRI
  0
TEXT
  8
1
  6
CONTINUOUS
 10
19.379736
 20
73.589600
 40
0.220000
  1
6
  7
TQS_CALIBRI
  0
TEXT
  8
1
  6
CONTINUOUS
 10
21.416559
 20
73.589600
 40
0.220000
  1
0
  7
TQS_CALIBRI
  0
TEXT
  8
1
  6
CONTINUOUS
 10
22.983783
 20
73.589600
 40
0.220000
  1
360
  7
TQS_CALIBRI
  0
TEXT
  8
1
  6
CONTINUOUS
 10
5.275654
 20
73.089599
 40
0.220000
  1
C35 A C46
  7
TQS_CALIBRI
  0
TEXT
  8
1
  6
CONTINUOUS
 10
7.629135
 20
73.089599
 40
0.220000
  1
3 %%c 12.7
  7
TQS_CALIBRI
  0
TEXT
  8
1
  6
CONTINUOUS
 10
9.843532
 20
73.089599
 40
0.220000
  1
12
  7
TQS_CALIBRI
  0
TEXT
  8
1
  6
CONTINUOUS
 10
12.080115
 20
73.089599
 40
0.220000
  1
54.6
  7
TQS_CALIBRI
  0
TEXT
  8
1
  6
CONTINUOUS
 10
15.356948
 20
73.089599
 40
0.220000
  1
1965.1
  7
TQS_CALIBRI
  0
TEXT
  8
1
  6
CONTINUOUS
 10
18.334920
 20
73.089599
 40
0.220000
  1
36
  7
TQS_CALIBRI
  0
TEXT
  8
1
  6
CONTINUOUS
 10
19.379736
 20
73.089599
 40
0.220000
  1
36
  7
TQS_CALIBRI
  0
TEXT
  8
1
  6
CONTINUOUS
 10
21.416559
 20
73.089599
 40
0.220000
  1
0
  7
TQS_CALIBRI
  0
TEXT
  8
1
  6
CONTINUOUS
 10
22.983783
 20
73.089599
 40
0.220000
  1
354
  7
TQS_CALIBRI
  0
TEXT
  8
1
  6
CONTINUOUS
 10
5.275654
 20
72.589598
 40
0.220000
  1
C47 A C58
  7
TQS_CALIBRI
  0
TEXT
  8
1
  6
CONTINUOUS
 10
7.629135
 20
72.589598
 40
0.220000
  1
   "
  7
TQS_CALIBRI
  0
TEXT
  8
1
  6
CONTINUOUS
 10
9.843532
 20
72.589598
 40
0.220000
  1
12
  7
TQS_CALIBRI
  0
TEXT
  8
1
  6
CONTINUOUS
 10
12.080115
 20
72.589598
 40
0.220000
  1
55.4
  7
TQS_CALIBRI
  0
TEXT
  8
1
  6
CONTINUOUS
 10
15.356948
 20
72.589598
 40
0.220000
  1
1995.4
  7
TQS_CALIBRI
  0
TEXT
  8
1
  6
CONTINUOUS
 10
18.334920
 20
72.589598
 40
0.220000
  1
36
  7
TQS_CALIBRI
  0
TEXT
  8
1
  6
CONTINUOUS
 10
19.379736
 20
72.589598
 40
0.220000
  1
36
  7
TQS_CALIBRI
  0
TEXT
  8
1
  6
CONTINUOUS
 10
21.416559
 20
72.589598
 40
0.220000
  1
0
  7
TQS_CALIBRI
  0
TEXT
  8
1
  6
CONTINUOUS
 10
22.983783
 20
72.589598
 40
0.220000
  1
359
  7
TQS_CALIBRI
  0
TEXT
  8
1
  6
CONTINUOUS
 10
5.275654
 20
72.089597
 40
0.220000
  1
C59 A C70
  7
TQS_CALIBRI
  0
TEXT
  8
1
  6
CONTINUOUS
 10
7.629135
 20
72.089597
 40
0.220000
  1
   "
  7
TQS_CALIBRI
  0
TEXT
  8
1
  6
CONTINUOUS
 10
9.843532
 20
72.089597
 40
0.220000
  1
12
  7
TQS_CALIBRI
  0
TEXT
  8
1
  6
CONTINUOUS
 10
12.080115
 20
72.089597
 40
0.220000
  1
56
  7
TQS_CALIBRI
  0
TEXT
  8
1
  6
CONTINUOUS
 10
15.356948
 20
72.089597
 40
0.220000
  1
2014.4
  7
TQS_CALIBRI
  0
TEXT
  8
1
  6
CONTINUOUS
 10
18.334920
 20
72.089597
 40
0.220000
  1
36
  7
TQS_CALIBRI
  0
TEXT
  8
1
  6
CONTINUOUS
 10
19.379736
 20
72.089597
 40
0.220000
  1
36
  7
TQS_CALIBRI
  0
TEXT
  8
1
  6
CONTINUOUS
 10
21.416559
 20
72.089597
 40
0.220000
  1
0
  7
TQS_CALIBRI
  0
TEXT
  8
1
  6
CONTINUOUS
 10
22.983783
 20
72.089597
 40
0.220000
  1
362
  7
TQS_CALIBRI
  0
TEXT
  8
1
  6
CONTINUOUS
 10
5.275654
 20
71.589597
 40
0.220000
  1
C71 A C73
  7
TQS_CALIBRI
  0
TEXT
  8
1
  6
CONTINUOUS
 10
7.629135
 20
71.589597
 40
0.220000
  1
   "
  7
TQS_CALIBRI
  0
TEXT
  8
1
  6
CONTINUOUS
 10
9.843532
 20
71.589597
 40
0.220000
  1
3
  7
TQS_CALIBRI
  0
TEXT
  8
1
  6
CONTINUOUS
 10
12.080115
 20
71.589597
 40
0.220000
  1
56.3
  7
TQS_CALIBRI
  0
TEXT
  8
1
  6
CONTINUOUS
 10
15.356948
 20
71.589597
 40
0.220000
  1
507
  7
TQS_CALIBRI
  0
TEXT
  8
1
  6
CONTINUOUS
 10
18.334920
 20
71.589597
 40
0.220000
  1
9
  7
TQS_CALIBRI
  0
TEXT
  8
1
  6
CONTINUOUS
 10
19.379736
 20
71.589597
 40
0.220000
  1
9
  7
TQS_CALIBRI
  0
TEXT
  8
1
  6
CONTINUOUS
 10
21.416559
 20
71.589597
 40
0.220000
  1
0
  7
TQS_CALIBRI
  0
TEXT
  8
1
  6
CONTINUOUS
 10
22.983783
 20
71.589597
 40
0.220000
  1
378
  7
TQS_CALIBRI
  0
TEXT
  8
1
  6
CONTINUOUS
 10
5.761795
 20
68.589596
 40
0.220000
  1
%%c
  7
TQS_CALIBRI
  0
TEXT
  8
1
  6
CONTINUOUS
 10
9.335333
 20
69.089596
 40
0.220000
  1
CABO
  7
TQS_CALIBRI
  0
TEXT
  8
1
  6
CONTINUOUS
 10
15.519893
 20
68.339597
 40
0.220000
  1
A
  7
TQS_CALIBRI
  0
TEXT
  8
1
  6
CONTINUOUS
 10
16.564708
 20
68.339597
 40
0.220000
  1
P
  7
TQS_CALIBRI
  0
TEXT
  8
1
  6
CONTINUOUS
 10
17.609525
 20
68.339597
 40
0.220000
  1
I
  7
TQS_CALIBRI
  0
TEXT
  8
1
  6
CONTINUOUS
 10
11.831092
 20
68.589596
 40
0.220000
  1
PESO
  7
TQS_CALIBRI
  0
TEXT
  8
1
  6
CONTINUOUS
 10
15.590072
 20
69.089596
 40
0.220000
  1
ANCORAGENS
  7
TQS_CALIBRI
  0
TEXT
  8
1
  6
CONTINUOUS
 10
7.668852
 20
70.172929
 40
0.400000
  1
RESUMO DE PROTENSÃO
  7
TQS_CALIBRI
  0
TEXT
  8
1
  6
CONTINUOUS
 10
7.206989
 20
69.610229
 40
0.300000
  1
Monocordoalhas não aderentes
  7
TQS_CALIBRI
  0
TEXT
  8
1
  6
CONTINUOUS
 10
7.598090
 20
68.589596
 40
0.220000
  1
COMPR
  7
TQS_CALIBRI
  0
TEXT
  8
1
  6
CONTINUOUS
 10
9.447878
 20
68.089597
 40
0.220000
  1
kgf/m
  7
TQS_CALIBRI
  0
TEXT
  8
1
  6
CONTINUOUS
 10
11.599655
 20
68.089597
 40
0.220000
  1
kgf
  7
TQS_CALIBRI
  0
TEXT
  8
1
  6
CONTINUOUS
 10
13.414047
 20
68.089597
 40
0.220000
  1
kgf+4%
  7
TQS_CALIBRI
  0
TEXT
  8
1
  6
CONTINUOUS
 10
7.602636
 20
68.089597
 40
0.220000
  1
m
  7
TQS_CALIBRI
  0
TEXT
  8
1
  6
CONTINUOUS
 10
5.740175
 20
68.089597
 40
0.220000
  1
mm
  7
TQS_CALIBRI
  0
TEXT
  8
1
  6
CONTINUOUS
 10
7.327952
 20
67.589596
 40
0.220000
  1
325
  7
TQS_CALIBRI
  0
TEXT
  8
1
  6
CONTINUOUS
 10
16.373549
 20
67.589596
 40
0.220000
  1
6
  7
TQS_CALIBRI
  0
TEXT
  8
1
  6
CONTINUOUS
 10
15.328732
 20
67.589596
 40
0.220000
  1
6
  7
TQS_CALIBRI
  0
TEXT
  8
1
  6
CONTINUOUS
 10
9.447878
 20
67.589596
 40
0.220000
  1
0.886
  7
TQS_CALIBRI
  0
TEXT
  8
1
  6
CONTINUOUS
 10
11.037207
 20
67.589596
 40
0.220000
  1
288
  7
TQS_CALIBRI
  0
TEXT
  8
1
  6
CONTINUOUS
 10
13.097205
 20
67.589596
 40
0.220000
  1
300
  7
TQS_CALIBRI
  0
TEXT
  8
1
  6
CONTINUOUS
 10
5.140019
 20
67.589596
 40
0.220000
  1
2 %%c 12.7
  7
TQS_CALIBRI
  0
TEXT
  8
1
  6
CONTINUOUS
 10
7.327952
 20
67.089595
 40
0.220000
  1
6482
  7
TQS_CALIBRI
  0
TEXT
  8
1
  6
CONTINUOUS
 10
16.373549
 20
67.089595
 40
0.220000
  1
117
  7
TQS_CALIBRI
  0
TEXT
  8
1
  6
CONTINUOUS
 10
15.328732
 20
67.089595
 40
0.220000
  1
117
  7
TQS_CALIBRI
  0
TEXT
  8
1
  6
CONTINUOUS
 10
9.447878
 20
67.089595
 40
0.220000
  1
0.886
  7
TQS_CALIBRI
  0
TEXT
  8
1
  6
CONTINUOUS
 10
11.037207
 20
67.089595
 40
0.220000
  1
5743
  7
TQS_CALIBRI
  0
TEXT
  8
1
  6
CONTINUOUS
 10
13.097205
 20
67.089595
 40
0.220000
  1
5973
  7
TQS_CALIBRI
  0
TEXT
  8
1
  6
CONTINUOUS
 10
5.140019
 20
67.089595
 40
0.220000
  1
3 %%c 12.7
  7
TQS_CALIBRI
  0
TEXT
  8
1
  6
CONTINUOUS
 10
101.932386
 20
23.396411
 40
0.350000
  1
NOTAS:
  7
TQS_CALIBRI
  0
TEXT
  8
2
  6
CONTINUOUS
 10
101.965840
 20
22.812661
 40
0.240000
  1
1) CONFERIR INFORMAÇÕES DA TABELA ACIMA (TABELA DE FERRERAGEM) NA OBRA
  7
TQS_CALIBRI
  0
TEXT
  8
2
  6
CONTINUOUS
 10
101.965840
 20
22.343353
 40
0.240000
  1
ANTES DA COMPRA DAS ARMADURAS.
  7
TQS_CALIBRI
  0
TEXT
  8
1
  6
CONTINUOUS
 10
102.073109
 20
8.835799
 40
0.455000
  1
ENGENHARIA
  7
TQS_CALIBRI
  0
TEXT
  8
1
  6
CONTINUOUS
 10
101.876737
 20
16.222571
 40
0.250000
  1
REV
  7
TQS_CALIBRI
  0
TEXT
  8
1
  6
CONTINUOUS
 10
103.356169
 20
16.222571
 40
0.250000
  1
DATA
  7
TQS_CALIBRI
  0
TEXT
  8
1
  6
CONTINUOUS
 10
105.030516
 20
16.222571
 40
0.250000
  1
ASSUNTO
  7
TQS_CALIBRI
  0
TEXT
  8
1
  6
CONTINUOUS
 10
101.832253
 20
14.047181
 40
0.250000
  1
PROPRIETÁRIO - 
  7
TQS_CALIBRI
  0
TEXT
  8
1
  6
CONTINUOUS
 10
108.042444
 20
2.579059
 40
0.250000
  1
ENGENHEIRO:
  7
TQS_CALIBRI
  0
TEXT
  8
1
  6
CONTINUOUS
 10
108.046365
 20
2.149652
 40
0.250000
  1
CREA REG.:
  7
TQS_CALIBRI
  0
TEXT
  8
1
  6
CONTINUOUS
 10
110.430567
 20
2.160333
 40
0.250000
  1
020930945-8
  7
TQS_CALIBRI
  0
TEXT
  8
1
  6
CONTINUOUS
 10
103.739739
 20
9.759850
 40
1.000000
  1
VGF
  7
TQS_CALIBRI
  0
TEXT
  8
1
  6
CONTINUOUS
 10
101.832253
 20
12.147181
 40
0.250000
  1
PROJETO              Eng. Civil - CREA:020930945-8
  7
TQS_CALIBRI
  0
TEXT
  8
1
  6
CONTINUOUS
 10
101.800510
 20
2.752624
 40
0.150000
  1
DATA:
  7
TQS_CALIBRI
  0
TEXT
  8
1
  6
CONTINUOUS
 10
101.788178
 20
1.752624
 40
0.150000
  1
FASE:
  7
TQS_CALIBRI
  0
TEXT
  8
1
  6
CONTINUOUS
 10
105.124829
 20
2.752624
 40
0.150000
  1
ESCALA:
  7
TQS_CALIBRI
  0
TEXT
  8
1
  6
CONTINUOUS
 10
105.112497
 20
1.752624
 40
0.150000
  1
PLANTA:
  7
TQS_CALIBRI
  0
TEXT
  8
1
  6
CONTINUOUS
 10
101.800510
 20
6.352624
 40
0.150000
  1
TÍTULO:
  7
TQS_CALIBRI
  0
TEXT
  8
1
  6
CONTINUOUS
 10
101.787482
 20
5.577767
 40
0.150000
  1
ELEMENTOS DA PRANCHA:
  7
TQS_CALIBRI
  0
TEXT
  8
1
  6
CONTINUOUS
 10
101.800510
 20
8.252624
 40
0.150000
  1
EMPREENDIMENTO/LOCAL:
  7
TQS_CALIBRI
  0
TEXT
  8
1
  6
CONTINUOUS
 10
106.761120
 20
11.025301
 40
0.150000
  1
CONTATOS:
  7
TQS_CALIBRI
  0
TEXT
  8
1
  6
CONTINUOUS
 10
114.224829
 20
2.752624
 40
0.150000
  1
PLANTA-REVISÃO:
  7
TQS_CALIBRI
  0
TEXT
  8
1
  6
CONTINUOUS
 10
102.041441
 20
16.843956
 40
0.200000
  1
00
  7
TQS_CALIBRI
  0
TEXT
  8
1
  6
CONTINUOUS
 10
102.041441
 20
17.343956
 40
0.200000
  1
01
  7
TQS_CALIBRI
  0
TEXT
  8
1
  6
CONTINUOUS
 10
102.041441
 20
17.843956
 40
0.200000
  1
02
  7
TQS_CALIBRI
  0
TEXT
  8
1
  6
CONTINUOUS
 10
102.041441
 20
18.343956
 40
0.200000
  1
03
  7
TQS_CALIBRI
  0
TEXT
  8
1
  6
CONTINUOUS
 10
102.041441
 20
18.843956
 40
0.200000
  1
04
  7
TQS_CALIBRI
  0
TEXT
  8
1
  6
CONTINUOUS
 10
102.041441
 20
19.343956
 40
0.200000
  1
05
  7
TQS_CALIBRI
  0
TEXT
  8
1
  6
CONTINUOUS
 10
102.041441
 20
19.843956
 40
0.200000
  1
06
  7
TQS_CALIBRI
  0
TEXT
  8
1
  6
CONTINUOUS
 10
102.041441
 20
20.343956
 40
0.200000
  1
07
  7
TQS_CALIBRI
  0
TEXT
  8
1
  6
CONTINUOUS
 10
102.041441
 20
20.843956
 40
0.200000
  1
08
  7
TQS_CALIBRI
  0
TEXT
  8
1
  6
CONTINUOUS
 10
102.041441
 20
21.343956
 40
0.200000
  1
09
  7
TQS_CALIBRI
  0
TEXT
  8
1
  6
CONTINUOUS
 10
102.041441
 20
21.843956
 40
0.200000
  1
10
  7
TQS_CALIBRI
  0
TEXT
  8
1
  6
CONTINUOUS
 10
116.437973
 20
16.222571
 40
0.250000
  1
AUTOR
  7
TQS_CALIBRI
  0
TEXT
  8
1
  6
CONTINUOUS
 10
106.749019
 20
10.335784
 40
0.195000
  1
Tel: 99928-2128
  7
TQS_CALIBRI
  0
TEXT
  8
1
  6
CONTINUOUS
 10
106.749019
 20
10.012284
 40
0.195000
  1
franciscogonca@hotmail.com 
  7
TQS_CALIBRI
  0
TEXT
  8
1
  6
CONTINUOUS
 10
106.749019
 20
9.680784
 40
0.195000
  1
Tel: 99981-6458
  7
TQS_CALIBRI
  0
TEXT
  8
1
  6
CONTINUOUS
 10
106.749019
 20
9.357284
 40
0.195000
  1
tiago@vgfengenharia.com.br 
  7
TQS_CALIBRI
  0
TEXT
  8
1
  6
CONTINUOUS
 10
106.749019
 20
9.025784
 40
0.195000
  1
Tel: 99912-8379
  7
TQS_CALIBRI
  0
TEXT
  8
1
  6
CONTINUOUS
 10
110.809443
 20
11.052624
 40
0.150000
  1
CLIENTE:
  7
TQS_CALIBRI
  0
TEXT
  8
1
  6
CONTINUOUS
 10
116.009770
 20
1.647683
 40
0.500000
  1
-R
  7
TQS_CALIBRI
  0
TEXT
  8
1
  6
CONTINUOUS
 10
101.832253
 20
12.547181
 40
0.250000
  1
RESPONSÁVEL -  Diego de Vasconcelos Gonçalves Ferreira
  7
TQS_CALIBRI
  0
TEXT
  8
1
  6
CONTINUOUS
 10
110.422141
 20
2.578345
 40
0.250000
  1
Diego Vasconcelos
  7
TQS_CALIBRI
  0
TEXT
  8
1
  6
CONTINUOUS
 10
106.749019
 20
10.667284
 40
0.195000
  1
diego@vgfengenharia.com.br 
  7
TQS_CALIBRI
  0
TEXT
  8
1
  6
CONTINUOUS
 10
104.982892
 20
16.853163
 40
0.200000
  1
Emissão inicial.
  7
TQS_CALIBRI
  0
TEXT
  8
1
  6
CONTINUOUS
 10
101.795719
 20
7.825700
 40
0.250000
  1
Assembléia Legislativa de Alagoas
  7
TQS_CALIBRI
  0
TEXT
  8
1
  6
CONTINUOUS
 10
104.517953
 20
14.045361
 40
0.250000
  1
ALA
  7
TQS_CALIBRI
  0
TEXT
  8
1
  6
CONTINUOUS
 10
101.789281
 20
2.263237
 40
0.250000
  1
26/02/2024
  7
TQS_CALIBRI
  0
TEXT
  8
1
  6
CONTINUOUS
 10
102.992347
 20
16.854551
 40
0.200000
  1
26/02/24
  7
TQS_CALIBRI
  0
TEXT
  8
1
  6
CONTINUOUS
 10
101.787954
 20
7.415393
 40
0.200000
  1
RUA SÁ E ALBUQUERQUE, NÚMERO 807, JARAGUÁ - MACEIÓ-AL
  7
TQS_CALIBRI
  0
TEXT
  8
1
  6
CONTINUOUS
 10
101.789859
 20
1.251887
 40
0.250000
  1
PE
  7
TQS_CALIBRI
  0
TEXT
  8
1
  6
CONTINUOUS
 10
105.114178
 20
1.251887
 40
0.250000
  1
CLA-EEM-EST-PE-0436-ARM-R00
  7
TQS_CALIBRI
  0
TEXT
  8
1
  6
CONTINUOUS
 10
116.547332
 20
16.842370
 40
0.200000
  1
DIEGO
  7
TQS_CALIBRI
  0
TEXT
  8
1
  6
CONTINUOUS
 10
114.396264
 20
1.644018
 40
0.500000
  1
0436
  7
TQS_CALIBRI
  0
TEXT
  8
1
  6
CONTINUOUS
 10
116.689770
 20
1.647683
 40
0.500000
  1
00
  7
TQS_CALIBRI
  0
TEXT
  8
1
  6
CONTINUOUS
 10
110.802729
 20
10.513659
 40
0.400000
  1
ALA
  7
TQS_CALIBRI
  0
TEXT
  8
1
  6
CONTINUOUS
 10
101.762319
 20
5.951739
 40
0.250000
  1
ARM. PROTENSÃO VERTICAL (03-2Pavto) - 01 - J
  7
TQS_CALIBRI
  0
ENDSEC
  0
EOF
