  0
SECTION
  2
HEADER
  9
$ACADVER
  1
AC1002
  9
$USERI1
 70
0
  9
$INSBASE
 10
0.000000
 20
0.000000
  9
$EXTMIN
 10
0.000000
 20
0.000000
  9
$EXTMAX
 10
7.761771
 20
4.436620
  9
$LIMMIN
 10
0.000000
 20
0.000000
  9
$LIMMAX
 10
12.000000
 20
9.000000
  9
$VIEWCTR
 10
78.887138
 20
59.361758
  9
$VIEWSIZE
 40
127.522840
  9
$TEXTSIZE
 40
0.100000
  9
$TRACEWID
 40
0.010000
  9
$LTSCALE
 40
1.000000
  0
ENDSEC
  0
SECTION
  2
TABLES
  0
TABLE
  2
LTYPE
 70
     3
  0
LTYPE
  2
CONTINUOUS
 70
    64
  3
Solid line
 72
    65
 73
     0
 40
0.000000
  0
LTYPE
  2
ESTILO_TQS_0001
 70
    64
  3
-  -  -  -  -  -
 72
    65
 73
     2
 40
1.000000
 49
0.700000
 49
-0.300000
  0
LTYPE
  2
ESTILO_TQS_0002
 70
    64
  3
. . . . . . . .
 72
    65
 73
     2
 40
0.400000
 49
0.100000
 49
-0.300000
  0
LTYPE
  2
ESTILO_TQS_0003
 70
    64
  3
- . - . - . - .
 72
    65
 73
     4
 40
0.910000
 49
0.500000
 49
-0.200000
 49
0.010000
 49
-0.200000
  0
LTYPE
  2
ESTILO_TQS_0004
 70
    64
  3
- .. - .. - ..
 72
    65
 73
     6
 40
1.120000
 49
0.500000
 49
-0.200000
 49
0.010000
 49
-0.200000
 49
0.010000
 49
-0.200000
  0
LTYPE
  2
CONTINUOUS
 70
    64
  3
- - - - - - - -
 72
    65
 73
     2
 40
0.400000
 49
0.300000
 49
-0.100000
  0
ENDTAB
  0
TABLE
  2
LAYER
 70
    89
  0
LAYER
  2
0
 70
     0
 62
     7
  6
CONTINUOUS
  0
LAYER
  2
1
 70
     0
 62
     1
  6
CONTINUOUS
  0
LAYER
  2
2
 70
     0
 62
     2
  6
CONTINUOUS
  0
LAYER
  2
3
 70
     0
 62
     3
  6
CONTINUOUS
  0
LAYER
  2
4
 70
     0
 62
     4
  6
CONTINUOUS
  0
LAYER
  2
5
 70
     0
 62
     5
  6
CONTINUOUS
  0
LAYER
  2
6
 70
     0
 62
     6
  6
CONTINUOUS
  0
LAYER
  2
7
 70
     0
 62
     7
  6
CONTINUOUS
  0
LAYER
  2
8
 70
     0
 62
     8
  6
CONTINUOUS
  0
LAYER
  2
9
 70
     0
 62
     9
  6
CONTINUOUS
  0
LAYER
  2
10
 70
     0
 62
    10
  6
CONTINUOUS
  0
LAYER
  2
11
 70
     0
 62
    11
  6
CONTINUOUS
  0
LAYER
  2
12
 70
     0
 62
    12
  6
CONTINUOUS
  0
LAYER
  2
13
 70
     0
 62
    13
  6
CONTINUOUS
  0
LAYER
  2
14
 70
     0
 62
    14
  6
CONTINUOUS
  0
LAYER
  2
15
 70
     0
 62
    15
  6
CONTINUOUS
  0
LAYER
  2
16
 70
     0
 62
     7
  6
CONTINUOUS
  0
LAYER
  2
17
 70
     0
 62
     2
  6
CONTINUOUS
  0
LAYER
  2
18
 70
     0
 62
     4
  6
CONTINUOUS
  0
LAYER
  2
19
 70
     0
 62
     5
  6
CONTINUOUS
  0
LAYER
  2
20
 70
     0
 62
     4
  6
CONTINUOUS
  0
LAYER
  2
21
 70
     0
 62
     2
  6
CONTINUOUS
  0
LAYER
  2
22
 70
     0
 62
     1
  6
CONTINUOUS
  0
LAYER
  2
23
 70
     0
 62
     7
  6
CONTINUOUS
  0
LAYER
  2
24
 70
     0
 62
     6
  6
CONTINUOUS
  0
LAYER
  2
25
 70
     0
 62
     1
  6
CONTINUOUS
  0
LAYER
  2
26
 70
     0
 62
     3
  6
CONTINUOUS
  0
LAYER
  2
27
 70
     0
 62
     4
  6
CONTINUOUS
  0
LAYER
  2
28
 70
     0
 62
     4
  6
CONTINUOUS
  0
LAYER
  2
30
 70
     0
 62
     4
  6
CONTINUOUS
  0
LAYER
  2
100
 70
     0
 62
     1
  6
CONTINUOUS
  0
LAYER
  2
101
 70
     0
 62
     9
  6
CONTINUOUS
  0
LAYER
  2
102
 70
     0
 62
     7
  6
CONTINUOUS
  0
LAYER
  2
103
 70
     0
 62
     2
  6
CONTINUOUS
  0
LAYER
  2
104
 70
     0
 62
    11
  6
CONTINUOUS
  0
LAYER
  2
105
 70
     0
 62
     3
  6
CONTINUOUS
  0
LAYER
  2
106
 70
     0
 62
     5
  6
CONTINUOUS
  0
LAYER
  2
107
 70
     0
 62
     3
  6
CONTINUOUS
  0
LAYER
  2
108
 70
     0
 62
     5
  6
CONTINUOUS
  0
LAYER
  2
109
 70
     0
 62
     3
  6
CONTINUOUS
  0
LAYER
  2
197
 70
     0
 62
     3
  6
CONTINUOUS
  0
LAYER
  2
198
 70
     0
 62
     2
  6
CONTINUOUS
  0
LAYER
  2
199
 70
     0
 62
     6
  6
CONTINUOUS
  0
LAYER
  2
200
 70
     0
 62
     7
  6
ESTILO_TQS_0002
  0
LAYER
  2
201
 70
     0
 62
     7
  6
ESTILO_TQS_0001
  0
LAYER
  2
202
 70
     0
 62
     7
  6
CONTINUOUS
  0
LAYER
  2
203
 70
     0
 62
     7
  6
ESTILO_TQS_0001
  0
LAYER
  2
204
 70
     0
 62
     7
  6
ESTILO_TQS_0003
  0
LAYER
  2
205
 70
     0
 62
     5
  6
ESTILO_TQS_0004
  0
LAYER
  2
206
 70
     0
 62
    15
  6
CONTINUOUS
  0
LAYER
  2
207
 70
     0
 62
     2
  6
CONTINUOUS
  0
LAYER
  2
208
 70
     0
 62
     5
  6
CONTINUOUS
  0
LAYER
  2
210
 70
     0
 62
    15
  6
ESTILO_TQS_0002
  0
LAYER
  2
211
 70
     0
 62
     7
  6
ESTILO_TQS_0001
  0
LAYER
  2
214
 70
     0
 62
    15
  6
CONTINUOUS
  0
LAYER
  2
215
 70
     0
 62
     2
  6
CONTINUOUS
  0
LAYER
  2
216
 70
     0
 62
     3
  6
CONTINUOUS
  0
LAYER
  2
217
 70
     0
 62
     3
  6
CONTINUOUS
  0
LAYER
  2
218
 70
     0
 62
     2
  6
CONTINUOUS
  0
LAYER
  2
219
 70
     0
 62
    15
  6
CONTINUOUS
  0
LAYER
  2
220
 70
     0
 62
    10
  6
CONTINUOUS
  0
LAYER
  2
221
 70
     0
 62
    11
  6
CONTINUOUS
  0
LAYER
  2
222
 70
     0
 62
    12
  6
CONTINUOUS
  0
LAYER
  2
223
 70
     0
 62
     6
  6
CONTINUOUS
  0
LAYER
  2
224
 70
     0
 62
     1
  6
CONTINUOUS
  0
LAYER
  2
225
 70
     0
 62
    15
  6
CONTINUOUS
  0
LAYER
  2
226
 70
     0
 62
     2
  6
CONTINUOUS
  0
LAYER
  2
227
 70
     0
 62
    10
  6
CONTINUOUS
  0
LAYER
  2
228
 70
     0
 62
    11
  6
CONTINUOUS
  0
LAYER
  2
229
 70
     0
 62
    12
  6
CONTINUOUS
  0
LAYER
  2
230
 70
     0
 62
     6
  6
CONTINUOUS
  0
LAYER
  2
231
 70
     0
 62
     3
  6
CONTINUOUS
  0
LAYER
  2
232
 70
     0
 62
    12
  6
CONTINUOUS
  0
LAYER
  2
233
 70
     0
 62
     4
  6
CONTINUOUS
  0
LAYER
  2
234
 70
     0
 62
    13
  6
CONTINUOUS
  0
LAYER
  2
235
 70
     0
 62
     5
  6
CONTINUOUS
  0
LAYER
  2
236
 70
     0
 62
     2
  6
CONTINUOUS
  0
LAYER
  2
237
 70
     0
 62
     6
  6
CONTINUOUS
  0
LAYER
  2
238
 70
     0
 62
    12
  6
CONTINUOUS
  0
LAYER
  2
239
 70
     0
 62
    11
  6
CONTINUOUS
  0
LAYER
  2
240
 70
     0
 62
    11
  6
CONTINUOUS
  0
LAYER
  2
241
 70
     0
 62
    12
  6
CONTINUOUS
  0
ENDTAB
  0
TABLE
  2
STYLE
 70
     1
  0
STYLE
  2
STANDARD
 70
    64
 40
0.000000
 41
1.000000
 50
0.000000
 71
     0
 42
0.200000
  3
ROMANS.SHX
  4

  0
STYLE
  2
TQS_CALIBRI
 70
     0
 40
0.000000
 41
1.000000
 50
0.000000
 71
     0
 42
0.200000
  3
calibri.ttf
  0
STYLE
  2
TQS_CALIBRI_U
 70
     0
 40
0.000000
 41
1.000000
 50
0.000000
 71
     0
 42
0.200000
  3
calibri.ttf
  0
STYLE
  2
TQS_CALIBRI_I
 70
     0
 40
0.000000
 41
1.000000
 50
0.000000
 71
     0
 42
0.200000
  3
calibri.ttf
  0
STYLE
  2
TQS_CALIBRI_I_U
 70
     0
 40
0.000000
 41
1.000000
 50
0.000000
 71
     0
 42
0.200000
  3
calibri.ttf
  0
STYLE
  2
TQS_CALIBRI_B
 70
     0
 40
0.000000
 41
1.000000
 50
0.000000
 71
     0
 42
0.200000
  3
calibri.ttf
  0
STYLE
  2
TQS_CALIBRI_B_U
 70
     0
 40
0.000000
 41
1.000000
 50
0.000000
 71
     0
 42
0.200000
  3
calibri.ttf
  0
STYLE
  2
TQS_CALIBRI_B_I
 70
     0
 40
0.000000
 41
1.000000
 50
0.000000
 71
     0
 42
0.200000
  3
calibri.ttf
  0
STYLE
  2
TQS_CALIBRI_B_I_U
 70
     0
 40
0.000000
 41
1.000000
 50
0.000000
 71
     0
 42
0.200000
  3
calibri.ttf
  0
ENDTAB
  0
TABLE
  2
VIEW
 70
     0
  0
ENDTAB
  0
ENDSEC
  0
SECTION
  2
BLOCKS
  0
BLOCK
  8
0
  2
_PLWTQS
 70
    64
 10
0.000000
 20
0.000000
  0
TEXT
  8
0
  6
CONTINUOUS
 10
0.000000
 20
0.000000
 40
0.200000
  1
$PLWDWGGlBMVwAAAAAAAChABAAAAExCHOW/3CVJAhfTYrlDcJnVJcUuKvWG9lTplyxjC2vpu758iUVzChVXpuP6rSp4Bx+lcyrEQMzIzsZTyl8z9tcl5jSPBgSj2RM99me9kd1T6oiFwD3DFQyru8Frbc5XRC1oHZRh8dsVySGOw60GQeQ=
  7
TQS_CALIBRI
  0
TEXT
  8
0
  6
CONTINUOUS
 10
0.000000
 20
-0.250000
 40
0.200000
  1
$PLWDWGtJnnMNhcOKprOspBkWWaAQZXA4iK4KhIfluWSxQ2ezDW3gcu5JGKXmMyTYCDn25dJdqp7kXx3CX2Ur2ozg9BpbygLMvOTzNO2t5XZJyUSeRTsOuliOQM9kbMJL2secCe2NqqBK9WypW+yewXGv2rmBGMIRLGaxLN0URnHSR6K9E=
  7
TQS_CALIBRI
  0
TEXT
  8
0
  6
CONTINUOUS
 10
0.000000
 20
-0.500000
 40
0.200000
  1
$PLWDWGqgDLEY/vYYGuDMkB/VoNH3ypxVfRjglwYJAU0eGJfIiWor4JSKakz9qN38sS4S0QTzOBolkMzw25JqinIDlI+NyQOw8boUiQkwHZdNc4BZfl0gmsMUi5C6MSAYAfTNZx0xGYcwrtj7iVo2xu22mnm0jquLQObtP5TN3ekRLWDpY=
  7
TQS_CALIBRI
  0
TEXT
  8
0
  6
CONTINUOUS
 10
0.000000
 20
-0.750000
 40
0.200000
  1
$PLWDWGXhkXtSr5ExD406szAaInmyAOd81WfmYQRdB50WF96onyoai7gsDoD2B9ej4guEc2MZjoYtop93kO4kI2/KiCZgZcGTGmVwQsrKPDfAlCgsvkZ41/Fpf/baa9MORNkd6gWdpH96GhrtBueghAbIr0IPSyjk3y8fZninD6VB6HwCo=
  7
TQS_CALIBRI
  0
TEXT
  8
0
  6
CONTINUOUS
 10
0.000000
 20
-1.000000
 40
0.200000
  1
$PLWDWGNSNP8pxCncHmtOgBE46aMzeJtqR5dVjLGRfr0RJ6aCD7BjMT9JBi8kadouVKrijTmawV3E2RpLUkLRe4awFhrm9LkgDrzt20eqbBVax1Rhx8J4qeSAgvflR2cw+ijxZKp39Tt77OJdtSoe7LdvVjNIR7DCpOfV/6atQR+0JuTj8=
  7
TQS_CALIBRI
  0
TEXT
  8
0
  6
CONTINUOUS
 10
0.000000
 20
-1.250000
 40
0.200000
  1
$PLWDWGSvKmK50WVd4E1AwFPt7I/WQAee/aJC5lRyNEelhP1N872jhylA6Vm+vcDIkQ0rhyiKwKCpEybvAl9qqvb0Q3fxWy6m2kjmn4kCOhlU4gXNeXJqiqZAYEeZiWowAW5wJwDM4J+YCbNTDeK804shWQL93F935b3QuoyWYJhSgh2sg=
  7
TQS_CALIBRI
  0
TEXT
  8
0
  6
CONTINUOUS
 10
0.000000
 20
-1.500000
 40
0.200000
  1
$PLWDWGdhkXk960locjOvrQo2SlRuVn+9K84vZ7ZiYTW5Z+i0i09amHnNfkkUSsKQDoG7/bPDxPbglbWOPp4aKPqqvAuAx+fflz6sgUSipnonnuvhPzIT4RXO3AB/oEHrY7PFnh/ro5/JXvrOc8dPC8D0ih7VAE8tcjYfMEJECq7Keh3EQ=
  7
TQS_CALIBRI
  0
TEXT
  8
0
  6
CONTINUOUS
 10
0.000000
 20
-1.750000
 40
0.200000
  1
$PLWDWGBifB+g0J5c799769NpXClyU528V2QQwA64iYsiJfAI8s5oKcYVI0yCDuIx0UtOzs5BovLgAO9xoc6AJ5+FSQx8ILKmzCWsWaKmlnQ5bEP1dW0jVytOPpAyQ0SLqk04UeGcdgJacu5lUoijm8/fIhw4WvrbKBD+Eq3I9pS/gwLNE=
  7
TQS_CALIBRI
  0
TEXT
  8
0
  6
CONTINUOUS
 10
0.000000
 20
-2.000000
 40
0.200000
  1
$PLWDWGF6YASVAmiXNkk6GNjhJC9i8S1OsdWCoBwVT5+T3H8lyL3zI1b6Tk0rGIrwO1UQGTs4htrb/O+LwwDjDeT9a9dKBIMFdgQy0RJKe8X8NOGoCcTLvwEbzBZ4AH9I+mNDsXzPJLA4HNlziadnqOPCqUEtpJynpFiGbOZa/befhYyGQ=
  7
TQS_CALIBRI
  0
TEXT
  8
0
  6
CONTINUOUS
 10
0.000000
 20
-2.250000
 40
0.200000
  1
$PLWDWG/7T1zzWEe14LLTaEvCL6OSNGlXdzdDi4aK5a15mvKeoSFdNJQSHlZYa/u0O3qDn2TxlOcgMkiCAx69BBlwy88P8rwb0rK73ejfn6VyNQVVpeFq9IPTpdA3O3fwkzjL16jRXjaFYkyshOO3G8KhaYDap2Crhu4jiMvdSrPUU/+sw=
  7
TQS_CALIBRI
  0
TEXT
  8
0
  6
CONTINUOUS
 10
0.000000
 20
-2.500000
 40
0.200000
  1
$PLWDWGQU2riJREB1Lf9si9/HhqxiwJ6hkx7VSHXOVYsQVMR3F1bYULLj1L8r7H3ERLAnIZylFsDfpVM6HJjfXnev6WBCJtuCrxFTo1bYUoeOlCaplJgibDj0Nbs/IvTXQ3UuQ0k/9iDsEKzXqed9iweosntzgCV0XjFY+jxys7Jc79YAQ=
  7
TQS_CALIBRI
  0
TEXT
  8
0
  6
CONTINUOUS
 10
0.000000
 20
-2.750000
 40
0.200000
  1
$PLWDWGD8+sHcKWFCA/mg2Ybynx3Rhz2pv6XN8qhGKNtkuZPbTHo8SDfqxdZ19L/ggN8W0+69gQwGN7y6paoEOLMRVn/yWYjcbF2ZVu6XCKYAn9T51h6ZqHEG1I+8Uef47DYipTweVx/A3n5aIQasuwxs64FDYtR3f3GzKnbbe48oAPiAo=
  7
TQS_CALIBRI
  0
TEXT
  8
0
  6
CONTINUOUS
 10
0.000000
 20
-3.000000
 40
0.200000
  1
$PLWDWG1M4yHJUBwy82SECdltU6arLeJaLsnQuWCYPDU4pP0SwMH99HqhIurPN68y/gOHVZYP5EjLVnR0nSa/AkBEAkGgacjAvrL1ntbUAHJ3KY/uj1PR2bY2no14qGjRNTnxfljRCwWEKNoSgsmA75ZM3dEh+NY3THBc+zBBAzoyS58ME=
  7
TQS_CALIBRI
  0
TEXT
  8
0
  6
CONTINUOUS
 10
0.000000
 20
-3.250000
 40
0.200000
  1
$PLWDWGrpgn8t09UPo3VUkIj/dNnGnMCskOzebr++130CpxsK6UmYfbIqp+g7QRAukGsPSZNwBG5+nJTDuVwyhTs4S3yV8X/Ly+MzQoZ/bjhBoTIYZpdzSEXmYtTmejGAXoml5+10HBrp853MD2a5g6/ZlzUZ/MOhr4BJEpVa7UPep4Q58=
  7
TQS_CALIBRI
  0
TEXT
  8
0
  6
CONTINUOUS
 10
0.000000
 20
-3.500000
 40
0.200000
  1
$PLWDWGl0As6+/UvXb9br1OKNPkHDKfmwtPkYlMNxvQE2Fqry2306VBbsLd3/eBHsyYB88yzIcVeyoRF3cNBXwgDO/TAUeO1Rg99kgUj6v/sl8Fn5uC755QGom2NpsYmJ9qKS2JrEPEbyZmZCWzL3Es+dehy7Vc+sHOkSh6XsczMVa/uvk=
  7
TQS_CALIBRI
  0
TEXT
  8
0
  6
CONTINUOUS
 10
0.000000
 20
-3.750000
 40
0.200000
  1
$PLWDWGiGAnnR6UnRbc3H5Ha3IZyc3o4dn6jp9NG/hbQ9dRfIlb6PWrDtbI3ul/wB91wLISg56aCi1kLkvyfqaTzSc0Z196OM6iJoI7bOqmOHbJ0/2fWRKgpvJTQPKxmBA2WfBBVB3wt4TK0+9uiqZ4PUkUcc7vZRas83/xd3lG3Iab3n8=
  7
TQS_CALIBRI
  0
TEXT
  8
0
  6
CONTINUOUS
 10
0.000000
 20
-4.000000
 40
0.200000
  1
$PLWDWGGj8VuE8ETxno4Z00a8Hti3nM5a33BrXmz3FrFm0s2VW+aipdA4wt8p3w0R4IB1ahbCCyFGhpBBoqC1sTqVSC5L3YAijUtiINMY+DGrlTLmyyorS+4nMFVWgU82I2Ow808aaFB5bgkSwos1n6NCIje02AGrQZ3CHhKDsrKwvDiKw=
  7
TQS_CALIBRI
  0
TEXT
  8
0
  6
CONTINUOUS
 10
0.000000
 20
-4.250000
 40
0.200000
  1
$PLWDWGH8cEx1fx3iub7DuFGNVBpu55JvuMVCG+SP79BJtgGw6OJohQD3KFBk2TlYa7SfK/tfzhpk8z8kgmA4wj1ih+1gKmy3a5cS5uipVEjeVzhTmW1+34eBdPGAHY882mp1wgNzSqFwpbmEg8p1f/zcWURdPQX/wTAACCcoiq+2KIAeM=
  7
TQS_CALIBRI
  0
TEXT
  8
0
  6
CONTINUOUS
 10
0.000000
 20
-4.500000
 40
0.200000
  1
$PLWDWG6xHf9WFge3wDiwnySue35fUGpuPvq0XB5aSInteIYAaAA6aA7gOEWZ95OmF2MWxjn5TWDRCzBKUZky39N7bOdiIztO6CKLX/e/AvMDQnoclXelnpvtbtsN3Pcz0nbe4OjH9/W6uU6ZXx7NRj0S3ooaJZzgSTjTgflwly4sSnreI=
  7
TQS_CALIBRI
  0
TEXT
  8
0
  6
CONTINUOUS
 10
0.000000
 20
-4.750000
 40
0.200000
  1
$PLWDWGkJ/GP5DtWBwR+v3L/7JAonSmdh5dcqy0wRvEXgmrDM0pN4LJDp9c4bLYyN9Ud7sIrXiuiW7W+B8fnFXtq1FX7xzqs9LMHxnNycd314QWU7+wiOTQhXzPGqXlJKua5MCarRew6wmGCurSGent5kNmvumD/5O5JtXx1hxOrbUIwjY=
  7
TQS_CALIBRI
  0
TEXT
  8
0
  6
CONTINUOUS
 10
0.000000
 20
-5.000000
 40
0.200000
  1
$PLWDWGkWCLgzU/0W0rT1Be9xXK4f0m5XYupOPi7jrnM5D4/Gi90hPHas1s3HCOJL1x7+tN6ALIkuaHPVzAH0wA/wOCVNeVBGf8qgl9jyrPvNJ8vQ6mVJc2AvcIbIFhXM+M6kS3OIsmRbxngtj6xa+Ny2P6APwMiYQVHbb4yL8bEwH5Hi8=
  7
TQS_CALIBRI
  0
TEXT
  8
0
  6
CONTINUOUS
 10
0.000000
 20
-5.250000
 40
0.200000
  1
$PLWDWGTEUKzNxVOMdonGqexzVoRawkjacqhO0UquIzKWDWwkx7BZc/vQr4jWLzNW3cZ7PqZ/svwR+6ykPrtB4K+6sVUXzTAs4Uiw9n7ULLtVn241WxowJ2ebOfW3351T5Ie3LZHPA/DVdAs/+DKKZ/5/Pim0zRRGjgs/8TNDc0ACKRsMA=
  7
TQS_CALIBRI
  0
TEXT
  8
0
  6
CONTINUOUS
 10
0.000000
 20
-5.500000
 40
0.200000
  1
$PLWDWGyS+Yj3WrjioRy5mPX3NuXDqayVH0/85j/wTay1rfPm3jDWhHIzzQwR9oaC14il0gfgULOkNwyim87hgCp7ITo9HkVlOFhldVMdBM3lIHI7Z0NqvlU7hf/p/wsaH1ZfAbpL7UR5PQEpxcuDGxWjrxsQ7iYXtwImBEwT6j9Vlhwxk=
  7
TQS_CALIBRI
  0
TEXT
  8
0
  6
CONTINUOUS
 10
0.000000
 20
-5.750000
 40
0.200000
  1
$PLWDWGcK+2s+jE9tmI62cFk5VCZ4MPtet+znksTdZDOyY9RL8cy7LRIGCkch1O/Abj1FXHxEO/GKQvr5+c9WuJIrpwVOqb+LLerjNwF8/WT6n6kwkNgeUulA2y9LKIaoJYRnZT1gV+xMCvpJ99/9LbC5KoKhXd7FZk5+To0oxF09mlU0A=
  7
TQS_CALIBRI
  0
TEXT
  8
0
  6
CONTINUOUS
 10
0.000000
 20
-6.000000
 40
0.200000
  1
$PLWDWGjRqyrFK84eQfi+N9sLZJ3FU2zbtGUzH8IWLWYxFXyl1VBTvlppMj849hCY2gEbukrcZIJk4pkPWFMyehINjKlQ36wlTj2XWSJMeR9SFs3qy3vaRzoC71pVVaYioa4NY4RphykJAABbzFDDrjnlFwUGBJmaJGWcJzu+FUZMLqpAc=
  7
TQS_CALIBRI
  0
TEXT
  8
0
  6
CONTINUOUS
 10
0.000000
 20
-6.250000
 40
0.200000
  1
$PLWDWG+fIM4QyogU5XnWbnLdr3gZTHnL7rdJw7Kdd41mDm+qrYdeDUUXjhA0t5jgtZZgllMxNJPlsJ0tOIJz9g3mPUD0CsPUB+k1glrkSt+X4sLHzNhtPQ0/CbvTSeP4bVOplG04IKDbzh5oAV6isJHtzcMjLXkErJMd3fcVbWdgL29Ss=
  7
TQS_CALIBRI
  0
TEXT
  8
0
  6
CONTINUOUS
 10
0.000000
 20
-6.500000
 40
0.200000
  1
$PLWDWG0mI4r+rpERhhOSFE5r2703Rl0jlJYOj6zjheR34GtROYX4IF2E1maQjTeycvKD4vm+0OsdqS0M4H6J94guDj9YGbGSbPipYGGnIEi3PFiXK3i2IYaUtiA90CeWYxLwWY85t8K1NocghojPX8/kg8zvrzQxBFZay1PG+NsZJyZLY=
  7
TQS_CALIBRI
  0
TEXT
  8
0
  6
CONTINUOUS
 10
0.000000
 20
-6.750000
 40
0.200000
  1
$PLWDWG2T75jsEmCcUoOYjAIGxb8ihcDmEBRykpmHoMFtS6EG/uMNbqieZH9RkrvXMv5wBKsD8VcugIgPIlwNwBZVtklUEJ4t4uCDlG+fzib5/qwliTq16BxF2iJv57RihEvGA2vt7eZOFDx8hhQ4Y+hBj9b92y+21M/SooGyUfpvxW0M4=
  7
TQS_CALIBRI
  0
TEXT
  8
0
  6
CONTINUOUS
 10
0.000000
 20
-7.000000
 40
0.200000
  1
$PLWDWG+OyqruTnVK9o0FpLPmbbO0BSPxqjm/bH8D8Ee0oVSQIf+6RdzpMJ/AHqi2IK6tjSvhZ3FCgKfmCysu/irSYHPMeRMPV5gHhNaSL1imKRBG+/VFgrGVzKs5Hvu2rtr0b5ZMquXe00p2tIIT7M7mTkLTsY++oqWovTKvQGV7GnA1Q=
  7
TQS_CALIBRI
  0
TEXT
  8
0
  6
CONTINUOUS
 10
0.000000
 20
-7.250000
 40
0.200000
  1
$PLWDWGKtQXSAOM660Tz69xfi1SNBx4DgseDxrT6qt2AnztHoJ9FBqKowy24XD4SacHjxoZpvPUm4amOq+mbQcvp3DjSfFmySopGBZft8d35JASmpUZYy5rfEFq3Ok65EnZPWvXGKJ3OShof0rUk3qS/F16jwKlB2Ys7U46LPwY3R8HV2U=
  7
TQS_CALIBRI
  0
TEXT
  8
0
  6
CONTINUOUS
 10
0.000000
 20
-7.500000
 40
0.200000
  1
$PLWDWGc4PgHyilnsZYCl4t1jfGqQkhV5L3SFICBmjlcVzKgdwrldYTbvK1CSwNKwLCQdQ6Rt3BlfbzMSIaGzVaPCIW5dKtpFNqnC/Rojgd76R0oSeV5QD9/9QVaGkz+ZvDaamgHI/9v5Fk7HYeRWEJzCm1hbV0srtDIqKsvKWUP5mA0+s=
  7
TQS_CALIBRI
  0
TEXT
  8
0
  6
CONTINUOUS
 10
0.000000
 20
-7.750000
 40
0.200000
  1
$PLWDWGm0Nf3/xrLB2folDVtItzzkHbosuiR7vFDtu0VvRATBILm9UnbrkKc66rh9WYQJ6x5Cn/+Ag5DhqWGZmRUxWKb0Bsrc2y+4grHFB2qXs8hk8NLtCfy0ntDfPKfV+QVbgoxB7w53lzoYErInGTLnrgApuvSGV+QPwuVXfcfydg6PE=
  7
TQS_CALIBRI
  0
TEXT
  8
0
  6
CONTINUOUS
 10
0.000000
 20
-8.000000
 40
0.200000
  1
$PLWDWG2D+TYDMRd/nmmlioUCqQlNEtQcjX3QVRq1WBXH2Vw4/SjEXT2aVTQONFFnIT/RjOxIVFIqUGqwwhqBQcDoleJPSQAQbxfooqHX6na34oqUi1Kp8J2zMZmBLux5IJtm+61OUWvwLJYV0CbyUjKlOThIGUi2GouqgJlUMMelYjxH0=
  7
TQS_CALIBRI
  0
TEXT
  8
0
  6
CONTINUOUS
 10
0.000000
 20
-8.250000
 40
0.200000
  1
$PLWDWGHHAk4sTTpxIPW/s4Rrr2ShJ6mPHVmcIWLi3uGZAvEaFz2Gcr/GLx8jie5FP/MMogaZ/O5kMr9josZVyAcyow4fiXz9sjtlOwQo9A9AQR53V81rs78xFrnl8w00XadKm9+eHAadKYq7HFGhZfbsCUuszVmGTO3bDXkOdmvHX8gBI=
  7
TQS_CALIBRI
  0
TEXT
  8
0
  6
CONTINUOUS
 10
0.000000
 20
-8.500000
 40
0.200000
  1
$PLWDWGr+R6MxspQJ47VzJBvFbE+i6QLE6y8W8NEcsfYIChNvKIugleu70JE+L9sjzNpuMDsDIREMtbPm6Ym12PF1K3y5j/ZGPeMfdunbk02x+CETOdTRbGS6+Zde0CVZCh0RlzB7vRpFltZ4hmqw74OJdCwt1WRKs5FJWX9vWNTmH9JJo=
  7
TQS_CALIBRI
  0
TEXT
  8
0
  6
CONTINUOUS
 10
0.000000
 20
-8.750000
 40
0.200000
  1
$PLWDWGZc4Wqfrq9RpKp0/048c1jv3Y1nx8hd5h59WnhIuRdW3Amy+rYViqdJje5SWAP9TC67GzGZ0E3JdxE2v5TQySyspixPe8L0ws44QhwCWE6UbnfkG7hqu7BsIbJjrlECYvuYDdauT0Z5pUjTuQMQYr9sauydqYrzdrCrNKIFhpUxg=
  7
TQS_CALIBRI
  0
TEXT
  8
0
  6
CONTINUOUS
 10
0.000000
 20
-9.000000
 40
0.200000
  1
$PLWDWGbtCRTaYGMKC0OVa3Ll442KVq4LdvdYs7AM+t5173c9p8nJKy1lrmhLER8on5825kXJJP18ZAdKaC6YcaMIn5lJLccMElP4bIRte43sOPQRL4e3ySW0cOBq3IflhYEQIbieBetnuCYfzuFaucfV16oQuoN9M8veH3cpUNPXpjlJA=
  7
TQS_CALIBRI
  0
TEXT
  8
0
  6
CONTINUOUS
 10
0.000000
 20
-9.250000
 40
0.200000
  1
$PLWDWGyNOggTfSZcK9uZ/NSA4WgSZVZkqRSDkNcufuZhQOfyB7YJs1/PsYV77KpXcwGrKsdcPJXZeZfVaNRvKEX6FXqsxyz2lrLOjgYTScK+6NOuIzF9UlL+vmonIZbMUPzJlXClIDoAzB66V2qnsot3ey/axkQ8dhlwMpBx4iWEnoft4=
  7
TQS_CALIBRI
  0
TEXT
  8
0
  6
CONTINUOUS
 10
0.000000
 20
-9.500000
 40
0.200000
  1
$PLWDWGtuVMjkMhPXFV2PiIchZ5jIykgSRJ3J0xm9uQELaacwF8Yr38KOuDB+C0fxZePuGitqGDl7d7OWFTClbJ+HvDio4YeRCIKCiZXJfAcqQgV5Z3g3Z7ZjyAH0MehBqHNm+KVLaRvPJJyL47Eg9l/oINR9JV5PhH4KXIVgGPmbKJU8g=
  7
TQS_CALIBRI
  0
TEXT
  8
0
  6
CONTINUOUS
 10
0.000000
 20
-9.750000
 40
0.200000
  1
$PLWDWGGHXJ7+F3rhxbNzaqA9F+/Geg3N1Wn7LpTOm8zzSJMQ4B2m7Dioq1vJv3aSsFSyc7ZzNWokMuOZOMoNGWfPMNrLKxtLsVB/DCVXzpzEQwHnNOmHYslTXjRAF8QaVH6IixbBaO4+RAo2QCkMgkzXyDtPYWBALv6kYbmiGmE7ZB5yI=
  7
TQS_CALIBRI
  0
TEXT
  8
0
  6
CONTINUOUS
 10
0.000000
 20
-10.000000
 40
0.200000
  1
$PLWDWGqrWYVKk9QcSzXBNxdsii8G0wn/L5hPkJIdwy+mSeZmy6BZyCQkkmSoOPsBvxyPfvmyPnjA4WIppPiIsRxbntGj+wQj0oNUxWOfOrOUDsUECOQ7dny+I1oCGxZ3Q+5YIDaOklVzecy234pc62YjFeZmq25iI3Fd9NL9u36GsT2Fk=
  7
TQS_CALIBRI
  0
TEXT
  8
0
  6
CONTINUOUS
 10
0.000000
 20
-10.250000
 40
0.200000
  1
$PLWDWGHk7/r5TwaVyOcH/FQA0AkChjtbcLjrdEiGm4ETGKOB6E00lJnz57Z5HXgfbER+/GIjybfUodJwGsiCFe9N+vW7wmo+KrO1GBVxLAqtyf8lM5DngHCTYriqSWk3efUpAR6JDg2pr9XlJXUDVR4BfTktlFpy0Ar6GD/lfwEdwQvBE=
  7
TQS_CALIBRI
  0
TEXT
  8
0
  6
CONTINUOUS
 10
0.000000
 20
-10.500000
 40
0.200000
  1
$PLWDWGlDC7LIuqyLTVWPW7OnHXkNoqgQsIfaax5BbSuijqdeHDFjX/T9QI/IeRGOqaKtLLYhCb+0ulisbFRLrtVM05nEx7dhRyQ0GAExOGf7sB756eLeRlwBJSKz/vgNOJsBJyI/yn1OyOVAkNmicR4iAP/TVnU/vEAcU6Q2bB8MHwhSE=
  7
TQS_CALIBRI
  0
TEXT
  8
0
  6
CONTINUOUS
 10
0.000000
 20
-10.750000
 40
0.200000
  1
$PLWDWGqW4dplRF3MW5E3v+M7ozwRoK1ygTmKP9SLyQ6EcuP2f1JyfD8GxPP6Xv7DKm5QDkT11aq76yCZVf1ecszDvMczBGLJ9n6UcPp43xqIj+p0JwqqL88Xvd+RVYYx4qVsH+QT9VwoevgXQnYl4hlqBhQ1wGmSOjARZfuUzQRy/HeqY=
  7
TQS_CALIBRI
  0
TEXT
  8
0
  6
CONTINUOUS
 10
0.000000
 20
-11.000000
 40
0.200000
  1
$PLWDWGAiKgylpwq5G4hzEGrin0XgxN0avMDb+UFFUy1eeBqGn+i7cCrpowiK7/y9NSv5CwW7Cw0JKUHaKIP1TBQB1RhBYIulp6/C8lM/1ZfDwNQgWT3UKaMHQbRmzOBCrSt8L/eN8B3pdBlJh/xcU6E2uE6KPUKnLkHgoPcHMh6Z5gaJ8=
  7
TQS_CALIBRI
  0
TEXT
  8
0
  6
CONTINUOUS
 10
0.000000
 20
-11.250000
 40
0.200000
  1
$PLWDWGtSkbkr35DfiBub2H5nLdnbW5uM4mY32ohzI2EONjCNKq9yIh+BgRyEzpXTe/V1Z/GFXVYsyM05ykXWnFqCtDkUCYqiMOVCpF5++VCWTR1NeCsfEKhUOhQLM172PqA8BipwAlXwQDogwPitgyb4XD8hElcXc18RYxJhN7+GelY84=
  7
TQS_CALIBRI
  0
TEXT
  8
0
  6
CONTINUOUS
 10
0.000000
 20
-11.500000
 40
0.200000
  1
$PLWDWGYfeXI4bBVHCKmz7mRiB/wllPdHLOH3u5rnOD6QTB4iygR3Efx7Ig5ldbvR7qnMutTrYiM4tCSbCPz6EyzSkhyFQQx9IM29bXCKgX1blE9X3AraeCmX5jyc8V/nWdyjqy5cpLvgJXmC5FELOyvPXo1g1y1uEKjueWj1qB95tSsfo=
  7
TQS_CALIBRI
  0
TEXT
  8
0
  6
CONTINUOUS
 10
0.000000
 20
-11.750000
 40
0.200000
  1
$PLWDWGXBS1n6j0PPjx79E967RpsxbBRFHyTzWK/IlT/k4CKifZYxX+/2ItE92Cyss4bHU7VXVBLnlS+BOJ98INJpjK7rZ+Lf1ZfRffGU7hIhxRfMVLjjGhtOibKfubzl4Eki1e8BP86FoCrty13cqnwxpVYNCYCoLiMWRLARwwvWsZViU=
  7
TQS_CALIBRI
  0
TEXT
  8
0
  6
CONTINUOUS
 10
0.000000
 20
-12.000000
 40
0.200000
  1
$PLWDWGTJB+3S7Xdf6xrBDEk9sGXi9asYKAyaYc8XaN+JlbYfInlpFiqcwRmyUVdPUjy+RdwiI5rskntmtcnO7XQVgq94lzU8AhpLRKYFufB7RN4Dn7NEK4Oxmbkr19Il9OFw9i+onkElD+sTjkQ/MxnBX7CQbAeAYNOVFANQaS2bnx3Qs=
  7
TQS_CALIBRI
  0
TEXT
  8
0
  6
CONTINUOUS
 10
0.000000
 20
-12.250000
 40
0.200000
  1
$PLWDWGpGKYFIqYmg+m6wBux4HKhAl7xM/3rXb9cv07iuIWYtUH4iHDu8u1A8JKjAQhxRUE4u5sNw90ToBQ+/SqQrjYkewsw8vnRRwv4IeWDs8Y8bpbHoeoikadecJn+t/u+RMHFI30NaLVLqdmXilnUOUqEemWvIiChlCQlfoVjgk6kgg=
  7
TQS_CALIBRI
  0
TEXT
  8
0
  6
CONTINUOUS
 10
0.000000
 20
-12.500000
 40
0.200000
  1
$PLWDWGFxRXhqc4Gj3qmiw/3tTg1Iqdc1CWLPUCEflDOgdnj4uQqDYpMoSyLTK6naIZer9f0zeA22BfCCcZ8CTef3KZQGaNvr0iDRNvv+ljKqbegR2iy1vG9JUDc/n2du7reCnMAWtV+scZvbw7i+dwAqTmcnQYnS4pjCjpVNH/4df6n98=
  7
TQS_CALIBRI
  0
TEXT
  8
0
  6
CONTINUOUS
 10
0.000000
 20
-12.750000
 40
0.200000
  1
$PLWDWGDqF1IoLziMsXJ1I7eDrdq5AC1ddk6LH8yjIEEu+KIhh8uiQT6ESlVVzBjCLAXCr+6JU907bSbE6PPy5mJpKsFg+PChM9F216FAR7biGEAhKHSTP86sCasy4tiiTH/rWemN8vuC2tT7Ly2TRV9OdBx2eTyBeIQ+QI+7sFD26ho98=
  7
TQS_CALIBRI
  0
TEXT
  8
0
  6
CONTINUOUS
 10
0.000000
 20
-13.000000
 40
0.200000
  1
$PLWDWGETiMvNX8YGL4WhL5SgYvq6XxetTfiomjqsT+roj2KPaVWHnKOOAinuPEUPeeGb6SpuR+/1ImMzWz9okHzqo2Zt6AvDgyCAf9t0eY8Ps4g4/nNleXKc2PAphaT61iWkK7JRxhsf3gkIMU8vtNeTR00B4WpmLZiUvS+PBxzO9s1vc=
  7
TQS_CALIBRI
  0
TEXT
  8
0
  6
CONTINUOUS
 10
0.000000
 20
-13.250000
 40
0.200000
  1
$PLWDWGXia14FTp5daw2u5K92mp13ynKRKKI1NBdX5RdU/t1+mu/SWQiGTGJ1WVb3GjL1zAmEGFWlAVNmxWRuZfQzWO7WT1VRSdDSTlJrnsGIUffIGvwcimXDbL4M90LDxsVI5XAhH4d5373qWcmoF31zvpWyd3QosU7qMdidNpxcg+hUo=
  7
TQS_CALIBRI
  0
TEXT
  8
0
  6
CONTINUOUS
 10
0.000000
 20
-13.500000
 40
0.200000
  1
$PLWDWGq89igvrByc6URwCVRElviKDt0m2iHaVKOVQpiferGY5eMT3P1nemHZe5uzMg+SV3oNBWGxbVGijpLapKs9sGyYm0Eoro0NDUbBN8XDd8r2dJduzw7gOE1ZPDMb59MYz+WJ9H1Ni2P/6ao3FG5zIVd+rkM/d1M9FGjia5KAWziaU=
  7
TQS_CALIBRI
  0
TEXT
  8
0
  6
CONTINUOUS
 10
0.000000
 20
-13.750000
 40
0.200000
  1
$PLWDWGlTCIXXJd3Bjh1GGzBsxUj70vwRVTdf+zLc0KhBKtiubvzaAecOdWCkpQTNVbdad5MwDIWRq685QAtm4oVmhtuBjEpiwAIo6aeTui1U3tCXgWv8SgYa+lRntH82nyJyZkSwnQ00n3SchmVYzsgCVfgTMo2RA/aVN60guRTfq254Q=
  7
TQS_CALIBRI
  0
TEXT
  8
0
  6
CONTINUOUS
 10
0.000000
 20
-14.000000
 40
0.200000
  1
$PLWDWGYmblryvR0dwROanCQwS8cf8UYf3WhR2VVKi+ZsPs0yZsdFYzIS7WtPbtuNVivhw+9gY2xOYDMgQMk4tVwuzzJpaIyLQ2msF/lIlZ8b0/Olbu4w0cK8GOKGHb1Gx8ZmMj3EMXJPxyAo4uuGOZtOBMh57zhJK8UfMnp6HhPvbINsU=
  7
TQS_CALIBRI
  0
TEXT
  8
0
  6
CONTINUOUS
 10
0.000000
 20
-14.250000
 40
0.200000
  1
$PLWDWGGV9+ljt7M3EVNclTVUjWh+UZF5Q3RkFz3WPpQxfIUUARLnDxiiy8gbQ41tun7Dwysg3ate9Nle7KK1j3rO0Sbr6X2oGuaDSjiJ55WtO3BbdO8f3tq6I8EsTxLPA2c5Qc6IcBIAhgEx62aGQdyUDgN7/Hgz0gMS7GQuJ52Uik0uk=
  7
TQS_CALIBRI
  0
TEXT
  8
0
  6
CONTINUOUS
 10
0.000000
 20
-14.500000
 40
0.200000
  1
$PLWDWGUXSYxxfMhnvfA3VrBxAbFMHeENZYMZWh6EkdS0S7cdSb7iCez+gYN7DMKbjmpA0ux+IZdYQBZJcJoqq3StaghCqHgP60501Q1sxLKHuz20DP8PFyvh78DlB/WvWvA8jkLYBubTqiiVGmXQxUPmkvB7tB9o4AzCtwj23Gjv/Atj4=
  7
TQS_CALIBRI
  0
TEXT
  8
0
  6
CONTINUOUS
 10
0.000000
 20
-14.750000
 40
0.200000
  1
$PLWDWGQwe0O1gr+pC+YNZRz9s+ORowDrAUR2vDZhMP/vxEpQxn4LeBsmS7Ss7Qmv+QNGkAGr9ChaV9ZNTTb6XTa+SQ69AxUAAk8P+PbgMiXf2FhwdPH3v3T5vxO4f4ZHv4zI7iHc/wvZweWg2EkMFDQs/hfhokqgAoSDA7Gzj95RHk5WI=
  7
TQS_CALIBRI
  0
TEXT
  8
0
  6
CONTINUOUS
 10
0.000000
 20
-15.000000
 40
0.200000
  1
$PLWDWGsC1MOXpQ9dlhTy55QJccOjvoX+RCJZLKXSCIl1cykJcYKLVivWRw1ifJE0yFmkDi3HshdSqpLDVQdgpTkOWOEO+BZWCdUpq568lLeDIgp9tNcJr/1iadPjWCR/OmeZ68F5GTZMqorwpxh4RZZXpSgZLA6pBaygH/ThG6SZnjSoo=
  7
TQS_CALIBRI
  0
TEXT
  8
0
  6
CONTINUOUS
 10
0.000000
 20
-15.250000
 40
0.200000
  1
$PLWDWGC9XTxH9nW6i0SSZISZdRkJKCNjAd2LDdUbCLRtzLWHE/hfPJZOBWjcSI0ENcErugqtVHJkyFormpJaSt18oDGnUfi06NJ2jnSEe5NUjoRNLUk8Q+QbmiziE38vAn6SIC3GNtx5Mp4et/sQnYGnW+JMNf2gBPWNNkob2Li/12fNU=
  7
TQS_CALIBRI
  0
TEXT
  8
0
  6
CONTINUOUS
 10
0.000000
 20
-15.500000
 40
0.200000
  1
$PLWDWGUeGB6GVzk+DrIozfHwFgXuiqXXkHsgJe8zQPm7pJskrHAaVIULqT79qo+/zR8ubMF8RUfcfBJHyK8GqyNxoXHhyC4r5nUrgoq5FAcFEgKvjLxxBC3FuQueVj0LTF8tP+xx9id5Upit/kIq36ht1SIvWPCUR7ppL/oYe/2DzPt2M=
  7
TQS_CALIBRI
  0
TEXT
  8
0
  6
CONTINUOUS
 10
0.000000
 20
-15.750000
 40
0.200000
  1
$PLWDWG3I8g9HVg8mvwJybbD1E1d7NZMJjWG0Vxh2m/IkIs58yjBF7LEdGNsyJLXRwT1jpnv2n5qR03s3/qe0FIiycrVRRt04n6lOVM++rdu2su2v35uUC7xw8MbuAGQg6KRLQKbPdkzLVy+IoZoVKx8Fm2KNyCWG1LHGJnv15eBZ0Kc3M=
  7
TQS_CALIBRI
  0
TEXT
  8
0
  6
CONTINUOUS
 10
0.000000
 20
-16.000000
 40
0.200000
  1
$PLWDWGMcvvbvJE4YH/oO9jrEkh+iA4tqMWRencVmdTOxJTGH/NwFo2tCm4IaNRuod3dKN5Bx3AGlUpGgWnQWLtXHA/V2uAA11xGpe4POM3kOkSUMI/ujVhOMf7DZPsFKIfVBeqtIppYpzZLWNt85GzQMfmOxDhiPv8xr+YHDf7U6TQa78=
  7
TQS_CALIBRI
  0
TEXT
  8
0
  6
CONTINUOUS
 10
0.000000
 20
-16.250000
 40
0.200000
  1
$PLWDWGSmU0KVhbVHGWfoCIs7M7yyEQXycFuY1/5Tzj8I3Tn5MYeCq1DcF3Aj4lyhrV4yL7j1+giQd1d6vck3LJu0p6wmwm32xzn1FAhaAqM4CDbol0sX8/kuzy9y3qxd8KUlTbeve/zBq3/NF8J5mpkmFHMbZRuVn3gZAj+uw2pA5lTjs=
  7
TQS_CALIBRI
  0
TEXT
  8
0
  6
CONTINUOUS
 10
0.000000
 20
-16.500000
 40
0.200000
  1
$PLWDWG8/wkhmXTwTXTvh0gB4wRlHykSIqNNej9xVTJw1MNFouWy3QBpZtuVJtbcga/hxDrEsnVmUsQcp4HzZYKfD45WURXdoQyAD5E54YjJNuzef9Ny1VIcnzxiiUNamWbrwPEep3VXFGSsLbYqo4m20p3i/GbLGKmirFNhCTL97xeAtQ=
  7
TQS_CALIBRI
  0
TEXT
  8
0
  6
CONTINUOUS
 10
0.000000
 20
-16.750000
 40
0.200000
  1
$PLWDWGTZ+0WoJDVDnXApkLVXB7eWQJaejN1MhsTm8qXY4Q+/jODf0JkMJNdG90wE27SQIRwozs3HwSfkWpI0cE+Dt8VtcLYmWCNA2fbPL7YTI1CWXUuxNXsPsAx40hKhPLRWBlHBx8sigxAfe1ep4wRTQFeNbLCuHXMOAaD4lYmBvgniU=
  7
TQS_CALIBRI
  0
TEXT
  8
0
  6
CONTINUOUS
 10
0.000000
 20
-17.000000
 40
0.200000
  1
$PLWDWGCmKDsvkyH6Ke6+5IR4OiQkreGUoLEJD+sjIKLEOaBmOL7bhNZI5Rfmt27i02LbYqAlCBIHFV2dtoKJEm+MvV+e0OnQnPQ/2G/idR5XYZ4xKfVisQEvjhliwWvpAUwOxhrXtNeACh2Ir8NMjjG1yzO5/kNifVt0O77kY1K30XDus=
  7
TQS_CALIBRI
  0
TEXT
  8
0
  6
CONTINUOUS
 10
0.000000
 20
-17.250000
 40
0.200000
  1
$PLWDWGQS3CySLqXEIrLU8gVsH7YUIc8YKfLPn2d558IvtinJ4tetFgxhkG0s5THXLTPiJNSeLJtQIwRlRshgMlwaiYL4b3EREVlUYszlgO2COgOBKbyAtAlTM5rTaVZ5GiPtKkib8LkOY9wFKLhXqdNDdNAZrLRJ4w1UN5iq4guxt4SCc=
  7
TQS_CALIBRI
  0
TEXT
  8
0
  6
CONTINUOUS
 10
0.000000
 20
-17.500000
 40
0.200000
  1
$PLWDWGWwx6hNWcHkfMlNl0Lk6ByMzMqax9VWtlHbqYZ5HSMmQihmmTwSHXYxAnOhDDSjN4JiCdwsX5M8OA/AEHvNHtvejAyWmDqXESE8aXvyv+KolqScq2D+GMqAaodXsxyoNp7G3UzGynxVU7MZxRVDBC9LYMRF10V/7/TONu3HjK5Iw=
  7
TQS_CALIBRI
  0
TEXT
  8
0
  6
CONTINUOUS
 10
0.000000
 20
-17.750000
 40
0.200000
  1
$PLWDWGuFYdMz62mmkreHpD4+ZY7cwK72UvoVmeW1GsQke57m8LAtO0pHKtUcXmIxEZH4YuQaacZZYJ5lVEh/klW3HTT/jZ/a9njPDYaMEcMGYBxBNfC7zzwtm/7HRP2BDn0TDk1Q7CWFJJVnV6D6QUTPZWat6930WJQwy6D2nII/yEjPY=
  7
TQS_CALIBRI
  0
TEXT
  8
0
  6
CONTINUOUS
 10
0.000000
 20
-18.000000
 40
0.200000
  1
$PLWDWGPQb3a2yN5+uIAFjsHlWWP+9I2F3z1HkRsNR3lRR472n1zrJPLmTX/69PVp8j/6/DM4Dh4wsEEZgPlcDvJCOmQY7wdyiVf9XcW6HO/6BYP5tu7K83QQHUY8m8R6pt8Q7iDPN7Fs6k3D1DAjHNvY2x80+asAX9N61krZOZko3/IBw=
  7
TQS_CALIBRI
  0
TEXT
  8
0
  6
CONTINUOUS
 10
0.000000
 20
-18.250000
 40
0.200000
  1
$PLWDWGxMUbcBBg9KvXtvFZiW3T11rtviG5Wb+eQPfcxwW4jFDcqi8fWetdqjV1vMFiL1wGCM7UI01rA0ah4p8QSAjR9OrNx0xUqdjuN+5kMN2wp6f7uSJtz3+3APiR1s1LK2xTPwbV2+5XtKRM7zHYZA7eBI0EVOW51o8GYnjPvp7CA4Y=
  7
TQS_CALIBRI
  0
TEXT
  8
0
  6
CONTINUOUS
 10
0.000000
 20
-18.500000
 40
0.200000
  1
$PLWDWGVA/93HFuQJSS/nXmNCSUfiu9oJj8/VTCwAQEGRwLMiuMI2rnwujBXh4T1+yLXXxNgNWzir2GS5lIx4Rnf/VaSorusF4b6WVKm9t3guFIZnIcKj5a+e0+U0yJEzEYy0dyvE1t7N3l+TeCAY9hpv8nkFknT+1//oGBzstEof6M504=
  7
TQS_CALIBRI
  0
TEXT
  8
0
  6
CONTINUOUS
 10
0.000000
 20
-18.750000
 40
0.200000
  1
$PLWDWGCOoxrroNzEQ8Uko957l7MBOqvk3oghgPep2mRpNfTDb1ag7xRswAOvK/qb3fTFpzsfwxxRxmB6wnZwFN9oRIIkb2B3ZuvjyhJYNIoCbDqghpfQC1KJZJuKjn7QqrGkV3L7IHO5COKRSAJLZnUtOgE9bZeOspRE436R0JfzREUGY=
  7
TQS_CALIBRI
  0
TEXT
  8
0
  6
CONTINUOUS
 10
0.000000
 20
-19.000000
 40
0.200000
  1
$PLWDWGe5iqhCEP6tC4kmLr42TGGENEC64zfyntet8utyCgecqsIknxZq/Rlxoxg2kX6Jsu43bamEQFX7xz+uDAwuv15ZlI6L743NSXhYIYfZ8P9DPU9d1oubJLZ4oz9k/DwLfG1n5FlHBCZ7u4p8IbEm5d7p8XTbfbGdlH6WLRvShIyEs=
  7
TQS_CALIBRI
  0
TEXT
  8
0
  6
CONTINUOUS
 10
0.000000
 20
-19.250000
 40
0.200000
  1
$PLWDWGva5cn0zmxQzqLVCizY4mEkVjWd2+TIrjGwfvNsX6ApitZBfZ98PhHxFmgxSnrSnQ+ViHrhg0sBcjmEstwfuzKBYDXQt2S7JCXRVHHfJDRShV/dCQn1Mgquc9KHHpC8YiyEfmynfLWbbK7dWtQ5GpmrKQbbg4t0fuNtR5cIuRtXg=
  7
TQS_CALIBRI
  0
TEXT
  8
0
  6
CONTINUOUS
 10
0.000000
 20
-19.500000
 40
0.200000
  1
$PLWDWGR23bAjb8k+kM946xdQB+LHiVDFpiK58UJVnzhDLMU0cF2wMPY4TpAS5vxEtje/xIkHM0pxioyOiNIRcjsF12JS/M7yjbhzgXPGNikxCSqBtjZwBmTYQ12l4KLxRg768hr2BJv+lZsIyQNqFQuqHdU556n2ZkmMPQrV90wh/89rs=
  7
TQS_CALIBRI
  0
TEXT
  8
0
  6
CONTINUOUS
 10
0.000000
 20
-19.750000
 40
0.200000
  1
$PLWDWGufIacw0sD/Gkxu90zjLkfV+jz/ROvVoxnsfq17Xvz4hsuO65MBGiB6NUDmT/BciLlL8L5WnSMF+Ej6QDw+INbvs6bTbnKqbmbRf87QuFoucDDs2GnXWIHBSI+9SiwDk5SuOa2SJIpx/cDzPn49Tc6evi8sKqWXzADuzrF+gHBDU=
  7
TQS_CALIBRI
  0
TEXT
  8
0
  6
CONTINUOUS
 10
0.000000
 20
-20.000000
 40
0.200000
  1
$PLWDWGQhNQAMiPOJoqS7FacHz6zrnxV/Q3xgmk7I0kOh8I+zEKxERJVofyfJZeezU20CqRAx7nYJvrFHmEeQM7Ot2xZmziqhKXUDqKT51l3DMcvWYZHuFPmYF1RUr10sFOx7v8LgKZmjXDa9FXKL5ilmyUzR58JTfKUnuKUInKsdo11xo=
  7
TQS_CALIBRI
  0
TEXT
  8
0
  6
CONTINUOUS
 10
0.000000
 20
-20.250000
 40
0.200000
  1
$PLWDWGFl564OOxe0Ry/BRbA6asd+BTsbw1JCG8yDC5kk2s709K8AyBXoxsaKmmso6sHq6jht+q0CkMljtF3HBkr0IlBk2HecQAPt+srRS8sOyLv6vYlJNlzOCE3+a60/311EaYkh3nxYsC1+/FiMVxZ9pb8ACVbfUlvOi3UKY5DDqMbYQ=
  7
TQS_CALIBRI
  0
TEXT
  8
0
  6
CONTINUOUS
 10
0.000000
 20
-20.500000
 40
0.200000
  1
$PLWDWGvUfoiGvT4csWidlvLy+AJ+U866bo1rLfjNuhd1mVPKO4pX0sb/rdVJ0KheVFg05CrqZkUJS9X4bl5HEmThErdvspuxd0yYxEt4eJRtv11CmOkHkog3sUgxb+cVEQ2HgTCenkHTWHuYkl8KpoaTTK2RuC/hc3wIAoTApIGjvnYqg=
  7
TQS_CALIBRI
  0
TEXT
  8
0
  6
CONTINUOUS
 10
0.000000
 20
-20.750000
 40
0.200000
  1
$PLWDWGDKNX3AhbIQXCCSnILXff1ndKzKJD4NA1YygNjMOY7Tt2MTXEzfAgDYv9p8c2lPKgylLAYmfPSnWmK2lupg5N6SVrfZDOMsrVZeE3fj+KVdB/ATuyGKivwmXq2kqmLUSjxuLAql5y+LT2TKCwE+DLaadeB97RFnyQE+dEOAyRxFU=
  7
TQS_CALIBRI
  0
TEXT
  8
0
  6
CONTINUOUS
 10
0.000000
 20
-21.000000
 40
0.200000
  1
$PLWDWGuACTnGm/Uh3gyPOgAcDXRHjJ3Hlk72jboNAXmAALOt4JAnFXH1Ls0DCa1PcBFezfybg3hcWCe7yLL4MyHMoqR49ihMEtlktbVnb1HTpMUlvhfIbuSbiwjB8dqYv6VPL2hWHKhHInsYTT8nHv4FNQ2Teoo90EyeKpd4QmRrWLqs8=
  7
TQS_CALIBRI
  0
TEXT
  8
0
  6
CONTINUOUS
 10
0.000000
 20
-21.250000
 40
0.200000
  1
$PLWDWGYSF6sUa6jjT/4hBsPbqJAeoUfQXldod3EZ6jqMR1zUqpOKIZweJln+DV/AzLIrm/+bt3sfIapSw+cW8RjqLcQC5CF4Gi+zaO7tR38io4vv1ejHakmSRvEXWG5wY0ry61AITUhzB5heD4vB8v4Lg0fl70uU7uAlVtRsbPBf2FKR0=
  7
TQS_CALIBRI
  0
TEXT
  8
0
  6
CONTINUOUS
 10
0.000000
 20
-21.500000
 40
0.200000
  1
$PLWDWGdHoXjS6wLr3cb+ZI3Q2wWJUOKWs077VRWAl19191+/H1/BxL+JBYCBsMtmwwgPCNqMW6SjxEd/i7RR96DXylaCjG79+pdNgxr2DOEgD0pjnJ8oNyWONpghCPD8GaNK2gQ8QYdD6NQ4UD0jS0fdhJt0PL3nfFN8mW9+6r51mT6Yo=
  7
TQS_CALIBRI
  0
TEXT
  8
0
  6
CONTINUOUS
 10
0.000000
 20
-21.750000
 40
0.200000
  1
$PLWDWGp8tHFO0ry4thdVj07NWBvTmsvhs3eG3cUt3UzSptuc6ljs5krGFycG8QlM0l2CxWBpnQrfSjT4GsbmIimBEkhRFLayRVbw0nPpyPfvLcfI2lsA5kK/C/vdttNPJg+eCGHWWHNI4S6xvBLqwP5XYumNif7jo5WWLCmsHNUkysCTc=
  7
TQS_CALIBRI
  0
TEXT
  8
0
  6
CONTINUOUS
 10
0.000000
 20
-22.000000
 40
0.200000
  1
$PLWDWGAAAAAIGBXFogmu9oZtzU81yHWYOawc1STKwJNwAAAAA=
  7
TQS_CALIBRI
  0
ENDBLK
  8
0
  0
ENDSEC
  0
SECTION
  2
ENTITIES
  0
SOLID
  8
2
  6
CONTINUOUS
 10
26.060930
 20
74.791420
 11
25.931930
 21
75.049420
 12
26.189930
 22
75.049420
 13
26.189930
 23
75.049420
  0
SOLID
  8
2
  6
CONTINUOUS
 10
26.060930
 20
74.791420
 11
26.189930
 21
75.049420
 12
26.060930
 22
74.791420
 13
26.060930
 23
74.791420
  0
SOLID
  8
9
  6
CONTINUOUS
 10
30.338130
 20
76.841420
 11
33.538130
 21
76.841420
 12
30.338130
 22
79.241420
 13
30.338130
 23
79.241420
  0
SOLID
  8
9
  6
CONTINUOUS
 10
33.538130
 20
76.841420
 11
33.538130
 21
79.241420
 12
30.338130
 22
79.241420
 13
30.338130
 23
79.241420
  0
SOLID
  8
9
  6
CONTINUOUS
 10
30.338130
 20
79.241420
 11
33.538130
 21
79.241420
 12
34.038130
 22
80.041420
 13
34.038130
 23
80.041420
  0
SOLID
  8
9
  6
CONTINUOUS
 10
33.538130
 20
79.241420
 11
34.038130
 21
79.241420
 12
34.038130
 22
80.041420
 13
34.038130
 23
80.041420
  0
SOLID
  8
9
  6
CONTINUOUS
 10
29.838130
 20
80.041420
 11
29.838130
 21
79.241420
 12
30.338130
 22
79.241420
 13
30.338130
 23
79.241420
  0
SOLID
  8
9
  6
CONTINUOUS
 10
29.838130
 20
80.041420
 11
30.338130
 21
79.241420
 12
34.038130
 22
80.041420
 13
34.038130
 23
80.041420
  0
SOLID
  8
1
  6
CONTINUOUS
 10
30.563130
 20
77.026420
 11
30.553772
 21
77.052132
 12
30.530076
 22
77.065812
 13
30.530076
 23
77.065812
  0
SOLID
  8
1
  6
CONTINUOUS
 10
30.563130
 20
77.026420
 11
30.530076
 21
77.065812
 12
30.503130
 22
77.061061
 13
30.503130
 23
77.061061
  0
SOLID
  8
1
  6
CONTINUOUS
 10
30.563130
 20
77.026420
 11
30.503130
 21
77.061061
 12
30.485542
 22
77.040101
 13
30.485542
 23
77.040101
  0
SOLID
  8
1
  6
CONTINUOUS
 10
30.563130
 20
77.026420
 11
30.485542
 21
77.040101
 12
30.485542
 22
77.012739
 13
30.485542
 23
77.012739
  0
SOLID
  8
1
  6
CONTINUOUS
 10
30.563130
 20
77.026420
 11
30.485542
 21
77.012739
 12
30.503130
 22
76.991779
 13
30.503130
 23
76.991779
  0
SOLID
  8
1
  6
CONTINUOUS
 10
30.563130
 20
77.026420
 11
30.503130
 21
76.991779
 12
30.530076
 22
76.987028
 13
30.530076
 23
76.987028
  0
SOLID
  8
1
  6
CONTINUOUS
 10
30.563130
 20
77.026420
 11
30.530076
 21
76.987028
 12
30.553772
 22
77.000708
 13
30.553772
 23
77.000708
  0
SOLID
  8
1
  6
CONTINUOUS
 10
30.563130
 20
77.026420
 11
30.553772
 21
77.000708
 12
30.563130
 22
77.026420
 13
30.563130
 23
77.026420
  0
SOLID
  8
1
  6
CONTINUOUS
 10
31.129130
 20
77.026420
 11
31.119772
 21
77.052132
 12
31.096076
 22
77.065812
 13
31.096076
 23
77.065812
  0
SOLID
  8
1
  6
CONTINUOUS
 10
31.129130
 20
77.026420
 11
31.096076
 21
77.065812
 12
31.069130
 22
77.061061
 13
31.069130
 23
77.061061
  0
SOLID
  8
1
  6
CONTINUOUS
 10
31.129130
 20
77.026420
 11
31.069130
 21
77.061061
 12
31.051542
 22
77.040101
 13
31.051542
 23
77.040101
  0
SOLID
  8
1
  6
CONTINUOUS
 10
31.129130
 20
77.026420
 11
31.051542
 21
77.040101
 12
31.051542
 22
77.012739
 13
31.051542
 23
77.012739
  0
SOLID
  8
1
  6
CONTINUOUS
 10
31.129130
 20
77.026420
 11
31.051542
 21
77.012739
 12
31.069130
 22
76.991779
 13
31.069130
 23
76.991779
  0
SOLID
  8
1
  6
CONTINUOUS
 10
31.129130
 20
77.026420
 11
31.069130
 21
76.991779
 12
31.096076
 22
76.987028
 13
31.096076
 23
76.987028
  0
SOLID
  8
1
  6
CONTINUOUS
 10
31.129130
 20
77.026420
 11
31.096076
 21
76.987028
 12
31.119772
 22
77.000708
 13
31.119772
 23
77.000708
  0
SOLID
  8
1
  6
CONTINUOUS
 10
31.129130
 20
77.026420
 11
31.119772
 21
77.000708
 12
31.129130
 22
77.026420
 13
31.129130
 23
77.026420
  0
SOLID
  8
1
  6
CONTINUOUS
 10
31.536463
 20
77.026420
 11
31.527105
 21
77.052132
 12
31.503409
 22
77.065812
 13
31.503409
 23
77.065812
  0
SOLID
  8
1
  6
CONTINUOUS
 10
31.536463
 20
77.026420
 11
31.503409
 21
77.065812
 12
31.476463
 22
77.061061
 13
31.476463
 23
77.061061
  0
SOLID
  8
1
  6
CONTINUOUS
 10
31.536463
 20
77.026420
 11
31.476463
 21
77.061061
 12
31.458876
 22
77.040101
 13
31.458876
 23
77.040101
  0
SOLID
  8
1
  6
CONTINUOUS
 10
31.536463
 20
77.026420
 11
31.458876
 21
77.040101
 12
31.458876
 22
77.012739
 13
31.458876
 23
77.012739
  0
SOLID
  8
1
  6
CONTINUOUS
 10
31.536463
 20
77.026420
 11
31.458876
 21
77.012739
 12
31.476463
 22
76.991779
 13
31.476463
 23
76.991779
  0
SOLID
  8
1
  6
CONTINUOUS
 10
31.536463
 20
77.026420
 11
31.476463
 21
76.991779
 12
31.503409
 22
76.987028
 13
31.503409
 23
76.987028
  0
SOLID
  8
1
  6
CONTINUOUS
 10
31.536463
 20
77.026420
 11
31.503409
 21
76.987028
 12
31.527105
 22
77.000708
 13
31.527105
 23
77.000708
  0
SOLID
  8
1
  6
CONTINUOUS
 10
31.536463
 20
77.026420
 11
31.527105
 21
77.000708
 12
31.536463
 22
77.026420
 13
31.536463
 23
77.026420
  0
SOLID
  8
1
  6
CONTINUOUS
 10
32.419797
 20
77.026420
 11
32.410438
 21
77.052132
 12
32.386743
 22
77.065812
 13
32.386743
 23
77.065812
  0
SOLID
  8
1
  6
CONTINUOUS
 10
32.419797
 20
77.026420
 11
32.386743
 21
77.065812
 12
32.359797
 22
77.061061
 13
32.359797
 23
77.061061
  0
SOLID
  8
1
  6
CONTINUOUS
 10
32.419797
 20
77.026420
 11
32.359797
 21
77.061061
 12
32.342209
 22
77.040101
 13
32.342209
 23
77.040101
  0
SOLID
  8
1
  6
CONTINUOUS
 10
32.419797
 20
77.026420
 11
32.342209
 21
77.040101
 12
32.342209
 22
77.012739
 13
32.342209
 23
77.012739
  0
SOLID
  8
1
  6
CONTINUOUS
 10
32.419797
 20
77.026420
 11
32.342209
 21
77.012739
 12
32.359797
 22
76.991779
 13
32.359797
 23
76.991779
  0
SOLID
  8
1
  6
CONTINUOUS
 10
32.419797
 20
77.026420
 11
32.359797
 21
76.991779
 12
32.386743
 22
76.987028
 13
32.386743
 23
76.987028
  0
SOLID
  8
1
  6
CONTINUOUS
 10
32.419797
 20
77.026420
 11
32.386743
 21
76.987028
 12
32.410438
 22
77.000708
 13
32.410438
 23
77.000708
  0
SOLID
  8
1
  6
CONTINUOUS
 10
32.419797
 20
77.026420
 11
32.410438
 21
77.000708
 12
32.419797
 22
77.026420
 13
32.419797
 23
77.026420
  0
SOLID
  8
1
  6
CONTINUOUS
 10
32.827130
 20
77.026420
 11
32.817772
 21
77.052132
 12
32.794076
 22
77.065812
 13
32.794076
 23
77.065812
  0
SOLID
  8
1
  6
CONTINUOUS
 10
32.827130
 20
77.026420
 11
32.794076
 21
77.065812
 12
32.767130
 22
77.061061
 13
32.767130
 23
77.061061
  0
SOLID
  8
1
  6
CONTINUOUS
 10
32.827130
 20
77.026420
 11
32.767130
 21
77.061061
 12
32.749542
 22
77.040101
 13
32.749542
 23
77.040101
  0
SOLID
  8
1
  6
CONTINUOUS
 10
32.827130
 20
77.026420
 11
32.749542
 21
77.040101
 12
32.749542
 22
77.012739
 13
32.749542
 23
77.012739
  0
SOLID
  8
1
  6
CONTINUOUS
 10
32.827130
 20
77.026420
 11
32.749542
 21
77.012739
 12
32.767130
 22
76.991779
 13
32.767130
 23
76.991779
  0
SOLID
  8
1
  6
CONTINUOUS
 10
32.827130
 20
77.026420
 11
32.767130
 21
76.991779
 12
32.794076
 22
76.987028
 13
32.794076
 23
76.987028
  0
SOLID
  8
1
  6
CONTINUOUS
 10
32.827130
 20
77.026420
 11
32.794076
 21
76.987028
 12
32.817772
 22
77.000708
 13
32.817772
 23
77.000708
  0
SOLID
  8
1
  6
CONTINUOUS
 10
32.827130
 20
77.026420
 11
32.817772
 21
77.000708
 12
32.827130
 22
77.026420
 13
32.827130
 23
77.026420
  0
SOLID
  8
1
  6
CONTINUOUS
 10
33.393130
 20
77.026420
 11
33.383772
 21
77.052132
 12
33.360076
 22
77.065812
 13
33.360076
 23
77.065812
  0
SOLID
  8
1
  6
CONTINUOUS
 10
33.393130
 20
77.026420
 11
33.360076
 21
77.065812
 12
33.333130
 22
77.061061
 13
33.333130
 23
77.061061
  0
SOLID
  8
1
  6
CONTINUOUS
 10
33.393130
 20
77.026420
 11
33.333130
 21
77.061061
 12
33.315542
 22
77.040101
 13
33.315542
 23
77.040101
  0
SOLID
  8
1
  6
CONTINUOUS
 10
33.393130
 20
77.026420
 11
33.315542
 21
77.040101
 12
33.315542
 22
77.012739
 13
33.315542
 23
77.012739
  0
SOLID
  8
1
  6
CONTINUOUS
 10
33.393130
 20
77.026420
 11
33.315542
 21
77.012739
 12
33.333130
 22
76.991779
 13
33.333130
 23
76.991779
  0
SOLID
  8
1
  6
CONTINUOUS
 10
33.393130
 20
77.026420
 11
33.333130
 21
76.991779
 12
33.360076
 22
76.987028
 13
33.360076
 23
76.987028
  0
SOLID
  8
1
  6
CONTINUOUS
 10
33.393130
 20
77.026420
 11
33.360076
 21
76.987028
 12
33.383772
 22
77.000708
 13
33.383772
 23
77.000708
  0
SOLID
  8
1
  6
CONTINUOUS
 10
33.393130
 20
77.026420
 11
33.383772
 21
77.000708
 12
33.393130
 22
77.026420
 13
33.393130
 23
77.026420
  0
SOLID
  8
1
  6
CONTINUOUS
 10
30.563130
 20
79.856420
 11
30.553772
 21
79.882132
 12
30.530076
 22
79.895812
 13
30.530076
 23
79.895812
  0
SOLID
  8
1
  6
CONTINUOUS
 10
30.563130
 20
79.856420
 11
30.530076
 21
79.895812
 12
30.503130
 22
79.891061
 13
30.503130
 23
79.891061
  0
SOLID
  8
1
  6
CONTINUOUS
 10
30.563130
 20
79.856420
 11
30.503130
 21
79.891061
 12
30.485542
 22
79.870101
 13
30.485542
 23
79.870101
  0
SOLID
  8
1
  6
CONTINUOUS
 10
30.563130
 20
79.856420
 11
30.485542
 21
79.870101
 12
30.485542
 22
79.842739
 13
30.485542
 23
79.842739
  0
SOLID
  8
1
  6
CONTINUOUS
 10
30.563130
 20
79.856420
 11
30.485542
 21
79.842739
 12
30.503130
 22
79.821779
 13
30.503130
 23
79.821779
  0
SOLID
  8
1
  6
CONTINUOUS
 10
30.563130
 20
79.856420
 11
30.503130
 21
79.821779
 12
30.530076
 22
79.817028
 13
30.530076
 23
79.817028
  0
SOLID
  8
1
  6
CONTINUOUS
 10
30.563130
 20
79.856420
 11
30.530076
 21
79.817028
 12
30.553772
 22
79.830708
 13
30.553772
 23
79.830708
  0
SOLID
  8
1
  6
CONTINUOUS
 10
30.563130
 20
79.856420
 11
30.553772
 21
79.830708
 12
30.563130
 22
79.856420
 13
30.563130
 23
79.856420
  0
SOLID
  8
1
  6
CONTINUOUS
 10
30.820403
 20
79.856420
 11
30.811045
 21
79.882132
 12
30.787349
 22
79.895812
 13
30.787349
 23
79.895812
  0
SOLID
  8
1
  6
CONTINUOUS
 10
30.820403
 20
79.856420
 11
30.787349
 21
79.895812
 12
30.760403
 22
79.891061
 13
30.760403
 23
79.891061
  0
SOLID
  8
1
  6
CONTINUOUS
 10
30.820403
 20
79.856420
 11
30.760403
 21
79.891061
 12
30.742815
 22
79.870101
 13
30.742815
 23
79.870101
  0
SOLID
  8
1
  6
CONTINUOUS
 10
30.820403
 20
79.856420
 11
30.742815
 21
79.870101
 12
30.742815
 22
79.842739
 13
30.742815
 23
79.842739
  0
SOLID
  8
1
  6
CONTINUOUS
 10
30.820403
 20
79.856420
 11
30.742815
 21
79.842739
 12
30.760403
 22
79.821779
 13
30.760403
 23
79.821779
  0
SOLID
  8
1
  6
CONTINUOUS
 10
30.820403
 20
79.856420
 11
30.760403
 21
79.821779
 12
30.787349
 22
79.817028
 13
30.787349
 23
79.817028
  0
SOLID
  8
1
  6
CONTINUOUS
 10
30.820403
 20
79.856420
 11
30.787349
 21
79.817028
 12
30.811045
 22
79.830708
 13
30.811045
 23
79.830708
  0
SOLID
  8
1
  6
CONTINUOUS
 10
30.820403
 20
79.856420
 11
30.811045
 21
79.830708
 12
30.820403
 22
79.856420
 13
30.820403
 23
79.856420
  0
SOLID
  8
1
  6
CONTINUOUS
 10
31.077675
 20
79.856420
 11
31.068317
 21
79.882132
 12
31.044621
 22
79.895812
 13
31.044621
 23
79.895812
  0
SOLID
  8
1
  6
CONTINUOUS
 10
31.077675
 20
79.856420
 11
31.044621
 21
79.895812
 12
31.017675
 22
79.891061
 13
31.017675
 23
79.891061
  0
SOLID
  8
1
  6
CONTINUOUS
 10
31.077675
 20
79.856420
 11
31.017675
 21
79.891061
 12
31.000088
 22
79.870101
 13
31.000088
 23
79.870101
  0
SOLID
  8
1
  6
CONTINUOUS
 10
31.077675
 20
79.856420
 11
31.000088
 21
79.870101
 12
31.000088
 22
79.842739
 13
31.000088
 23
79.842739
  0
SOLID
  8
1
  6
CONTINUOUS
 10
31.077675
 20
79.856420
 11
31.000088
 21
79.842739
 12
31.017675
 22
79.821779
 13
31.017675
 23
79.821779
  0
SOLID
  8
1
  6
CONTINUOUS
 10
31.077675
 20
79.856420
 11
31.017675
 21
79.821779
 12
31.044621
 22
79.817028
 13
31.044621
 23
79.817028
  0
SOLID
  8
1
  6
CONTINUOUS
 10
31.077675
 20
79.856420
 11
31.044621
 21
79.817028
 12
31.068317
 22
79.830708
 13
31.068317
 23
79.830708
  0
SOLID
  8
1
  6
CONTINUOUS
 10
31.077675
 20
79.856420
 11
31.068317
 21
79.830708
 12
31.077675
 22
79.856420
 13
31.077675
 23
79.856420
  0
SOLID
  8
1
  6
CONTINUOUS
 10
31.334948
 20
79.856420
 11
31.325590
 21
79.882132
 12
31.301894
 22
79.895812
 13
31.301894
 23
79.895812
  0
SOLID
  8
1
  6
CONTINUOUS
 10
31.334948
 20
79.856420
 11
31.301894
 21
79.895812
 12
31.274948
 22
79.891061
 13
31.274948
 23
79.891061
  0
SOLID
  8
1
  6
CONTINUOUS
 10
31.334948
 20
79.856420
 11
31.274948
 21
79.891061
 12
31.257360
 22
79.870101
 13
31.257360
 23
79.870101
  0
SOLID
  8
1
  6
CONTINUOUS
 10
31.334948
 20
79.856420
 11
31.257360
 21
79.870101
 12
31.257360
 22
79.842739
 13
31.257360
 23
79.842739
  0
SOLID
  8
1
  6
CONTINUOUS
 10
31.334948
 20
79.856420
 11
31.257360
 21
79.842739
 12
31.274948
 22
79.821779
 13
31.274948
 23
79.821779
  0
SOLID
  8
1
  6
CONTINUOUS
 10
31.334948
 20
79.856420
 11
31.274948
 21
79.821779
 12
31.301894
 22
79.817028
 13
31.301894
 23
79.817028
  0
SOLID
  8
1
  6
CONTINUOUS
 10
31.334948
 20
79.856420
 11
31.301894
 21
79.817028
 12
31.325590
 22
79.830708
 13
31.325590
 23
79.830708
  0
SOLID
  8
1
  6
CONTINUOUS
 10
31.334948
 20
79.856420
 11
31.325590
 21
79.830708
 12
31.334948
 22
79.856420
 13
31.334948
 23
79.856420
  0
SOLID
  8
1
  6
CONTINUOUS
 10
31.536463
 20
79.856420
 11
31.527105
 21
79.882132
 12
31.503409
 22
79.895812
 13
31.503409
 23
79.895812
  0
SOLID
  8
1
  6
CONTINUOUS
 10
31.536463
 20
79.856420
 11
31.503409
 21
79.895812
 12
31.476463
 22
79.891061
 13
31.476463
 23
79.891061
  0
SOLID
  8
1
  6
CONTINUOUS
 10
31.536463
 20
79.856420
 11
31.476463
 21
79.891061
 12
31.458876
 22
79.870101
 13
31.458876
 23
79.870101
  0
SOLID
  8
1
  6
CONTINUOUS
 10
31.536463
 20
79.856420
 11
31.458876
 21
79.870101
 12
31.458876
 22
79.842739
 13
31.458876
 23
79.842739
  0
SOLID
  8
1
  6
CONTINUOUS
 10
31.536463
 20
79.856420
 11
31.458876
 21
79.842739
 12
31.476463
 22
79.821779
 13
31.476463
 23
79.821779
  0
SOLID
  8
1
  6
CONTINUOUS
 10
31.536463
 20
79.856420
 11
31.476463
 21
79.821779
 12
31.503409
 22
79.817028
 13
31.503409
 23
79.817028
  0
SOLID
  8
1
  6
CONTINUOUS
 10
31.536463
 20
79.856420
 11
31.503409
 21
79.817028
 12
31.527105
 22
79.830708
 13
31.527105
 23
79.830708
  0
SOLID
  8
1
  6
CONTINUOUS
 10
31.536463
 20
79.856420
 11
31.527105
 21
79.830708
 12
31.536463
 22
79.856420
 13
31.536463
 23
79.856420
  0
SOLID
  8
1
  6
CONTINUOUS
 10
31.849494
 20
79.856420
 11
31.840135
 21
79.882132
 12
31.816440
 22
79.895812
 13
31.816440
 23
79.895812
  0
SOLID
  8
1
  6
CONTINUOUS
 10
31.849494
 20
79.856420
 11
31.816440
 21
79.895812
 12
31.789494
 22
79.891061
 13
31.789494
 23
79.891061
  0
SOLID
  8
1
  6
CONTINUOUS
 10
31.849494
 20
79.856420
 11
31.789494
 21
79.891061
 12
31.771906
 22
79.870101
 13
31.771906
 23
79.870101
  0
SOLID
  8
1
  6
CONTINUOUS
 10
31.849494
 20
79.856420
 11
31.771906
 21
79.870101
 12
31.771906
 22
79.842739
 13
31.771906
 23
79.842739
  0
SOLID
  8
1
  6
CONTINUOUS
 10
31.849494
 20
79.856420
 11
31.771906
 21
79.842739
 12
31.789494
 22
79.821779
 13
31.789494
 23
79.821779
  0
SOLID
  8
1
  6
CONTINUOUS
 10
31.849494
 20
79.856420
 11
31.789494
 21
79.821779
 12
31.816440
 22
79.817028
 13
31.816440
 23
79.817028
  0
SOLID
  8
1
  6
CONTINUOUS
 10
31.849494
 20
79.856420
 11
31.816440
 21
79.817028
 12
31.840135
 22
79.830708
 13
31.840135
 23
79.830708
  0
SOLID
  8
1
  6
CONTINUOUS
 10
31.849494
 20
79.856420
 11
31.840135
 21
79.830708
 12
31.849494
 22
79.856420
 13
31.849494
 23
79.856420
  0
SOLID
  8
1
  6
CONTINUOUS
 10
32.106766
 20
79.856420
 11
32.097408
 21
79.882132
 12
32.073712
 22
79.895812
 13
32.073712
 23
79.895812
  0
SOLID
  8
1
  6
CONTINUOUS
 10
32.106766
 20
79.856420
 11
32.073712
 21
79.895812
 12
32.046766
 22
79.891061
 13
32.046766
 23
79.891061
  0
SOLID
  8
1
  6
CONTINUOUS
 10
32.106766
 20
79.856420
 11
32.046766
 21
79.891061
 12
32.029179
 22
79.870101
 13
32.029179
 23
79.870101
  0
SOLID
  8
1
  6
CONTINUOUS
 10
32.106766
 20
79.856420
 11
32.029179
 21
79.870101
 12
32.029179
 22
79.842739
 13
32.029179
 23
79.842739
  0
SOLID
  8
1
  6
CONTINUOUS
 10
32.106766
 20
79.856420
 11
32.029179
 21
79.842739
 12
32.046766
 22
79.821779
 13
32.046766
 23
79.821779
  0
SOLID
  8
1
  6
CONTINUOUS
 10
32.106766
 20
79.856420
 11
32.046766
 21
79.821779
 12
32.073712
 22
79.817028
 13
32.073712
 23
79.817028
  0
SOLID
  8
1
  6
CONTINUOUS
 10
32.106766
 20
79.856420
 11
32.073712
 21
79.817028
 12
32.097408
 22
79.830708
 13
32.097408
 23
79.830708
  0
SOLID
  8
1
  6
CONTINUOUS
 10
32.106766
 20
79.856420
 11
32.097408
 21
79.830708
 12
32.106766
 22
79.856420
 13
32.106766
 23
79.856420
  0
SOLID
  8
1
  6
CONTINUOUS
 10
32.419797
 20
79.856420
 11
32.410438
 21
79.882132
 12
32.386743
 22
79.895812
 13
32.386743
 23
79.895812
  0
SOLID
  8
1
  6
CONTINUOUS
 10
32.419797
 20
79.856420
 11
32.386743
 21
79.895812
 12
32.359797
 22
79.891061
 13
32.359797
 23
79.891061
  0
SOLID
  8
1
  6
CONTINUOUS
 10
32.419797
 20
79.856420
 11
32.359797
 21
79.891061
 12
32.342209
 22
79.870101
 13
32.342209
 23
79.870101
  0
SOLID
  8
1
  6
CONTINUOUS
 10
32.419797
 20
79.856420
 11
32.342209
 21
79.870101
 12
32.342209
 22
79.842739
 13
32.342209
 23
79.842739
  0
SOLID
  8
1
  6
CONTINUOUS
 10
32.419797
 20
79.856420
 11
32.342209
 21
79.842739
 12
32.359797
 22
79.821779
 13
32.359797
 23
79.821779
  0
SOLID
  8
1
  6
CONTINUOUS
 10
32.419797
 20
79.856420
 11
32.359797
 21
79.821779
 12
32.386743
 22
79.817028
 13
32.386743
 23
79.817028
  0
SOLID
  8
1
  6
CONTINUOUS
 10
32.419797
 20
79.856420
 11
32.386743
 21
79.817028
 12
32.410438
 22
79.830708
 13
32.410438
 23
79.830708
  0
SOLID
  8
1
  6
CONTINUOUS
 10
32.419797
 20
79.856420
 11
32.410438
 21
79.830708
 12
32.419797
 22
79.856420
 13
32.419797
 23
79.856420
  0
SOLID
  8
1
  6
CONTINUOUS
 10
32.621312
 20
79.856420
 11
32.611954
 21
79.882132
 12
32.588258
 22
79.895812
 13
32.588258
 23
79.895812
  0
SOLID
  8
1
  6
CONTINUOUS
 10
32.621312
 20
79.856420
 11
32.588258
 21
79.895812
 12
32.561312
 22
79.891061
 13
32.561312
 23
79.891061
  0
SOLID
  8
1
  6
CONTINUOUS
 10
32.621312
 20
79.856420
 11
32.561312
 21
79.891061
 12
32.543724
 22
79.870101
 13
32.543724
 23
79.870101
  0
SOLID
  8
1
  6
CONTINUOUS
 10
32.621312
 20
79.856420
 11
32.543724
 21
79.870101
 12
32.543724
 22
79.842739
 13
32.543724
 23
79.842739
  0
SOLID
  8
1
  6
CONTINUOUS
 10
32.621312
 20
79.856420
 11
32.543724
 21
79.842739
 12
32.561312
 22
79.821779
 13
32.561312
 23
79.821779
  0
SOLID
  8
1
  6
CONTINUOUS
 10
32.621312
 20
79.856420
 11
32.561312
 21
79.821779
 12
32.588258
 22
79.817028
 13
32.588258
 23
79.817028
  0
SOLID
  8
1
  6
CONTINUOUS
 10
32.621312
 20
79.856420
 11
32.588258
 21
79.817028
 12
32.611954
 22
79.830708
 13
32.611954
 23
79.830708
  0
SOLID
  8
1
  6
CONTINUOUS
 10
32.621312
 20
79.856420
 11
32.611954
 21
79.830708
 12
32.621312
 22
79.856420
 13
32.621312
 23
79.856420
  0
SOLID
  8
1
  6
CONTINUOUS
 10
32.878585
 20
79.856420
 11
32.869226
 21
79.882132
 12
32.845530
 22
79.895812
 13
32.845530
 23
79.895812
  0
SOLID
  8
1
  6
CONTINUOUS
 10
32.878585
 20
79.856420
 11
32.845530
 21
79.895812
 12
32.818585
 22
79.891061
 13
32.818585
 23
79.891061
  0
SOLID
  8
1
  6
CONTINUOUS
 10
32.878585
 20
79.856420
 11
32.818585
 21
79.891061
 12
32.800997
 22
79.870101
 13
32.800997
 23
79.870101
  0
SOLID
  8
1
  6
CONTINUOUS
 10
32.878585
 20
79.856420
 11
32.800997
 21
79.870101
 12
32.800997
 22
79.842739
 13
32.800997
 23
79.842739
  0
SOLID
  8
1
  6
CONTINUOUS
 10
32.878585
 20
79.856420
 11
32.800997
 21
79.842739
 12
32.818585
 22
79.821779
 13
32.818585
 23
79.821779
  0
SOLID
  8
1
  6
CONTINUOUS
 10
32.878585
 20
79.856420
 11
32.818585
 21
79.821779
 12
32.845530
 22
79.817028
 13
32.845530
 23
79.817028
  0
SOLID
  8
1
  6
CONTINUOUS
 10
32.878585
 20
79.856420
 11
32.845530
 21
79.817028
 12
32.869226
 22
79.830708
 13
32.869226
 23
79.830708
  0
SOLID
  8
1
  6
CONTINUOUS
 10
32.878585
 20
79.856420
 11
32.869226
 21
79.830708
 12
32.878585
 22
79.856420
 13
32.878585
 23
79.856420
  0
SOLID
  8
1
  6
CONTINUOUS
 10
33.135857
 20
79.856420
 11
33.126499
 21
79.882132
 12
33.102803
 22
79.895812
 13
33.102803
 23
79.895812
  0
SOLID
  8
1
  6
CONTINUOUS
 10
33.135857
 20
79.856420
 11
33.102803
 21
79.895812
 12
33.075857
 22
79.891061
 13
33.075857
 23
79.891061
  0
SOLID
  8
1
  6
CONTINUOUS
 10
33.135857
 20
79.856420
 11
33.075857
 21
79.891061
 12
33.058270
 22
79.870101
 13
33.058270
 23
79.870101
  0
SOLID
  8
1
  6
CONTINUOUS
 10
33.135857
 20
79.856420
 11
33.058270
 21
79.870101
 12
33.058270
 22
79.842739
 13
33.058270
 23
79.842739
  0
SOLID
  8
1
  6
CONTINUOUS
 10
33.135857
 20
79.856420
 11
33.058270
 21
79.842739
 12
33.075857
 22
79.821779
 13
33.075857
 23
79.821779
  0
SOLID
  8
1
  6
CONTINUOUS
 10
33.135857
 20
79.856420
 11
33.075857
 21
79.821779
 12
33.102803
 22
79.817028
 13
33.102803
 23
79.817028
  0
SOLID
  8
1
  6
CONTINUOUS
 10
33.135857
 20
79.856420
 11
33.102803
 21
79.817028
 12
33.126499
 22
79.830708
 13
33.126499
 23
79.830708
  0
SOLID
  8
1
  6
CONTINUOUS
 10
33.135857
 20
79.856420
 11
33.126499
 21
79.830708
 12
33.135857
 22
79.856420
 13
33.135857
 23
79.856420
  0
SOLID
  8
1
  6
CONTINUOUS
 10
33.393130
 20
79.856420
 11
33.383772
 21
79.882132
 12
33.360076
 22
79.895812
 13
33.360076
 23
79.895812
  0
SOLID
  8
1
  6
CONTINUOUS
 10
33.393130
 20
79.856420
 11
33.360076
 21
79.895812
 12
33.333130
 22
79.891061
 13
33.333130
 23
79.891061
  0
SOLID
  8
1
  6
CONTINUOUS
 10
33.393130
 20
79.856420
 11
33.333130
 21
79.891061
 12
33.315542
 22
79.870101
 13
33.315542
 23
79.870101
  0
SOLID
  8
1
  6
CONTINUOUS
 10
33.393130
 20
79.856420
 11
33.315542
 21
79.870101
 12
33.315542
 22
79.842739
 13
33.315542
 23
79.842739
  0
SOLID
  8
1
  6
CONTINUOUS
 10
33.393130
 20
79.856420
 11
33.315542
 21
79.842739
 12
33.333130
 22
79.821779
 13
33.333130
 23
79.821779
  0
SOLID
  8
1
  6
CONTINUOUS
 10
33.393130
 20
79.856420
 11
33.333130
 21
79.821779
 12
33.360076
 22
79.817028
 13
33.360076
 23
79.817028
  0
SOLID
  8
1
  6
CONTINUOUS
 10
33.393130
 20
79.856420
 11
33.360076
 21
79.817028
 12
33.383772
 22
79.830708
 13
33.383772
 23
79.830708
  0
SOLID
  8
1
  6
CONTINUOUS
 10
33.393130
 20
79.856420
 11
33.383772
 21
79.830708
 12
33.393130
 22
79.856420
 13
33.393130
 23
79.856420
  0
SOLID
  8
1
  6
CONTINUOUS
 10
30.563130
 20
79.507580
 11
30.553772
 21
79.533292
 12
30.530076
 22
79.546972
 13
30.530076
 23
79.546972
  0
SOLID
  8
1
  6
CONTINUOUS
 10
30.563130
 20
79.507580
 11
30.530076
 21
79.546972
 12
30.503130
 22
79.542221
 13
30.503130
 23
79.542221
  0
SOLID
  8
1
  6
CONTINUOUS
 10
30.563130
 20
79.507580
 11
30.503130
 21
79.542221
 12
30.485542
 22
79.521261
 13
30.485542
 23
79.521261
  0
SOLID
  8
1
  6
CONTINUOUS
 10
30.563130
 20
79.507580
 11
30.485542
 21
79.521261
 12
30.485542
 22
79.493899
 13
30.485542
 23
79.493899
  0
SOLID
  8
1
  6
CONTINUOUS
 10
30.563130
 20
79.507580
 11
30.485542
 21
79.493899
 12
30.503130
 22
79.472939
 13
30.503130
 23
79.472939
  0
SOLID
  8
1
  6
CONTINUOUS
 10
30.563130
 20
79.507580
 11
30.503130
 21
79.472939
 12
30.530076
 22
79.468188
 13
30.530076
 23
79.468188
  0
SOLID
  8
1
  6
CONTINUOUS
 10
30.563130
 20
79.507580
 11
30.530076
 21
79.468188
 12
30.553772
 22
79.481868
 13
30.553772
 23
79.481868
  0
SOLID
  8
1
  6
CONTINUOUS
 10
30.563130
 20
79.507580
 11
30.553772
 21
79.481868
 12
30.563130
 22
79.507580
 13
30.563130
 23
79.507580
  0
SOLID
  8
1
  6
CONTINUOUS
 10
33.393130
 20
79.507580
 11
33.383772
 21
79.533292
 12
33.360076
 22
79.546972
 13
33.360076
 23
79.546972
  0
SOLID
  8
1
  6
CONTINUOUS
 10
33.393130
 20
79.507580
 11
33.360076
 21
79.546972
 12
33.333130
 22
79.542221
 13
33.333130
 23
79.542221
  0
SOLID
  8
1
  6
CONTINUOUS
 10
33.393130
 20
79.507580
 11
33.333130
 21
79.542221
 12
33.315542
 22
79.521261
 13
33.315542
 23
79.521261
  0
SOLID
  8
1
  6
CONTINUOUS
 10
33.393130
 20
79.507580
 11
33.315542
 21
79.521261
 12
33.315542
 22
79.493899
 13
33.315542
 23
79.493899
  0
SOLID
  8
1
  6
CONTINUOUS
 10
33.393130
 20
79.507580
 11
33.315542
 21
79.493899
 12
33.333130
 22
79.472939
 13
33.333130
 23
79.472939
  0
SOLID
  8
1
  6
CONTINUOUS
 10
33.393130
 20
79.507580
 11
33.333130
 21
79.472939
 12
33.360076
 22
79.468188
 13
33.360076
 23
79.468188
  0
SOLID
  8
1
  6
CONTINUOUS
 10
33.393130
 20
79.507580
 11
33.360076
 21
79.468188
 12
33.383772
 22
79.481868
 13
33.383772
 23
79.481868
  0
SOLID
  8
1
  6
CONTINUOUS
 10
33.393130
 20
79.507580
 11
33.383772
 21
79.481868
 12
33.393130
 22
79.507580
 13
33.393130
 23
79.507580
  0
SOLID
  8
1
  6
CONTINUOUS
 10
30.563130
 20
79.202980
 11
30.553772
 21
79.228692
 12
30.530076
 22
79.242372
 13
30.530076
 23
79.242372
  0
SOLID
  8
1
  6
CONTINUOUS
 10
30.563130
 20
79.202980
 11
30.530076
 21
79.242372
 12
30.503130
 22
79.237621
 13
30.503130
 23
79.237621
  0
SOLID
  8
1
  6
CONTINUOUS
 10
30.563130
 20
79.202980
 11
30.503130
 21
79.237621
 12
30.485542
 22
79.216661
 13
30.485542
 23
79.216661
  0
SOLID
  8
1
  6
CONTINUOUS
 10
30.563130
 20
79.202980
 11
30.485542
 21
79.216661
 12
30.485542
 22
79.189299
 13
30.485542
 23
79.189299
  0
SOLID
  8
1
  6
CONTINUOUS
 10
30.563130
 20
79.202980
 11
30.485542
 21
79.189299
 12
30.503130
 22
79.168339
 13
30.503130
 23
79.168339
  0
SOLID
  8
1
  6
CONTINUOUS
 10
30.563130
 20
79.202980
 11
30.503130
 21
79.168339
 12
30.530076
 22
79.163588
 13
30.530076
 23
79.163588
  0
SOLID
  8
1
  6
CONTINUOUS
 10
30.563130
 20
79.202980
 11
30.530076
 21
79.163588
 12
30.553772
 22
79.177268
 13
30.553772
 23
79.177268
  0
SOLID
  8
1
  6
CONTINUOUS
 10
30.563130
 20
79.202980
 11
30.553772
 21
79.177268
 12
30.563130
 22
79.202980
 13
30.563130
 23
79.202980
  0
SOLID
  8
1
  6
CONTINUOUS
 10
33.393130
 20
79.202980
 11
33.383772
 21
79.228692
 12
33.360076
 22
79.242372
 13
33.360076
 23
79.242372
  0
SOLID
  8
1
  6
CONTINUOUS
 10
33.393130
 20
79.202980
 11
33.360076
 21
79.242372
 12
33.333130
 22
79.237621
 13
33.333130
 23
79.237621
  0
SOLID
  8
1
  6
CONTINUOUS
 10
33.393130
 20
79.202980
 11
33.333130
 21
79.237621
 12
33.315542
 22
79.216661
 13
33.315542
 23
79.216661
  0
SOLID
  8
1
  6
CONTINUOUS
 10
33.393130
 20
79.202980
 11
33.315542
 21
79.216661
 12
33.315542
 22
79.189299
 13
33.315542
 23
79.189299
  0
SOLID
  8
1
  6
CONTINUOUS
 10
33.393130
 20
79.202980
 11
33.315542
 21
79.189299
 12
33.333130
 22
79.168339
 13
33.333130
 23
79.168339
  0
SOLID
  8
1
  6
CONTINUOUS
 10
33.393130
 20
79.202980
 11
33.333130
 21
79.168339
 12
33.360076
 22
79.163588
 13
33.360076
 23
79.163588
  0
SOLID
  8
1
  6
CONTINUOUS
 10
33.393130
 20
79.202980
 11
33.360076
 21
79.163588
 12
33.383772
 22
79.177268
 13
33.383772
 23
79.177268
  0
SOLID
  8
1
  6
CONTINUOUS
 10
33.393130
 20
79.202980
 11
33.383772
 21
79.177268
 12
33.393130
 22
79.202980
 13
33.393130
 23
79.202980
  0
SOLID
  8
1
  6
CONTINUOUS
 10
30.563130
 20
78.898340
 11
30.553772
 21
78.924052
 12
30.530076
 22
78.937732
 13
30.530076
 23
78.937732
  0
SOLID
  8
1
  6
CONTINUOUS
 10
30.563130
 20
78.898340
 11
30.530076
 21
78.937732
 12
30.503130
 22
78.932981
 13
30.503130
 23
78.932981
  0
SOLID
  8
1
  6
CONTINUOUS
 10
30.563130
 20
78.898340
 11
30.503130
 21
78.932981
 12
30.485542
 22
78.912021
 13
30.485542
 23
78.912021
  0
SOLID
  8
1
  6
CONTINUOUS
 10
30.563130
 20
78.898340
 11
30.485542
 21
78.912021
 12
30.485542
 22
78.884659
 13
30.485542
 23
78.884659
  0
SOLID
  8
1
  6
CONTINUOUS
 10
30.563130
 20
78.898340
 11
30.485542
 21
78.884659
 12
30.503130
 22
78.863699
 13
30.503130
 23
78.863699
  0
SOLID
  8
1
  6
CONTINUOUS
 10
30.563130
 20
78.898340
 11
30.503130
 21
78.863699
 12
30.530076
 22
78.858948
 13
30.530076
 23
78.858948
  0
SOLID
  8
1
  6
CONTINUOUS
 10
30.563130
 20
78.898340
 11
30.530076
 21
78.858948
 12
30.553772
 22
78.872628
 13
30.553772
 23
78.872628
  0
SOLID
  8
1
  6
CONTINUOUS
 10
30.563130
 20
78.898340
 11
30.553772
 21
78.872628
 12
30.563130
 22
78.898340
 13
30.563130
 23
78.898340
  0
SOLID
  8
1
  6
CONTINUOUS
 10
33.393130
 20
78.898340
 11
33.383772
 21
78.924052
 12
33.360076
 22
78.937732
 13
33.360076
 23
78.937732
  0
SOLID
  8
1
  6
CONTINUOUS
 10
33.393130
 20
78.898340
 11
33.360076
 21
78.937732
 12
33.333130
 22
78.932981
 13
33.333130
 23
78.932981
  0
SOLID
  8
1
  6
CONTINUOUS
 10
33.393130
 20
78.898340
 11
33.333130
 21
78.932981
 12
33.315542
 22
78.912021
 13
33.315542
 23
78.912021
  0
SOLID
  8
1
  6
CONTINUOUS
 10
33.393130
 20
78.898340
 11
33.315542
 21
78.912021
 12
33.315542
 22
78.884659
 13
33.315542
 23
78.884659
  0
SOLID
  8
1
  6
CONTINUOUS
 10
33.393130
 20
78.898340
 11
33.315542
 21
78.884659
 12
33.333130
 22
78.863699
 13
33.333130
 23
78.863699
  0
SOLID
  8
1
  6
CONTINUOUS
 10
33.393130
 20
78.898340
 11
33.333130
 21
78.863699
 12
33.360076
 22
78.858948
 13
33.360076
 23
78.858948
  0
SOLID
  8
1
  6
CONTINUOUS
 10
33.393130
 20
78.898340
 11
33.360076
 21
78.858948
 12
33.383772
 22
78.872628
 13
33.383772
 23
78.872628
  0
SOLID
  8
1
  6
CONTINUOUS
 10
33.393130
 20
78.898340
 11
33.383772
 21
78.872628
 12
33.393130
 22
78.898340
 13
33.393130
 23
78.898340
  0
SOLID
  8
1
  6
CONTINUOUS
 10
30.563130
 20
78.593740
 11
30.553772
 21
78.619452
 12
30.530076
 22
78.633132
 13
30.530076
 23
78.633132
  0
SOLID
  8
1
  6
CONTINUOUS
 10
30.563130
 20
78.593740
 11
30.530076
 21
78.633132
 12
30.503130
 22
78.628381
 13
30.503130
 23
78.628381
  0
SOLID
  8
1
  6
CONTINUOUS
 10
30.563130
 20
78.593740
 11
30.503130
 21
78.628381
 12
30.485542
 22
78.607421
 13
30.485542
 23
78.607421
  0
SOLID
  8
1
  6
CONTINUOUS
 10
30.563130
 20
78.593740
 11
30.485542
 21
78.607421
 12
30.485542
 22
78.580059
 13
30.485542
 23
78.580059
  0
SOLID
  8
1
  6
CONTINUOUS
 10
30.563130
 20
78.593740
 11
30.485542
 21
78.580059
 12
30.503130
 22
78.559099
 13
30.503130
 23
78.559099
  0
SOLID
  8
1
  6
CONTINUOUS
 10
30.563130
 20
78.593740
 11
30.503130
 21
78.559099
 12
30.530076
 22
78.554348
 13
30.530076
 23
78.554348
  0
SOLID
  8
1
  6
CONTINUOUS
 10
30.563130
 20
78.593740
 11
30.530076
 21
78.554348
 12
30.553772
 22
78.568028
 13
30.553772
 23
78.568028
  0
SOLID
  8
1
  6
CONTINUOUS
 10
30.563130
 20
78.593740
 11
30.553772
 21
78.568028
 12
30.563130
 22
78.593740
 13
30.563130
 23
78.593740
  0
SOLID
  8
1
  6
CONTINUOUS
 10
33.393130
 20
78.593740
 11
33.383772
 21
78.619452
 12
33.360076
 22
78.633132
 13
33.360076
 23
78.633132
  0
SOLID
  8
1
  6
CONTINUOUS
 10
33.393130
 20
78.593740
 11
33.360076
 21
78.633132
 12
33.333130
 22
78.628381
 13
33.333130
 23
78.628381
  0
SOLID
  8
1
  6
CONTINUOUS
 10
33.393130
 20
78.593740
 11
33.333130
 21
78.628381
 12
33.315542
 22
78.607421
 13
33.315542
 23
78.607421
  0
SOLID
  8
1
  6
CONTINUOUS
 10
33.393130
 20
78.593740
 11
33.315542
 21
78.607421
 12
33.315542
 22
78.580059
 13
33.315542
 23
78.580059
  0
SOLID
  8
1
  6
CONTINUOUS
 10
33.393130
 20
78.593740
 11
33.315542
 21
78.580059
 12
33.333130
 22
78.559099
 13
33.333130
 23
78.559099
  0
SOLID
  8
1
  6
CONTINUOUS
 10
33.393130
 20
78.593740
 11
33.333130
 21
78.559099
 12
33.360076
 22
78.554348
 13
33.360076
 23
78.554348
  0
SOLID
  8
1
  6
CONTINUOUS
 10
33.393130
 20
78.593740
 11
33.360076
 21
78.554348
 12
33.383772
 22
78.568028
 13
33.383772
 23
78.568028
  0
SOLID
  8
1
  6
CONTINUOUS
 10
33.393130
 20
78.593740
 11
33.383772
 21
78.568028
 12
33.393130
 22
78.593740
 13
33.393130
 23
78.593740
  0
SOLID
  8
1
  6
CONTINUOUS
 10
30.563130
 20
78.289100
 11
30.553772
 21
78.314812
 12
30.530076
 22
78.328492
 13
30.530076
 23
78.328492
  0
SOLID
  8
1
  6
CONTINUOUS
 10
30.563130
 20
78.289100
 11
30.530076
 21
78.328492
 12
30.503130
 22
78.323741
 13
30.503130
 23
78.323741
  0
SOLID
  8
1
  6
CONTINUOUS
 10
30.563130
 20
78.289100
 11
30.503130
 21
78.323741
 12
30.485542
 22
78.302781
 13
30.485542
 23
78.302781
  0
SOLID
  8
1
  6
CONTINUOUS
 10
30.563130
 20
78.289100
 11
30.485542
 21
78.302781
 12
30.485542
 22
78.275419
 13
30.485542
 23
78.275419
  0
SOLID
  8
1
  6
CONTINUOUS
 10
30.563130
 20
78.289100
 11
30.485542
 21
78.275419
 12
30.503130
 22
78.254459
 13
30.503130
 23
78.254459
  0
SOLID
  8
1
  6
CONTINUOUS
 10
30.563130
 20
78.289100
 11
30.503130
 21
78.254459
 12
30.530076
 22
78.249708
 13
30.530076
 23
78.249708
  0
SOLID
  8
1
  6
CONTINUOUS
 10
30.563130
 20
78.289100
 11
30.530076
 21
78.249708
 12
30.553772
 22
78.263388
 13
30.553772
 23
78.263388
  0
SOLID
  8
1
  6
CONTINUOUS
 10
30.563130
 20
78.289100
 11
30.553772
 21
78.263388
 12
30.563130
 22
78.289100
 13
30.563130
 23
78.289100
  0
SOLID
  8
1
  6
CONTINUOUS
 10
33.393130
 20
78.289100
 11
33.383772
 21
78.314812
 12
33.360076
 22
78.328492
 13
33.360076
 23
78.328492
  0
SOLID
  8
1
  6
CONTINUOUS
 10
33.393130
 20
78.289100
 11
33.360076
 21
78.328492
 12
33.333130
 22
78.323741
 13
33.333130
 23
78.323741
  0
SOLID
  8
1
  6
CONTINUOUS
 10
33.393130
 20
78.289100
 11
33.333130
 21
78.323741
 12
33.315542
 22
78.302781
 13
33.315542
 23
78.302781
  0
SOLID
  8
1
  6
CONTINUOUS
 10
33.393130
 20
78.289100
 11
33.315542
 21
78.302781
 12
33.315542
 22
78.275419
 13
33.315542
 23
78.275419
  0
SOLID
  8
1
  6
CONTINUOUS
 10
33.393130
 20
78.289100
 11
33.315542
 21
78.275419
 12
33.333130
 22
78.254459
 13
33.333130
 23
78.254459
  0
SOLID
  8
1
  6
CONTINUOUS
 10
33.393130
 20
78.289100
 11
33.333130
 21
78.254459
 12
33.360076
 22
78.249708
 13
33.360076
 23
78.249708
  0
SOLID
  8
1
  6
CONTINUOUS
 10
33.393130
 20
78.289100
 11
33.360076
 21
78.249708
 12
33.383772
 22
78.263388
 13
33.383772
 23
78.263388
  0
SOLID
  8
1
  6
CONTINUOUS
 10
33.393130
 20
78.289100
 11
33.383772
 21
78.263388
 12
33.393130
 22
78.289100
 13
33.393130
 23
78.289100
  0
SOLID
  8
1
  6
CONTINUOUS
 10
30.563130
 20
77.984500
 11
30.553772
 21
78.010212
 12
30.530076
 22
78.023892
 13
30.530076
 23
78.023892
  0
SOLID
  8
1
  6
CONTINUOUS
 10
30.563130
 20
77.984500
 11
30.530076
 21
78.023892
 12
30.503130
 22
78.019141
 13
30.503130
 23
78.019141
  0
SOLID
  8
1
  6
CONTINUOUS
 10
30.563130
 20
77.984500
 11
30.503130
 21
78.019141
 12
30.485542
 22
77.998181
 13
30.485542
 23
77.998181
  0
SOLID
  8
1
  6
CONTINUOUS
 10
30.563130
 20
77.984500
 11
30.485542
 21
77.998181
 12
30.485542
 22
77.970819
 13
30.485542
 23
77.970819
  0
SOLID
  8
1
  6
CONTINUOUS
 10
30.563130
 20
77.984500
 11
30.485542
 21
77.970819
 12
30.503130
 22
77.949859
 13
30.503130
 23
77.949859
  0
SOLID
  8
1
  6
CONTINUOUS
 10
30.563130
 20
77.984500
 11
30.503130
 21
77.949859
 12
30.530076
 22
77.945108
 13
30.530076
 23
77.945108
  0
SOLID
  8
1
  6
CONTINUOUS
 10
30.563130
 20
77.984500
 11
30.530076
 21
77.945108
 12
30.553772
 22
77.958788
 13
30.553772
 23
77.958788
  0
SOLID
  8
1
  6
CONTINUOUS
 10
30.563130
 20
77.984500
 11
30.553772
 21
77.958788
 12
30.563130
 22
77.984500
 13
30.563130
 23
77.984500
  0
SOLID
  8
1
  6
CONTINUOUS
 10
33.393130
 20
77.984500
 11
33.383772
 21
78.010212
 12
33.360076
 22
78.023892
 13
33.360076
 23
78.023892
  0
SOLID
  8
1
  6
CONTINUOUS
 10
33.393130
 20
77.984500
 11
33.360076
 21
78.023892
 12
33.333130
 22
78.019141
 13
33.333130
 23
78.019141
  0
SOLID
  8
1
  6
CONTINUOUS
 10
33.393130
 20
77.984500
 11
33.333130
 21
78.019141
 12
33.315542
 22
77.998181
 13
33.315542
 23
77.998181
  0
SOLID
  8
1
  6
CONTINUOUS
 10
33.393130
 20
77.984500
 11
33.315542
 21
77.998181
 12
33.315542
 22
77.970819
 13
33.315542
 23
77.970819
  0
SOLID
  8
1
  6
CONTINUOUS
 10
33.393130
 20
77.984500
 11
33.315542
 21
77.970819
 12
33.333130
 22
77.949859
 13
33.333130
 23
77.949859
  0
SOLID
  8
1
  6
CONTINUOUS
 10
33.393130
 20
77.984500
 11
33.333130
 21
77.949859
 12
33.360076
 22
77.945108
 13
33.360076
 23
77.945108
  0
SOLID
  8
1
  6
CONTINUOUS
 10
33.393130
 20
77.984500
 11
33.360076
 21
77.945108
 12
33.383772
 22
77.958788
 13
33.383772
 23
77.958788
  0
SOLID
  8
1
  6
CONTINUOUS
 10
33.393130
 20
77.984500
 11
33.383772
 21
77.958788
 12
33.393130
 22
77.984500
 13
33.393130
 23
77.984500
  0
SOLID
  8
1
  6
CONTINUOUS
 10
30.563130
 20
77.679860
 11
30.553772
 21
77.705572
 12
30.530076
 22
77.719252
 13
30.530076
 23
77.719252
  0
SOLID
  8
1
  6
CONTINUOUS
 10
30.563130
 20
77.679860
 11
30.530076
 21
77.719252
 12
30.503130
 22
77.714501
 13
30.503130
 23
77.714501
  0
SOLID
  8
1
  6
CONTINUOUS
 10
30.563130
 20
77.679860
 11
30.503130
 21
77.714501
 12
30.485542
 22
77.693541
 13
30.485542
 23
77.693541
  0
SOLID
  8
1
  6
CONTINUOUS
 10
30.563130
 20
77.679860
 11
30.485542
 21
77.693541
 12
30.485542
 22
77.666179
 13
30.485542
 23
77.666179
  0
SOLID
  8
1
  6
CONTINUOUS
 10
30.563130
 20
77.679860
 11
30.485542
 21
77.666179
 12
30.503130
 22
77.645219
 13
30.503130
 23
77.645219
  0
SOLID
  8
1
  6
CONTINUOUS
 10
30.563130
 20
77.679860
 11
30.503130
 21
77.645219
 12
30.530076
 22
77.640468
 13
30.530076
 23
77.640468
  0
SOLID
  8
1
  6
CONTINUOUS
 10
30.563130
 20
77.679860
 11
30.530076
 21
77.640468
 12
30.553772
 22
77.654148
 13
30.553772
 23
77.654148
  0
SOLID
  8
1
  6
CONTINUOUS
 10
30.563130
 20
77.679860
 11
30.553772
 21
77.654148
 12
30.563130
 22
77.679860
 13
30.563130
 23
77.679860
  0
SOLID
  8
1
  6
CONTINUOUS
 10
33.393130
 20
77.679860
 11
33.383772
 21
77.705572
 12
33.360076
 22
77.719252
 13
33.360076
 23
77.719252
  0
SOLID
  8
1
  6
CONTINUOUS
 10
33.393130
 20
77.679860
 11
33.360076
 21
77.719252
 12
33.333130
 22
77.714501
 13
33.333130
 23
77.714501
  0
SOLID
  8
1
  6
CONTINUOUS
 10
33.393130
 20
77.679860
 11
33.333130
 21
77.714501
 12
33.315542
 22
77.693541
 13
33.315542
 23
77.693541
  0
SOLID
  8
1
  6
CONTINUOUS
 10
33.393130
 20
77.679860
 11
33.315542
 21
77.693541
 12
33.315542
 22
77.666179
 13
33.315542
 23
77.666179
  0
SOLID
  8
1
  6
CONTINUOUS
 10
33.393130
 20
77.679860
 11
33.315542
 21
77.666179
 12
33.333130
 22
77.645219
 13
33.333130
 23
77.645219
  0
SOLID
  8
1
  6
CONTINUOUS
 10
33.393130
 20
77.679860
 11
33.333130
 21
77.645219
 12
33.360076
 22
77.640468
 13
33.360076
 23
77.640468
  0
SOLID
  8
1
  6
CONTINUOUS
 10
33.393130
 20
77.679860
 11
33.360076
 21
77.640468
 12
33.383772
 22
77.654148
 13
33.383772
 23
77.654148
  0
SOLID
  8
1
  6
CONTINUOUS
 10
33.393130
 20
77.679860
 11
33.383772
 21
77.654148
 12
33.393130
 22
77.679860
 13
33.393130
 23
77.679860
  0
SOLID
  8
1
  6
CONTINUOUS
 10
30.563130
 20
77.375260
 11
30.553772
 21
77.400972
 12
30.530076
 22
77.414652
 13
30.530076
 23
77.414652
  0
SOLID
  8
1
  6
CONTINUOUS
 10
30.563130
 20
77.375260
 11
30.530076
 21
77.414652
 12
30.503130
 22
77.409901
 13
30.503130
 23
77.409901
  0
SOLID
  8
1
  6
CONTINUOUS
 10
30.563130
 20
77.375260
 11
30.503130
 21
77.409901
 12
30.485542
 22
77.388941
 13
30.485542
 23
77.388941
  0
SOLID
  8
1
  6
CONTINUOUS
 10
30.563130
 20
77.375260
 11
30.485542
 21
77.388941
 12
30.485542
 22
77.361579
 13
30.485542
 23
77.361579
  0
SOLID
  8
1
  6
CONTINUOUS
 10
30.563130
 20
77.375260
 11
30.485542
 21
77.361579
 12
30.503130
 22
77.340619
 13
30.503130
 23
77.340619
  0
SOLID
  8
1
  6
CONTINUOUS
 10
30.563130
 20
77.375260
 11
30.503130
 21
77.340619
 12
30.530076
 22
77.335868
 13
30.530076
 23
77.335868
  0
SOLID
  8
1
  6
CONTINUOUS
 10
30.563130
 20
77.375260
 11
30.530076
 21
77.335868
 12
30.553772
 22
77.349548
 13
30.553772
 23
77.349548
  0
SOLID
  8
1
  6
CONTINUOUS
 10
30.563130
 20
77.375260
 11
30.553772
 21
77.349548
 12
30.563130
 22
77.375260
 13
30.563130
 23
77.375260
  0
SOLID
  8
1
  6
CONTINUOUS
 10
33.393130
 20
77.375260
 11
33.383772
 21
77.400972
 12
33.360076
 22
77.414652
 13
33.360076
 23
77.414652
  0
SOLID
  8
1
  6
CONTINUOUS
 10
33.393130
 20
77.375260
 11
33.360076
 21
77.414652
 12
33.333130
 22
77.409901
 13
33.333130
 23
77.409901
  0
SOLID
  8
1
  6
CONTINUOUS
 10
33.393130
 20
77.375260
 11
33.333130
 21
77.409901
 12
33.315542
 22
77.388941
 13
33.315542
 23
77.388941
  0
SOLID
  8
1
  6
CONTINUOUS
 10
33.393130
 20
77.375260
 11
33.315542
 21
77.388941
 12
33.315542
 22
77.361579
 13
33.315542
 23
77.361579
  0
SOLID
  8
1
  6
CONTINUOUS
 10
33.393130
 20
77.375260
 11
33.315542
 21
77.361579
 12
33.333130
 22
77.340619
 13
33.333130
 23
77.340619
  0
SOLID
  8
1
  6
CONTINUOUS
 10
33.393130
 20
77.375260
 11
33.333130
 21
77.340619
 12
33.360076
 22
77.335868
 13
33.360076
 23
77.335868
  0
SOLID
  8
1
  6
CONTINUOUS
 10
33.393130
 20
77.375260
 11
33.360076
 21
77.335868
 12
33.383772
 22
77.349548
 13
33.383772
 23
77.349548
  0
SOLID
  8
1
  6
CONTINUOUS
 10
33.393130
 20
77.375260
 11
33.383772
 21
77.349548
 12
33.393130
 22
77.375260
 13
33.393130
 23
77.375260
  0
SOLID
  8
13
  6
CONTINUOUS
 10
102.095046
 20
10.244446
 11
102.095046
 21
9.498246
 12
101.971546
 22
9.498246
 13
101.971546
 23
9.498246
  0
SOLID
  8
13
  6
CONTINUOUS
 10
102.095046
 20
10.244446
 11
101.971546
 21
9.498246
 12
101.971546
 22
11.162246
 13
101.971546
 23
11.162246
  0
SOLID
  8
13
  6
CONTINUOUS
 10
102.095046
 20
10.244446
 11
101.971546
 21
11.162246
 12
102.095046
 22
11.162246
 13
102.095046
 23
11.162246
  0
SOLID
  8
13
  6
CONTINUOUS
 10
102.095046
 20
10.244446
 11
102.095046
 21
11.162246
 12
102.095046
 22
10.244446
 13
102.095046
 23
10.244446
  0
SOLID
  8
13
  6
CONTINUOUS
 10
102.522746
 20
10.230979
 11
102.522746
 21
9.498246
 12
102.095046
 22
9.498246
 13
102.095046
 23
9.498246
  0
SOLID
  8
13
  6
CONTINUOUS
 10
102.522746
 20
10.230979
 11
102.095046
 21
9.498246
 12
102.095046
 22
10.244446
 13
102.095046
 23
10.244446
  0
SOLID
  8
13
  6
CONTINUOUS
 10
102.522746
 20
10.230979
 11
102.095046
 21
10.244446
 12
102.143544
 22
10.248642
 13
102.143544
 23
10.248642
  0
SOLID
  8
13
  6
CONTINUOUS
 10
102.522746
 20
10.230979
 11
102.143544
 21
10.248642
 12
102.211078
 22
10.252071
 13
102.211078
 23
10.252071
  0
SOLID
  8
13
  6
CONTINUOUS
 10
102.522746
 20
10.230979
 11
102.211078
 21
10.252071
 12
102.259959
 22
10.252484
 13
102.259959
 23
10.252484
  0
SOLID
  8
13
  6
CONTINUOUS
 10
102.522746
 20
10.230979
 11
102.259959
 21
10.252484
 12
102.290321
 22
10.252141
 13
102.290321
 23
10.252141
  0
SOLID
  8
13
  6
CONTINUOUS
 10
102.522746
 20
10.230979
 11
102.290321
 21
10.252141
 12
102.334203
 22
10.250668
 13
102.334203
 23
10.250668
  0
SOLID
  8
13
  6
CONTINUOUS
 10
102.522746
 20
10.230979
 11
102.334203
 21
10.250668
 12
102.394518
 22
10.246747
 13
102.394518
 23
10.246747
  0
SOLID
  8
13
  6
CONTINUOUS
 10
102.522746
 20
10.230979
 11
102.394518
 21
10.246747
 12
102.446340
 22
10.241621
 13
102.446340
 23
10.241621
  0
SOLID
  8
13
  6
CONTINUOUS
 10
102.522746
 20
10.230979
 11
102.446340
 21
10.241621
 12
102.490083
 22
10.235974
 13
102.490083
 23
10.235974
  0
SOLID
  8
13
  6
CONTINUOUS
 10
102.522746
 20
10.230979
 11
102.490083
 21
10.235974
 12
102.522746
 22
10.230979
 13
102.522746
 23
10.230979
  0
SOLID
  8
13
  6
CONTINUOUS
 10
102.594246
 20
10.217654
 11
102.594246
 21
9.498246
 12
103.021946
 22
9.498246
 13
103.021946
 23
9.498246
  0
SOLID
  8
13
  6
CONTINUOUS
 10
102.594246
 20
10.217654
 11
103.021946
 21
9.498246
 12
103.021946
 22
10.064184
 13
103.021946
 23
10.064184
  0
SOLID
  8
13
  6
CONTINUOUS
 10
102.594246
 20
10.217654
 11
103.021946
 21
10.064184
 12
103.003898
 22
10.073542
 13
103.003898
 23
10.073542
  0
SOLID
  8
13
  6
CONTINUOUS
 10
102.594246
 20
10.217654
 11
103.003898
 21
10.073542
 12
102.981716
 22
10.084501
 13
102.981716
 23
10.084501
  0
SOLID
  8
13
  6
CONTINUOUS
 10
102.594246
 20
10.217654
 11
102.981716
 21
10.084501
 12
102.953307
 22
10.098271
 13
102.953307
 23
10.098271
  0
SOLID
  8
13
  6
CONTINUOUS
 10
102.594246
 20
10.217654
 11
102.953307
 21
10.098271
 12
102.912865
 22
10.116383
 13
102.912865
 23
10.116383
  0
SOLID
  8
13
  6
CONTINUOUS
 10
102.594246
 20
10.217654
 11
102.912865
 21
10.116383
 12
102.885024
 22
10.128001
 13
102.885024
 23
10.128001
  0
SOLID
  8
13
  6
CONTINUOUS
 10
102.594246
 20
10.217654
 11
102.885024
 21
10.128001
 12
102.844071
 22
10.144755
 13
102.844071
 23
10.144755
  0
SOLID
  8
13
  6
CONTINUOUS
 10
102.594246
 20
10.217654
 11
102.844071
 21
10.144755
 12
102.813490
 22
10.155923
 13
102.813490
 23
10.155923
  0
SOLID
  8
13
  6
CONTINUOUS
 10
102.594246
 20
10.217654
 11
102.813490
 21
10.155923
 12
102.778388
 22
10.168156
 13
102.778388
 23
10.168156
  0
SOLID
  8
13
  6
CONTINUOUS
 10
102.594246
 20
10.217654
 11
102.778388
 21
10.168156
 12
102.744083
 22
10.178793
 13
102.744083
 23
10.178793
  0
SOLID
  8
13
  6
CONTINUOUS
 10
102.594246
 20
10.217654
 11
102.744083
 21
10.178793
 12
102.703465
 22
10.191172
 13
102.703465
 23
10.191172
  0
SOLID
  8
13
  6
CONTINUOUS
 10
102.594246
 20
10.217654
 11
102.703465
 21
10.191172
 12
102.665141
 22
10.201162
 13
102.665141
 23
10.201162
  0
SOLID
  8
13
  6
CONTINUOUS
 10
102.594246
 20
10.217654
 11
102.665141
 21
10.201162
 12
102.624819
 22
10.210970
 13
102.624819
 23
10.210970
  0
SOLID
  8
13
  6
CONTINUOUS
 10
102.594246
 20
10.217654
 11
102.624819
 21
10.210970
 12
102.594246
 22
10.217654
 13
102.594246
 23
10.217654
  0
SOLID
  8
13
  6
CONTINUOUS
 10
103.093446
 20
10.024343
 11
103.093446
 21
9.498246
 12
103.521146
 22
9.498246
 13
103.521146
 23
9.498246
  0
SOLID
  8
13
  6
CONTINUOUS
 10
103.093446
 20
10.024343
 11
103.521146
 21
9.498246
 12
103.521146
 22
9.661030
 13
103.521146
 23
9.661030
  0
SOLID
  8
13
  6
CONTINUOUS
 10
103.093446
 20
10.024343
 11
103.521146
 21
9.661030
 12
103.507797
 22
9.676793
 13
103.507797
 23
9.676793
  0
SOLID
  8
13
  6
CONTINUOUS
 10
103.093446
 20
10.024343
 11
103.507797
 21
9.676793
 12
103.495964
 22
9.690528
 13
103.495964
 23
9.690528
  0
SOLID
  8
13
  6
CONTINUOUS
 10
103.093446
 20
10.024343
 11
103.495964
 21
9.690528
 12
103.473877
 22
9.715277
 13
103.473877
 23
9.715277
  0
SOLID
  8
13
  6
CONTINUOUS
 10
103.093446
 20
10.024343
 11
103.473877
 21
9.715277
 12
103.454164
 22
9.736530
 13
103.454164
 23
9.736530
  0
SOLID
  8
13
  6
CONTINUOUS
 10
103.093446
 20
10.024343
 11
103.454164
 21
9.736530
 12
103.434048
 22
9.757502
 13
103.434048
 23
9.757502
  0
SOLID
  8
13
  6
CONTINUOUS
 10
103.093446
 20
10.024343
 11
103.434048
 21
9.757502
 12
103.410015
 22
9.781535
 13
103.410015
 23
9.781535
  0
SOLID
  8
13
  6
CONTINUOUS
 10
103.093446
 20
10.024343
 11
103.410015
 21
9.781535
 12
103.399294
 22
9.791943
 13
103.399294
 23
9.791943
  0
SOLID
  8
13
  6
CONTINUOUS
 10
103.093446
 20
10.024343
 11
103.399294
 21
9.791943
 12
103.388429
 22
9.802406
 13
103.388429
 23
9.802406
  0
SOLID
  8
13
  6
CONTINUOUS
 10
103.093446
 20
10.024343
 11
103.388429
 21
9.802406
 12
103.359952
 22
9.828752
 13
103.359952
 23
9.828752
  0
SOLID
  8
13
  6
CONTINUOUS
 10
103.093446
 20
10.024343
 11
103.359952
 21
9.828752
 12
103.325139
 22
9.859181
 13
103.325139
 23
9.859181
  0
SOLID
  8
13
  6
CONTINUOUS
 10
103.093446
 20
10.024343
 11
103.325139
 21
9.859181
 12
103.286846
 22
9.890826
 13
103.286846
 23
9.890826
  0
SOLID
  8
13
  6
CONTINUOUS
 10
103.093446
 20
10.024343
 11
103.286846
 21
9.890826
 12
103.251036
 22
9.918745
 13
103.251036
 23
9.918745
  0
SOLID
  8
13
  6
CONTINUOUS
 10
103.093446
 20
10.024343
 11
103.251036
 21
9.918745
 12
103.200839
 22
9.955427
 13
103.200839
 23
9.955427
  0
SOLID
  8
13
  6
CONTINUOUS
 10
103.093446
 20
10.024343
 11
103.200839
 21
9.955427
 12
103.134352
 22
9.999676
 13
103.134352
 23
9.999676
  0
SOLID
  8
13
  6
CONTINUOUS
 10
103.093446
 20
10.024343
 11
103.134352
 21
9.999676
 12
103.093446
 22
10.024343
 13
103.093446
 23
10.024343
  0
SOLID
  8
13
  6
CONTINUOUS
 10
102.522746
 20
10.635283
 11
102.522746
 21
11.162246
 12
102.095046
 22
11.162246
 13
102.095046
 23
11.162246
  0
SOLID
  8
13
  6
CONTINUOUS
 10
102.522746
 20
10.635283
 11
102.095046
 21
11.162246
 12
102.095046
 22
10.995122
 13
102.095046
 23
10.995122
  0
SOLID
  8
13
  6
CONTINUOUS
 10
102.522746
 20
10.635283
 11
102.095046
 21
10.995122
 12
102.153689
 22
10.929235
 13
102.153689
 23
10.929235
  0
SOLID
  8
13
  6
CONTINUOUS
 10
102.522746
 20
10.635283
 11
102.153689
 21
10.929235
 12
102.237359
 22
10.846559
 13
102.237359
 23
10.846559
  0
SOLID
  8
13
  6
CONTINUOUS
 10
102.522746
 20
10.635283
 11
102.237359
 21
10.846559
 12
102.308389
 22
10.784730
 13
102.308389
 23
10.784730
  0
SOLID
  8
13
  6
CONTINUOUS
 10
102.522746
 20
10.635283
 11
102.308389
 21
10.784730
 12
102.366624
 22
10.739274
 13
102.366624
 23
10.739274
  0
SOLID
  8
13
  6
CONTINUOUS
 10
102.522746
 20
10.635283
 11
102.366624
 21
10.739274
 12
102.406322
 22
10.710064
 13
102.406322
 23
10.710064
  0
SOLID
  8
13
  6
CONTINUOUS
 10
102.522746
 20
10.635283
 11
102.406322
 21
10.710064
 12
102.455827
 22
10.676682
 13
102.455827
 23
10.676682
  0
SOLID
  8
13
  6
CONTINUOUS
 10
102.522746
 20
10.635283
 11
102.455827
 21
10.676682
 12
102.493954
 22
10.652515
 13
102.493954
 23
10.652515
  0
SOLID
  8
13
  6
CONTINUOUS
 10
102.522746
 20
10.635283
 11
102.493954
 21
10.652515
 12
102.522746
 22
10.635283
 13
102.522746
 23
10.635283
  0
SOLID
  8
13
  6
CONTINUOUS
 10
103.021946
 20
10.443678
 11
103.021946
 21
11.162246
 12
102.594246
 22
11.162246
 13
102.594246
 23
11.162246
  0
SOLID
  8
13
  6
CONTINUOUS
 10
103.021946
 20
10.443678
 11
102.594246
 21
11.162246
 12
102.594246
 22
10.595859
 13
102.594246
 23
10.595859
  0
SOLID
  8
13
  6
CONTINUOUS
 10
103.021946
 20
10.443678
 11
102.594246
 21
10.595859
 12
102.663800
 22
10.561766
 13
102.663800
 23
10.561766
  0
SOLID
  8
13
  6
CONTINUOUS
 10
103.021946
 20
10.443678
 11
102.663800
 21
10.561766
 12
102.744359
 22
10.527375
 13
102.744359
 23
10.527375
  0
SOLID
  8
13
  6
CONTINUOUS
 10
103.021946
 20
10.443678
 11
102.744359
 21
10.527375
 12
102.812197
 22
10.501464
 13
102.812197
 23
10.501464
  0
SOLID
  8
13
  6
CONTINUOUS
 10
103.021946
 20
10.443678
 11
102.812197
 21
10.501464
 12
102.889458
 22
10.476967
 13
102.889458
 23
10.476967
  0
SOLID
  8
13
  6
CONTINUOUS
 10
103.021946
 20
10.443678
 11
102.889458
 21
10.476967
 12
102.950702
 22
10.460007
 13
102.950702
 23
10.460007
  0
SOLID
  8
13
  6
CONTINUOUS
 10
103.021946
 20
10.443678
 11
102.950702
 21
10.460007
 12
103.021946
 22
10.443678
 13
103.021946
 23
10.443678
  0
SOLID
  8
13
  6
CONTINUOUS
 10
103.093446
 20
10.430307
 11
103.093446
 21
11.162246
 12
103.521146
 22
11.162246
 13
103.521146
 23
11.162246
  0
SOLID
  8
13
  6
CONTINUOUS
 10
103.093446
 20
10.430307
 11
103.521146
 21
11.162246
 12
103.521146
 22
10.417580
 13
103.521146
 23
10.417580
  0
SOLID
  8
13
  6
CONTINUOUS
 10
103.093446
 20
10.430307
 11
103.521146
 21
10.417580
 12
103.476372
 22
10.413637
 13
103.476372
 23
10.413637
  0
SOLID
  8
13
  6
CONTINUOUS
 10
103.093446
 20
10.430307
 11
103.476372
 21
10.413637
 12
103.416577
 22
10.410480
 13
103.416577
 23
10.410480
  0
SOLID
  8
13
  6
CONTINUOUS
 10
103.093446
 20
10.430307
 11
103.416577
 21
10.410480
 12
103.366788
 22
10.409453
 13
103.366788
 23
10.409453
  0
SOLID
  8
13
  6
CONTINUOUS
 10
103.093446
 20
10.430307
 11
103.366788
 21
10.409453
 12
103.336830
 22
10.409453
 13
103.336830
 23
10.409453
  0
SOLID
  8
13
  6
CONTINUOUS
 10
103.093446
 20
10.430307
 11
103.336830
 21
10.409453
 12
103.286182
 22
10.410821
 13
103.286182
 23
10.410821
  0
SOLID
  8
13
  6
CONTINUOUS
 10
103.093446
 20
10.430307
 11
103.286182
 21
10.410821
 12
103.241261
 22
10.413321
 13
103.241261
 23
10.413321
  0
SOLID
  8
13
  6
CONTINUOUS
 10
103.093446
 20
10.430307
 11
103.241261
 21
10.413321
 12
103.205545
 22
10.416539
 13
103.205545
 23
10.416539
  0
SOLID
  8
13
  6
CONTINUOUS
 10
103.093446
 20
10.430307
 11
103.205545
 21
10.416539
 12
103.155349
 22
10.421044
 13
103.155349
 23
10.421044
  0
SOLID
  8
13
  6
CONTINUOUS
 10
103.093446
 20
10.430307
 11
103.155349
 21
10.421044
 12
103.093446
 22
10.430307
 13
103.093446
 23
10.430307
  0
SOLID
  8
13
  6
CONTINUOUS
 10
102.594246
 20
9.498246
 11
102.594246
 21
11.162246
 12
102.522746
 22
11.162246
 13
102.522746
 23
11.162246
  0
SOLID
  8
13
  6
CONTINUOUS
 10
102.594246
 20
9.498246
 11
102.522746
 21
11.162246
 12
102.522746
 22
9.498246
 13
102.522746
 23
9.498246
  0
SOLID
  8
13
  6
CONTINUOUS
 10
102.594246
 20
9.498246
 11
102.522746
 21
9.498246
 12
102.522746
 22
9.498246
 13
102.522746
 23
9.498246
  0
SOLID
  8
13
  6
CONTINUOUS
 10
103.021946
 20
11.162246
 11
103.093446
 21
11.162246
 12
103.093446
 22
9.498246
 13
103.093446
 23
9.498246
  0
SOLID
  8
13
  6
CONTINUOUS
 10
103.021946
 20
11.162246
 11
103.093446
 21
9.498246
 12
103.021946
 22
9.498246
 13
103.021946
 23
9.498246
  0
SOLID
  8
13
  6
CONTINUOUS
 10
103.021946
 20
11.162246
 11
103.021946
 21
9.498246
 12
103.021946
 22
11.162246
 13
103.021946
 23
11.162246
  0
SOLID
  8
13
  6
CONTINUOUS
 10
103.521146
 20
9.498246
 11
103.635546
 21
9.498246
 12
103.635546
 22
11.162246
 13
103.635546
 23
11.162246
  0
SOLID
  8
13
  6
CONTINUOUS
 10
103.521146
 20
9.498246
 11
103.635546
 21
11.162246
 12
103.521146
 22
11.162246
 13
103.521146
 23
11.162246
  0
SOLID
  8
13
  6
CONTINUOUS
 10
103.521146
 20
9.498246
 11
103.521146
 21
11.162246
 12
103.521146
 22
9.498246
 13
103.521146
 23
9.498246
  0
LINE
  8
18
  6
CONTINUOUS
 10
6.357030
 20
67.841420
 11
27.657030
 21
67.841420
  0
ARC
  8
18
  6
CONTINUOUS
 10
27.657030
 20
68.041420
 40
0.200000
 50
270.000000
 51
0.000000
  0
LINE
  8
18
  6
CONTINUOUS
 10
27.857030
 20
68.041420
 11
27.857030
 21
68.441420
  0
LINE
  8
17
  6
CONTINUOUS
 10
6.357030
 20
73.271420
 11
27.657030
 21
73.271420
  0
ARC
  8
17
  6
CONTINUOUS
 10
27.657030
 20
73.471420
 40
0.200000
 50
270.000000
 51
0.000000
  0
LINE
  8
17
  6
CONTINUOUS
 10
27.857030
 20
73.471420
 11
27.857030
 21
73.871420
  0
LINE
  8
18
  6
CONTINUOUS
 10
10.557030
 20
69.041420
 11
27.657030
 21
69.041420
  0
ARC
  8
18
  6
CONTINUOUS
 10
27.657030
 20
69.241420
 40
0.200000
 50
270.000000
 51
0.000000
  0
LINE
  8
18
  6
CONTINUOUS
 10
27.857030
 20
69.241420
 11
27.857030
 21
69.641420
  0
LINE
  8
17
  6
CONTINUOUS
 10
10.557030
 20
73.271420
 11
27.657030
 21
73.271420
  0
ARC
  8
17
  6
CONTINUOUS
 10
27.657030
 20
73.471420
 40
0.200000
 50
270.000000
 51
0.000000
  0
LINE
  8
17
  6
CONTINUOUS
 10
27.857030
 20
73.471420
 11
27.857030
 21
73.871420
  0
LINE
  8
18
  6
CONTINUOUS
 10
6.237030
 20
79.941420
 11
27.837030
 21
79.941420
  0
LINE
  8
17
  6
CONTINUOUS
 10
6.237030
 20
74.711420
 11
27.837030
 21
74.711420
  0
LINE
  8
18
  6
CONTINUOUS
 10
6.237030
 20
78.741420
 11
19.737030
 21
78.741420
  0
LINE
  8
17
  6
CONTINUOUS
 10
6.237030
 20
74.711420
 11
19.737030
 21
74.711420
  0
LINE
  8
1
  6
CONTINUOUS
 10
8.087030
 20
79.071420
 11
6.087030
 21
79.071420
  0
LINE
  8
2
  6
CONTINUOUS
 10
7.937030
 20
78.831420
 11
7.937030
 21
79.221420
  0
LINE
  8
2
  6
CONTINUOUS
 10
6.237030
 20
78.831420
 11
6.237030
 21
79.221420
  0
LINE
  8
1
  6
CONTINUOUS
 10
8.007741
 20
79.142131
 11
7.866319
 21
79.000709
  0
LINE
  8
1
  6
CONTINUOUS
 10
6.307741
 20
79.142131
 11
6.166319
 21
79.000709
  0
LINE
  8
2
  6
CONTINUOUS
 10
7.937030
 20
78.731420
 11
7.937030
 21
78.731420
  0
LINE
  8
2
  6
CONTINUOUS
 10
6.237030
 20
78.731420
 11
6.237030
 21
78.731420
  0
LINE
  8
18
  6
CONTINUOUS
 10
23.137910
 20
78.741420
 11
27.477910
 21
78.741420
  0
ARC
  8
18
  6
CONTINUOUS
 10
27.477910
 20
78.401420
 40
0.340000
 50
0.000000
 51
90.000000
  0
LINE
  8
18
  6
CONTINUOUS
 10
27.817910
 20
78.401420
 11
27.817910
 21
77.521420
  0
LINE
  8
17
  6
CONTINUOUS
 10
23.137910
 20
74.711420
 11
27.477910
 21
74.711420
  0
ARC
  8
17
  6
CONTINUOUS
 10
27.477910
 20
74.371420
 40
0.340000
 50
0.000000
 51
90.000000
  0
LINE
  8
17
  6
CONTINUOUS
 10
27.817910
 20
74.371420
 11
27.817910
 21
73.491420
  0
LINE
  8
1
  6
CONTINUOUS
 10
27.185930
 20
79.071420
 11
27.967910
 21
79.071420
  0
LINE
  8
2
  6
CONTINUOUS
 10
27.335930
 20
78.831420
 11
27.335930
 21
79.221420
  0
LINE
  8
2
  6
CONTINUOUS
 10
27.817910
 20
78.831420
 11
27.817910
 21
79.221420
  0
LINE
  8
1
  6
CONTINUOUS
 10
27.265219
 20
79.000709
 11
27.406641
 21
79.142131
  0
LINE
  8
1
  6
CONTINUOUS
 10
27.747199
 20
79.000709
 11
27.888621
 21
79.142131
  0
LINE
  8
2
  6
CONTINUOUS
 10
27.335930
 20
78.731420
 11
27.335930
 21
78.731420
  0
LINE
  8
2
  6
CONTINUOUS
 10
27.817910
 20
78.731420
 11
27.817910
 21
78.731420
  0
LINE
  8
18
  6
ESTILO_TQS_0001
 10
7.457030
 20
71.241420
 11
27.816330
 21
71.241420
  0
LINE
  8
18
  6
CONTINUOUS
 10
7.457030
 20
70.641420
 11
27.816330
 21
70.641420
  0
LINE
  8
17
  6
CONTINUOUS
 10
7.457030
 20
74.524500
 11
27.816330
 21
74.524500
  0
LINE
  8
17
  6
CONTINUOUS
 10
7.457030
 20
74.372200
 11
27.816330
 21
74.372200
  0
LINE
  8
17
  6
CONTINUOUS
 10
7.457030
 20
74.219880
 11
27.816330
 21
74.219880
  0
LINE
  8
17
  6
CONTINUOUS
 10
7.457030
 20
74.067580
 11
27.816330
 21
74.067580
  0
LINE
  8
17
  6
CONTINUOUS
 10
7.457030
 20
73.915260
 11
27.816330
 21
73.915260
  0
LINE
  8
17
  6
CONTINUOUS
 10
7.457030
 20
73.762960
 11
27.816330
 21
73.762960
  0
LINE
  8
17
  6
CONTINUOUS
 10
7.457030
 20
73.610640
 11
27.816330
 21
73.610640
  0
LINE
  8
17
  6
CONTINUOUS
 10
7.457030
 20
73.458340
 11
27.816330
 21
73.458340
  0
LINE
  8
1
  6
CONTINUOUS
 10
27.966330
 20
71.621420
 11
27.185930
 21
71.621420
  0
LINE
  8
2
  6
CONTINUOUS
 10
27.816330
 20
71.341420
 11
27.816330
 21
71.771420
  0
LINE
  8
2
  6
CONTINUOUS
 10
27.335930
 20
71.341420
 11
27.335930
 21
71.771420
  0
LINE
  8
1
  6
CONTINUOUS
 10
27.887041
 20
71.692131
 11
27.745619
 21
71.550709
  0
LINE
  8
1
  6
CONTINUOUS
 10
27.406641
 20
71.692131
 11
27.265219
 21
71.550709
  0
LINE
  8
2
  6
CONTINUOUS
 10
27.816330
 20
71.241420
 11
27.816330
 21
71.241420
  0
LINE
  8
2
  6
CONTINUOUS
 10
27.335930
 20
71.241420
 11
27.335930
 21
71.241420
  0
LINE
  8
1
  6
ESTILO_TQS_0003
 10
7.937030
 20
67.341420
 11
7.937030
 21
72.291420
  0
LINE
  8
1
  6
ESTILO_TQS_0003
 10
7.937030
 20
76.491420
 11
7.937030
 21
80.941420
  0
LINE
  8
1
  6
ESTILO_TQS_0003
 10
27.335930
 20
67.341420
 11
27.335930
 21
72.291420
  0
LINE
  8
1
  6
ESTILO_TQS_0003
 10
27.335930
 20
76.491420
 11
27.335930
 21
77.889420
  0
LINE
  8
1
  6
ESTILO_TQS_0003
 10
27.335930
 20
78.693420
 11
27.335930
 21
80.941420
  0
LINE
  8
3
  6
CONTINUOUS
 10
7.937030
 20
74.791420
 11
27.335930
 21
74.791420
  0
LINE
  8
3
  6
CONTINUOUS
 10
7.937030
 20
73.191420
 11
27.335930
 21
73.191420
  0
POLYLINE
  8
2
  6
CONTINUOUS
 66
     1
  0
VERTEX
  8
2
  6
CONTINUOUS
 10
26.060930
 20
74.791420
  0
VERTEX
  8
2
  6
CONTINUOUS
 10
25.931930
 20
75.049420
  0
VERTEX
  8
2
  6
CONTINUOUS
 10
26.189930
 20
75.049420
  0
VERTEX
  8
2
  6
CONTINUOUS
 10
26.060930
 20
74.791420
  0
SEQEND
  8
2
  6
CONTINUOUS
  0
LINE
  8
2
  6
CONTINUOUS
 10
25.415930
 20
75.049420
 11
26.189930
 21
75.049420
  0
POLYLINE
  8
3
  6
CONTINUOUS
 66
     1
  0
VERTEX
  8
3
  6
CONTINUOUS
 10
14.257030
 20
74.791420
  0
VERTEX
  8
3
  6
CONTINUOUS
 10
14.257030
 20
73.191420
  0
VERTEX
  8
3
  6
CONTINUOUS
 10
16.257030
 20
73.191420
  0
VERTEX
  8
3
  6
CONTINUOUS
 10
16.257030
 20
74.791420
  0
VERTEX
  8
3
  6
CONTINUOUS
 10
14.257030
 20
74.791420
  0
SEQEND
  8
3
  6
CONTINUOUS
  0
LINE
  8
3
  6
CONTINUOUS
 10
5.537030
 20
74.791420
 11
5.537030
 21
73.191420
  0
LINE
  8
3
  6
CONTINUOUS
 10
5.537030
 20
74.791420
 11
5.537030
 21
73.191420
  0
LINE
  8
3
  6
CONTINUOUS
 10
5.537030
 20
74.791420
 11
5.537030
 21
73.191420
  0
LINE
  8
3
  6
CONTINUOUS
 10
5.537030
 20
74.791420
 11
7.937030
 21
74.791420
  0
LINE
  8
3
  6
CONTINUOUS
 10
5.537030
 20
73.191420
 11
7.937030
 21
73.191420
  0
LINE
  8
3
  6
CONTINUOUS
 10
5.537030
 20
74.791420
 11
7.937030
 21
74.791420
  0
LINE
  8
3
  6
CONTINUOUS
 10
5.537030
 20
73.191420
 11
7.937030
 21
73.191420
  0
LINE
  8
3
  6
CONTINUOUS
 10
7.937030
 20
74.791420
 11
7.937030
 21
73.191420
  0
LINE
  8
3
  6
CONTINUOUS
 10
7.937030
 20
74.791420
 11
7.937030
 21
73.191420
  0
LINE
  8
3
  6
CONTINUOUS
 10
27.335930
 20
74.791420
 11
27.335930
 21
73.191420
  0
LINE
  8
3
  6
CONTINUOUS
 10
27.335930
 20
76.691420
 11
27.335930
 21
73.191420
  0
LINE
  8
3
  6
CONTINUOUS
 10
27.335930
 20
74.791420
 11
27.335930
 21
73.191420
  0
LINE
  8
3
  6
CONTINUOUS
 10
27.335930
 20
74.791420
 11
27.938130
 21
74.791420
  0
LINE
  8
3
  6
CONTINUOUS
 10
27.335930
 20
73.191420
 11
27.938130
 21
73.191420
  0
LINE
  8
3
  6
CONTINUOUS
 10
27.335930
 20
76.691420
 11
27.938130
 21
76.691420
  0
LINE
  8
3
  6
CONTINUOUS
 10
27.335930
 20
73.191420
 11
27.938130
 21
73.191420
  0
LINE
  8
3
  6
CONTINUOUS
 10
27.938130
 20
74.791420
 11
27.938130
 21
73.191420
  0
LINE
  8
3
  6
CONTINUOUS
 10
27.938130
 20
76.691420
 11
27.938130
 21
73.191420
  0
LINE
  8
18
  6
CONTINUOUS
 10
30.618130
 20
75.701420
 11
30.478130
 21
75.701420
  0
LINE
  8
18
  6
CONTINUOUS
 10
30.478130
 20
75.701420
 11
30.478130
 21
72.781420
  0
LINE
  8
18
  6
CONTINUOUS
 10
30.478130
 20
72.781420
 11
32.424797
 21
72.781420
  0
LINE
  8
18
  6
CONTINUOUS
 10
32.424797
 20
72.781420
 11
32.424797
 21
75.701420
  0
LINE
  8
18
  6
CONTINUOUS
 10
32.424797
 20
75.701420
 11
30.483171
 21
75.841420
  0
LINE
  8
18
  6
CONTINUOUS
 10
30.483171
 20
75.841420
 11
30.473102
 21
75.701783
  0
LINE
  8
2
  6
CONTINUOUS
 10
7.937030
 20
75.641420
 11
27.337030
 21
75.641420
  0
LINE
  8
1
  6
CONTINUOUS
 10
7.937030
 20
75.321420
 11
7.937030
 21
75.791420
  0
LINE
  8
1
  6
CONTINUOUS
 10
27.337030
 20
75.321420
 11
27.337030
 21
75.791420
  0
LINE
  8
1
  6
CONTINUOUS
 10
7.937030
 20
75.641420
 11
8.135319
 21
75.667525
  0
LINE
  8
1
  6
CONTINUOUS
 10
7.937030
 20
75.641420
 11
8.135319
 21
75.615315
  0
LINE
  8
1
  6
CONTINUOUS
 10
27.337030
 20
75.641420
 11
27.138741
 21
75.615315
  0
LINE
  8
1
  6
CONTINUOUS
 10
27.337030
 20
75.641420
 11
27.138741
 21
75.667525
  0
LINE
  8
2
  6
CONTINUOUS
 10
7.937030
 20
75.121420
 11
7.937030
 21
75.121420
  0
LINE
  8
2
  6
CONTINUOUS
 10
27.337030
 20
75.121420
 11
27.337030
 21
75.121420
  0
LINE
  8
18
  6
CONTINUOUS
 10
31.591463
 20
75.101420
 11
31.451463
 21
75.101420
  0
LINE
  8
18
  6
CONTINUOUS
 10
31.451463
 20
75.101420
 11
31.451463
 21
72.181420
  0
LINE
  8
18
  6
CONTINUOUS
 10
31.451463
 20
72.181420
 11
33.398130
 21
72.181420
  0
LINE
  8
18
  6
CONTINUOUS
 10
33.398130
 20
72.181420
 11
33.398130
 21
75.101420
  0
LINE
  8
18
  6
CONTINUOUS
 10
33.398130
 20
75.101420
 11
31.456504
 21
75.241420
  0
LINE
  8
18
  6
CONTINUOUS
 10
31.456504
 20
75.241420
 11
31.446436
 21
75.101783
  0
LINE
  8
17
  6
CONTINUOUS
 10
8.110244
 20
73.261420
 11
8.110244
 21
74.721420
  0
LINE
  8
17
  6
CONTINUOUS
 10
8.456673
 20
73.261420
 11
8.456673
 21
74.721420
  0
LINE
  8
17
  6
CONTINUOUS
 10
8.803101
 20
73.261420
 11
8.803101
 21
74.721420
  0
LINE
  8
17
  6
CONTINUOUS
 10
9.149530
 20
73.261420
 11
9.149530
 21
74.721420
  0
LINE
  8
17
  6
CONTINUOUS
 10
9.495959
 20
73.261420
 11
9.495959
 21
74.721420
  0
LINE
  8
17
  6
CONTINUOUS
 10
9.842387
 20
73.261420
 11
9.842387
 21
74.721420
  0
LINE
  8
17
  6
CONTINUOUS
 10
10.188816
 20
73.261420
 11
10.188816
 21
74.721420
  0
LINE
  8
17
  6
CONTINUOUS
 10
10.535244
 20
73.261420
 11
10.535244
 21
74.721420
  0
LINE
  8
17
  6
CONTINUOUS
 10
10.881673
 20
73.261420
 11
10.881673
 21
74.721420
  0
LINE
  8
17
  6
CONTINUOUS
 10
11.228101
 20
73.261420
 11
11.228101
 21
74.721420
  0
LINE
  8
17
  6
CONTINUOUS
 10
11.574530
 20
73.261420
 11
11.574530
 21
74.721420
  0
LINE
  8
17
  6
CONTINUOUS
 10
11.920959
 20
73.261420
 11
11.920959
 21
74.721420
  0
LINE
  8
17
  6
CONTINUOUS
 10
12.267387
 20
73.261420
 11
12.267387
 21
74.721420
  0
LINE
  8
17
  6
CONTINUOUS
 10
12.613816
 20
73.261420
 11
12.613816
 21
74.721420
  0
LINE
  8
17
  6
CONTINUOUS
 10
12.960244
 20
73.261420
 11
12.960244
 21
74.721420
  0
LINE
  8
17
  6
CONTINUOUS
 10
13.306673
 20
73.261420
 11
13.306673
 21
74.721420
  0
LINE
  8
17
  6
CONTINUOUS
 10
13.653101
 20
73.261420
 11
13.653101
 21
74.721420
  0
LINE
  8
17
  6
CONTINUOUS
 10
13.999530
 20
73.261420
 11
13.999530
 21
74.721420
  0
LINE
  8
17
  6
CONTINUOUS
 10
14.345959
 20
73.261420
 11
14.345959
 21
74.721420
  0
LINE
  8
17
  6
CONTINUOUS
 10
14.692387
 20
73.261420
 11
14.692387
 21
74.721420
  0
LINE
  8
17
  6
CONTINUOUS
 10
15.038816
 20
73.261420
 11
15.038816
 21
74.721420
  0
LINE
  8
17
  6
CONTINUOUS
 10
15.385244
 20
73.261420
 11
15.385244
 21
74.721420
  0
LINE
  8
17
  6
CONTINUOUS
 10
15.731673
 20
73.261420
 11
15.731673
 21
74.721420
  0
LINE
  8
17
  6
CONTINUOUS
 10
16.078101
 20
73.261420
 11
16.078101
 21
74.721420
  0
LINE
  8
17
  6
CONTINUOUS
 10
16.424530
 20
73.261420
 11
16.424530
 21
74.721420
  0
LINE
  8
17
  6
CONTINUOUS
 10
16.770959
 20
73.261420
 11
16.770959
 21
74.721420
  0
LINE
  8
17
  6
CONTINUOUS
 10
17.117387
 20
73.261420
 11
17.117387
 21
74.721420
  0
LINE
  8
17
  6
CONTINUOUS
 10
17.463816
 20
73.261420
 11
17.463816
 21
74.721420
  0
LINE
  8
17
  6
CONTINUOUS
 10
17.810244
 20
73.261420
 11
17.810244
 21
74.721420
  0
LINE
  8
17
  6
CONTINUOUS
 10
18.156673
 20
73.261420
 11
18.156673
 21
74.721420
  0
LINE
  8
17
  6
CONTINUOUS
 10
18.503101
 20
73.261420
 11
18.503101
 21
74.721420
  0
LINE
  8
17
  6
CONTINUOUS
 10
18.849530
 20
73.261420
 11
18.849530
 21
74.721420
  0
LINE
  8
17
  6
CONTINUOUS
 10
19.195959
 20
73.261420
 11
19.195959
 21
74.721420
  0
LINE
  8
17
  6
CONTINUOUS
 10
19.542387
 20
73.261420
 11
19.542387
 21
74.721420
  0
LINE
  8
17
  6
CONTINUOUS
 10
19.888816
 20
73.261420
 11
19.888816
 21
74.721420
  0
LINE
  8
17
  6
CONTINUOUS
 10
20.235244
 20
73.261420
 11
20.235244
 21
74.721420
  0
LINE
  8
17
  6
CONTINUOUS
 10
20.581673
 20
73.261420
 11
20.581673
 21
74.721420
  0
LINE
  8
17
  6
CONTINUOUS
 10
20.928101
 20
73.261420
 11
20.928101
 21
74.721420
  0
LINE
  8
17
  6
CONTINUOUS
 10
21.274530
 20
73.261420
 11
21.274530
 21
74.721420
  0
LINE
  8
17
  6
CONTINUOUS
 10
21.620959
 20
73.261420
 11
21.620959
 21
74.721420
  0
LINE
  8
17
  6
CONTINUOUS
 10
21.967387
 20
73.261420
 11
21.967387
 21
74.721420
  0
LINE
  8
17
  6
CONTINUOUS
 10
22.313816
 20
73.261420
 11
22.313816
 21
74.721420
  0
LINE
  8
17
  6
CONTINUOUS
 10
22.660244
 20
73.261420
 11
22.660244
 21
74.721420
  0
LINE
  8
17
  6
CONTINUOUS
 10
23.006673
 20
73.261420
 11
23.006673
 21
74.721420
  0
LINE
  8
17
  6
CONTINUOUS
 10
23.353101
 20
73.261420
 11
23.353101
 21
74.721420
  0
LINE
  8
17
  6
CONTINUOUS
 10
23.699530
 20
73.261420
 11
23.699530
 21
74.721420
  0
LINE
  8
17
  6
CONTINUOUS
 10
24.045959
 20
73.261420
 11
24.045959
 21
74.721420
  0
LINE
  8
17
  6
CONTINUOUS
 10
24.392387
 20
73.261420
 11
24.392387
 21
74.721420
  0
LINE
  8
17
  6
CONTINUOUS
 10
24.738816
 20
73.261420
 11
24.738816
 21
74.721420
  0
LINE
  8
17
  6
CONTINUOUS
 10
25.085244
 20
73.261420
 11
25.085244
 21
74.721420
  0
LINE
  8
17
  6
CONTINUOUS
 10
25.431673
 20
73.261420
 11
25.431673
 21
74.721420
  0
LINE
  8
17
  6
CONTINUOUS
 10
25.778101
 20
73.261420
 11
25.778101
 21
74.721420
  0
LINE
  8
17
  6
CONTINUOUS
 10
26.124530
 20
73.261420
 11
26.124530
 21
74.721420
  0
LINE
  8
17
  6
CONTINUOUS
 10
26.470959
 20
73.261420
 11
26.470959
 21
74.721420
  0
LINE
  8
17
  6
CONTINUOUS
 10
26.817387
 20
73.261420
 11
26.817387
 21
74.721420
  0
LINE
  8
17
  6
CONTINUOUS
 10
27.163816
 20
73.261420
 11
27.163816
 21
74.721420
  0
LINE
  8
3
  6
CONTINUOUS
 10
33.538130
 20
76.841420
 11
33.538130
 21
79.241420
  0
LINE
  8
3
  6
CONTINUOUS
 10
33.538130
 20
79.241420
 11
34.038130
 21
79.241420
  0
LINE
  8
3
  6
CONTINUOUS
 10
34.038130
 20
80.041420
 11
29.838130
 21
80.041420
  0
LINE
  8
3
  6
CONTINUOUS
 10
29.838130
 20
79.241420
 11
30.338130
 21
79.241420
  0
LINE
  8
3
  6
CONTINUOUS
 10
30.338130
 20
79.241420
 11
30.338130
 21
76.841420
  0
LINE
  8
3
  6
CONTINUOUS
 10
30.338130
 20
76.841420
 11
33.538130
 21
76.841420
  0
POLYLINE
  8
17
  6
CONTINUOUS
 66
     1
  0
VERTEX
  8
17
  6
CONTINUOUS
 10
30.478130
 20
79.901420
  0
VERTEX
  8
17
  6
CONTINUOUS
 10
30.478130
 20
76.981420
  0
VERTEX
  8
17
  6
CONTINUOUS
 10
32.424797
 20
76.981420
  0
VERTEX
  8
17
  6
CONTINUOUS
 10
32.424797
 20
79.901420
  0
VERTEX
  8
17
  6
CONTINUOUS
 10
30.478130
 20
79.901420
  0
SEQEND
  8
17
  6
CONTINUOUS
  0
POLYLINE
  8
17
  6
CONTINUOUS
 66
     1
  0
VERTEX
  8
17
  6
CONTINUOUS
 10
31.451463
 20
79.901420
  0
VERTEX
  8
17
  6
CONTINUOUS
 10
31.451463
 20
76.981420
  0
VERTEX
  8
17
  6
CONTINUOUS
 10
33.398130
 20
76.981420
  0
VERTEX
  8
17
  6
CONTINUOUS
 10
33.398130
 20
79.901420
  0
VERTEX
  8
17
  6
CONTINUOUS
 10
31.451463
 20
79.901420
  0
SEQEND
  8
17
  6
CONTINUOUS
  0
CIRCLE
  8
1
  6
CONTINUOUS
 10
30.523130
 20
77.026420
 40
0.040000
  0
CIRCLE
  8
1
  6
CONTINUOUS
 10
31.089130
 20
77.026420
 40
0.040000
  0
CIRCLE
  8
1
  6
CONTINUOUS
 10
31.496463
 20
77.026420
 40
0.040000
  0
CIRCLE
  8
1
  6
CONTINUOUS
 10
32.379797
 20
77.026420
 40
0.040000
  0
CIRCLE
  8
1
  6
CONTINUOUS
 10
32.787130
 20
77.026420
 40
0.040000
  0
CIRCLE
  8
1
  6
CONTINUOUS
 10
33.353130
 20
77.026420
 40
0.040000
  0
LINE
  8
1
  6
ESTILO_TQS_0002
 10
33.353130
 20
77.026420
 11
34.308130
 21
76.931420
  0
CIRCLE
  8
1
  6
CONTINUOUS
 10
30.523130
 20
79.856420
 40
0.040000
  0
CIRCLE
  8
1
  6
CONTINUOUS
 10
30.780403
 20
79.856420
 40
0.040000
  0
CIRCLE
  8
1
  6
CONTINUOUS
 10
31.037675
 20
79.856420
 40
0.040000
  0
CIRCLE
  8
1
  6
CONTINUOUS
 10
31.294948
 20
79.856420
 40
0.040000
  0
CIRCLE
  8
1
  6
CONTINUOUS
 10
31.496463
 20
79.856420
 40
0.040000
  0
CIRCLE
  8
1
  6
CONTINUOUS
 10
31.809494
 20
79.856420
 40
0.040000
  0
CIRCLE
  8
1
  6
CONTINUOUS
 10
32.066766
 20
79.856420
 40
0.040000
  0
CIRCLE
  8
1
  6
CONTINUOUS
 10
32.379797
 20
79.856420
 40
0.040000
  0
CIRCLE
  8
1
  6
CONTINUOUS
 10
32.581312
 20
79.856420
 40
0.040000
  0
CIRCLE
  8
1
  6
CONTINUOUS
 10
32.838585
 20
79.856420
 40
0.040000
  0
CIRCLE
  8
1
  6
CONTINUOUS
 10
33.095857
 20
79.856420
 40
0.040000
  0
CIRCLE
  8
1
  6
CONTINUOUS
 10
33.353130
 20
79.856420
 40
0.040000
  0
LINE
  8
1
  6
ESTILO_TQS_0002
 10
33.353130
 20
79.856420
 11
34.308130
 21
79.951420
  0
CIRCLE
  8
1
  6
CONTINUOUS
 10
30.523130
 20
79.507580
 40
0.040000
  0
CIRCLE
  8
1
  6
CONTINUOUS
 10
33.353130
 20
79.507580
 40
0.040000
  0
CIRCLE
  8
1
  6
CONTINUOUS
 10
30.523130
 20
79.202980
 40
0.040000
  0
CIRCLE
  8
1
  6
CONTINUOUS
 10
33.353130
 20
79.202980
 40
0.040000
  0
CIRCLE
  8
1
  6
CONTINUOUS
 10
30.523130
 20
78.898340
 40
0.040000
  0
CIRCLE
  8
1
  6
CONTINUOUS
 10
33.353130
 20
78.898340
 40
0.040000
  0
CIRCLE
  8
1
  6
CONTINUOUS
 10
30.523130
 20
78.593740
 40
0.040000
  0
CIRCLE
  8
1
  6
CONTINUOUS
 10
33.353130
 20
78.593740
 40
0.040000
  0
CIRCLE
  8
1
  6
CONTINUOUS
 10
30.523130
 20
78.289100
 40
0.040000
  0
CIRCLE
  8
1
  6
CONTINUOUS
 10
33.353130
 20
78.289100
 40
0.040000
  0
CIRCLE
  8
1
  6
CONTINUOUS
 10
30.523130
 20
77.984500
 40
0.040000
  0
CIRCLE
  8
1
  6
CONTINUOUS
 10
33.353130
 20
77.984500
 40
0.040000
  0
CIRCLE
  8
1
  6
CONTINUOUS
 10
30.523130
 20
77.679860
 40
0.040000
  0
CIRCLE
  8
1
  6
CONTINUOUS
 10
33.353130
 20
77.679860
 40
0.040000
  0
CIRCLE
  8
1
  6
CONTINUOUS
 10
30.523130
 20
77.375260
 40
0.040000
  0
CIRCLE
  8
1
  6
CONTINUOUS
 10
33.353130
 20
77.375260
 40
0.040000
  0
LINE
  8
1
  6
ESTILO_TQS_0002
 10
33.353130
 20
77.375260
 11
34.293130
 21
78.441420
  0
LINE
  8
1
  6
ESTILO_TQS_0002
 10
33.353130
 20
77.679860
 11
34.293130
 21
78.441420
  0
LINE
  8
1
  6
ESTILO_TQS_0002
 10
33.353130
 20
77.984500
 11
34.293130
 21
78.441420
  0
LINE
  8
1
  6
ESTILO_TQS_0002
 10
33.353130
 20
78.289100
 11
34.293130
 21
78.441420
  0
LINE
  8
1
  6
ESTILO_TQS_0002
 10
33.353130
 20
78.593740
 11
34.293130
 21
78.441420
  0
LINE
  8
1
  6
ESTILO_TQS_0002
 10
33.353130
 20
78.898340
 11
34.293130
 21
78.441420
  0
LINE
  8
1
  6
ESTILO_TQS_0002
 10
33.353130
 20
79.202980
 11
34.293130
 21
78.441420
  0
LINE
  8
1
  6
ESTILO_TQS_0002
 10
33.353130
 20
79.507580
 11
34.293130
 21
78.441420
  0
POLYLINE
  8
5
  6
CONTINUOUS
 66
     1
  0
VERTEX
  8
5
  6
CONTINUOUS
 10
18.286480
 20
72.006420
  0
VERTEX
  8
5
  6
CONTINUOUS
 10
18.286480
 20
71.706420
  0
VERTEX
  8
5
  6
CONTINUOUS
 10
17.986480
 20
71.706420
  0
VERTEX
  8
5
  6
CONTINUOUS
 10
17.986480
 20
71.586420
  0
VERTEX
  8
5
  6
CONTINUOUS
 10
17.636480
 20
71.706420
  0
VERTEX
  8
5
  6
CONTINUOUS
 10
17.986480
 20
71.826420
  0
VERTEX
  8
5
  6
CONTINUOUS
 10
17.986480
 20
71.706420
  0
SEQEND
  8
5
  6
CONTINUOUS
  0
POLYLINE
  8
5
  6
CONTINUOUS
 66
     1
  0
VERTEX
  8
5
  6
CONTINUOUS
 10
26.360930
 20
77.161420
  0
VERTEX
  8
5
  6
CONTINUOUS
 10
26.360930
 20
77.461420
  0
VERTEX
  8
5
  6
CONTINUOUS
 10
26.060930
 20
77.461420
  0
VERTEX
  8
5
  6
CONTINUOUS
 10
26.060930
 20
77.341420
  0
VERTEX
  8
5
  6
CONTINUOUS
 10
25.710930
 20
77.461420
  0
VERTEX
  8
5
  6
CONTINUOUS
 10
26.060930
 20
77.581420
  0
VERTEX
  8
5
  6
CONTINUOUS
 10
26.060930
 20
77.461420
  0
SEQEND
  8
5
  6
CONTINUOUS
  0
LINE
  8
1
  6
CONTINUOUS
 10
18.286480
 20
72.006420
 11
18.286480
 21
73.991420
  0
LINE
  8
1
  6
CONTINUOUS
 10
18.286480
 20
73.991420
 11
26.360930
 21
73.991420
  0
LINE
  8
1
  6
CONTINUOUS
 10
26.360930
 20
73.991420
 11
26.360930
 21
77.161420
  0
LINE
  8
2
  6
CONTINUOUS
 10
9.785340
 20
54.247410
 11
29.184240
 21
54.247410
  0
LINE
  8
2
  6
CONTINUOUS
 10
9.785340
 20
52.647410
 11
29.184240
 21
52.647410
  0
LINE
  8
2
  6
CONTINUOUS
 10
7.385340
 20
54.247410
 11
9.785340
 21
54.247410
  0
LINE
  8
2
  6
CONTINUOUS
 10
7.385340
 20
52.647410
 11
9.785340
 21
52.647410
  0
LINE
  8
2
  6
CONTINUOUS
 10
7.385340
 20
54.247410
 11
7.385340
 21
52.647410
  0
LINE
  8
2
  6
CONTINUOUS
 10
9.785340
 20
54.247410
 11
9.785340
 21
52.647410
  0
LINE
  8
2
  6
CONTINUOUS
 10
29.184240
 20
54.247410
 11
29.786440
 21
54.247410
  0
LINE
  8
2
  6
CONTINUOUS
 10
29.184240
 20
52.647410
 11
29.786440
 21
52.647410
  0
LINE
  8
2
  6
CONTINUOUS
 10
29.184240
 20
54.247410
 11
29.184240
 21
52.647410
  0
LINE
  8
2
  6
CONTINUOUS
 10
29.786440
 20
54.247410
 11
29.786440
 21
52.647410
  0
LINE
  8
1
  6
CONTINUOUS
 10
7.385340
 20
53.587410
 11
7.611623
 21
53.587410
  0
LINE
  8
1
  6
CONTINUOUS
 10
7.611623
 20
53.587410
 11
7.837906
 21
53.587410
  0
LINE
  8
1
  6
CONTINUOUS
 10
7.837906
 20
53.587410
 11
8.064188
 21
53.587410
  0
LINE
  8
1
  6
CONTINUOUS
 10
8.064188
 20
53.587410
 11
8.290471
 21
53.587410
  0
LINE
  8
1
  6
CONTINUOUS
 10
8.290471
 20
53.587410
 11
8.516754
 21
53.587029
  0
LINE
  8
1
  6
CONTINUOUS
 10
8.516754
 20
53.587029
 11
8.743037
 21
53.584626
  0
LINE
  8
1
  6
CONTINUOUS
 10
8.743037
 20
53.584626
 11
8.969320
 21
53.580097
  0
LINE
  8
1
  6
CONTINUOUS
 10
8.969320
 20
53.580097
 11
9.195603
 21
53.573538
  0
LINE
  8
1
  6
CONTINUOUS
 10
9.195603
 20
53.573538
 11
9.421885
 21
53.565047
  0
LINE
  8
1
  6
CONTINUOUS
 10
9.421885
 20
53.565047
 11
9.648168
 21
53.554721
  0
LINE
  8
1
  6
CONTINUOUS
 10
9.648168
 20
53.554721
 11
9.874451
 21
53.542656
  0
LINE
  8
1
  6
CONTINUOUS
 10
9.874451
 20
53.542656
 11
10.100734
 21
53.528949
  0
LINE
  8
1
  6
CONTINUOUS
 10
10.100734
 20
53.528949
 11
10.327017
 21
53.513699
  0
LINE
  8
1
  6
CONTINUOUS
 10
10.327017
 20
53.513699
 11
10.553300
 21
53.497000
  0
LINE
  8
1
  6
CONTINUOUS
 10
10.553300
 20
53.497000
 11
10.779582
 21
53.478951
  0
LINE
  8
1
  6
CONTINUOUS
 10
10.779582
 20
53.478951
 11
11.005865
 21
53.459649
  0
LINE
  8
1
  6
CONTINUOUS
 10
11.005865
 20
53.459649
 11
11.232148
 21
53.439189
  0
LINE
  8
1
  6
CONTINUOUS
 10
11.232148
 20
53.439189
 11
11.458431
 21
53.417670
  0
LINE
  8
1
  6
CONTINUOUS
 10
11.458431
 20
53.417670
 11
11.684714
 21
53.395188
  0
LINE
  8
1
  6
CONTINUOUS
 10
11.684714
 20
53.395188
 11
11.910997
 21
53.371841
  0
LINE
  8
1
  6
CONTINUOUS
 10
11.910997
 20
53.371841
 11
12.137279
 21
53.347724
  0
LINE
  8
1
  6
CONTINUOUS
 10
12.137279
 20
53.347724
 11
12.363562
 21
53.322936
  0
LINE
  8
1
  6
CONTINUOUS
 10
12.363562
 20
53.322936
 11
12.589845
 21
53.297572
  0
LINE
  8
1
  6
CONTINUOUS
 10
12.589845
 20
53.297572
 11
12.816128
 21
53.271731
  0
LINE
  8
1
  6
CONTINUOUS
 10
12.816128
 20
53.271731
 11
13.042411
 21
53.245508
  0
LINE
  8
1
  6
CONTINUOUS
 10
13.042411
 20
53.245508
 11
13.268694
 21
53.219002
  0
LINE
  8
1
  6
CONTINUOUS
 10
13.268694
 20
53.219002
 11
13.494976
 21
53.192308
  0
LINE
  8
1
  6
CONTINUOUS
 10
13.494976
 20
53.192308
 11
13.721259
 21
53.165525
  0
LINE
  8
1
  6
CONTINUOUS
 10
13.721259
 20
53.165525
 11
13.947542
 21
53.138748
  0
LINE
  8
1
  6
CONTINUOUS
 10
13.947542
 20
53.138748
 11
14.173825
 21
53.112075
  0
LINE
  8
1
  6
CONTINUOUS
 10
14.173825
 20
53.112075
 11
14.400108
 21
53.085603
  0
LINE
  8
1
  6
CONTINUOUS
 10
14.400108
 20
53.085603
 11
14.626391
 21
53.059428
  0
LINE
  8
1
  6
CONTINUOUS
 10
14.626391
 20
53.059428
 11
14.852673
 21
53.033648
  0
LINE
  8
1
  6
CONTINUOUS
 10
14.852673
 20
53.033648
 11
15.078956
 21
53.008360
  0
LINE
  8
1
  6
CONTINUOUS
 10
15.078956
 20
53.008360
 11
15.305239
 21
52.983660
  0
LINE
  8
1
  6
CONTINUOUS
 10
15.305239
 20
52.983660
 11
15.531522
 21
52.959646
  0
LINE
  8
1
  6
CONTINUOUS
 10
15.531522
 20
52.959646
 11
15.757805
 21
52.936414
  0
LINE
  8
1
  6
CONTINUOUS
 10
15.757805
 20
52.936414
 11
15.984087
 21
52.914062
  0
LINE
  8
1
  6
CONTINUOUS
 10
15.984087
 20
52.914062
 11
16.210370
 21
52.892686
  0
LINE
  8
1
  6
CONTINUOUS
 10
16.210370
 20
52.892686
 11
16.436653
 21
52.872383
  0
LINE
  8
1
  6
CONTINUOUS
 10
16.436653
 20
52.872383
 11
16.662936
 21
52.853251
  0
LINE
  8
1
  6
CONTINUOUS
 10
16.662936
 20
52.853251
 11
16.889219
 21
52.835386
  0
LINE
  8
1
  6
CONTINUOUS
 10
16.889219
 20
52.835386
 11
17.115502
 21
52.818886
  0
LINE
  8
1
  6
CONTINUOUS
 10
17.115502
 20
52.818886
 11
17.341784
 21
52.803846
  0
LINE
  8
1
  6
CONTINUOUS
 10
17.341784
 20
52.803846
 11
17.568067
 21
52.790365
  0
LINE
  8
1
  6
CONTINUOUS
 10
17.568067
 20
52.790365
 11
17.794350
 21
52.778539
  0
LINE
  8
1
  6
CONTINUOUS
 10
17.794350
 20
52.778539
 11
18.020633
 21
52.768465
  0
LINE
  8
1
  6
CONTINUOUS
 10
18.020633
 20
52.768465
 11
18.246916
 21
52.760240
  0
LINE
  8
1
  6
CONTINUOUS
 10
18.246916
 20
52.760240
 11
18.473199
 21
52.753961
  0
LINE
  8
1
  6
CONTINUOUS
 10
18.473199
 20
52.753961
 11
18.699481
 21
52.749725
  0
LINE
  8
1
  6
CONTINUOUS
 10
18.699481
 20
52.749725
 11
18.925764
 21
52.747629
  0
LINE
  8
1
  6
CONTINUOUS
 10
18.925764
 20
52.747629
 11
19.152047
 21
52.747410
  0
LINE
  8
1
  6
CONTINUOUS
 10
19.152047
 20
52.747410
 11
19.378330
 21
52.747410
  0
LINE
  8
1
  6
CONTINUOUS
 10
19.378330
 20
52.747410
 11
19.604613
 21
52.747410
  0
LINE
  8
1
  6
CONTINUOUS
 10
19.604613
 20
52.747410
 11
19.830896
 21
52.747410
  0
LINE
  8
1
  6
CONTINUOUS
 10
19.830896
 20
52.747410
 11
20.057178
 21
52.747410
  0
LINE
  8
1
  6
CONTINUOUS
 10
20.057178
 20
52.747410
 11
20.283461
 21
52.747410
  0
LINE
  8
1
  6
CONTINUOUS
 10
20.283461
 20
52.747410
 11
20.509744
 21
52.747410
  0
LINE
  8
1
  6
CONTINUOUS
 10
20.509744
 20
52.747410
 11
20.736027
 21
52.747410
  0
LINE
  8
1
  6
CONTINUOUS
 10
20.736027
 20
52.747410
 11
20.962310
 21
52.747410
  0
LINE
  8
1
  6
CONTINUOUS
 10
20.962310
 20
52.747410
 11
21.188593
 21
52.747410
  0
LINE
  8
1
  6
CONTINUOUS
 10
21.188593
 20
52.747410
 11
21.414875
 21
52.747410
  0
LINE
  8
1
  6
CONTINUOUS
 10
21.414875
 20
52.747410
 11
21.641158
 21
52.747410
  0
LINE
  8
1
  6
CONTINUOUS
 10
21.641158
 20
52.747410
 11
21.867441
 21
52.747410
  0
LINE
  8
1
  6
CONTINUOUS
 10
21.867441
 20
52.747410
 11
22.093724
 21
52.747410
  0
LINE
  8
1
  6
CONTINUOUS
 10
22.093724
 20
52.747410
 11
22.320007
 21
52.747410
  0
LINE
  8
1
  6
CONTINUOUS
 10
22.320007
 20
52.747410
 11
22.546289
 21
52.747410
  0
LINE
  8
1
  6
CONTINUOUS
 10
22.546289
 20
52.747410
 11
22.772572
 21
52.747410
  0
LINE
  8
1
  6
CONTINUOUS
 10
22.772572
 20
52.747410
 11
22.998855
 21
52.747410
  0
LINE
  8
1
  6
CONTINUOUS
 10
22.998855
 20
52.747410
 11
23.225138
 21
52.747410
  0
LINE
  8
1
  6
CONTINUOUS
 10
23.225138
 20
52.747410
 11
23.451421
 21
52.747410
  0
LINE
  8
1
  6
CONTINUOUS
 10
23.451421
 20
52.747410
 11
23.677704
 21
52.747410
  0
LINE
  8
1
  6
CONTINUOUS
 10
23.677704
 20
52.747410
 11
23.903986
 21
52.747410
  0
LINE
  8
1
  6
CONTINUOUS
 10
23.903986
 20
52.747410
 11
24.130269
 21
52.747410
  0
LINE
  8
1
  6
CONTINUOUS
 10
24.130269
 20
52.747410
 11
24.356552
 21
52.748896
  0
LINE
  8
1
  6
CONTINUOUS
 10
24.356552
 20
52.748896
 11
24.582835
 21
52.760634
  0
LINE
  8
1
  6
CONTINUOUS
 10
24.582835
 20
52.760634
 11
24.809118
 21
52.783023
  0
LINE
  8
1
  6
CONTINUOUS
 10
24.809118
 20
52.783023
 11
25.035401
 21
52.814816
  0
LINE
  8
1
  6
CONTINUOUS
 10
25.035401
 20
52.814816
 11
25.261683
 21
52.854766
  0
LINE
  8
1
  6
CONTINUOUS
 10
25.261683
 20
52.854766
 11
25.487966
 21
52.901627
  0
LINE
  8
1
  6
CONTINUOUS
 10
25.487966
 20
52.901627
 11
25.714249
 21
52.954153
  0
LINE
  8
1
  6
CONTINUOUS
 10
25.714249
 20
52.954153
 11
25.940532
 21
53.011098
  0
LINE
  8
1
  6
CONTINUOUS
 10
25.940532
 20
53.011098
 11
26.166815
 21
53.071214
  0
LINE
  8
1
  6
CONTINUOUS
 10
26.166815
 20
53.071214
 11
26.393098
 21
53.133255
  0
LINE
  8
1
  6
CONTINUOUS
 10
26.393098
 20
53.133255
 11
26.619380
 21
53.195975
  0
LINE
  8
1
  6
CONTINUOUS
 10
26.619380
 20
53.195975
 11
26.845663
 21
53.258127
  0
LINE
  8
1
  6
CONTINUOUS
 10
26.845663
 20
53.258127
 11
27.071946
 21
53.318466
  0
LINE
  8
1
  6
CONTINUOUS
 10
27.071946
 20
53.318466
 11
27.298229
 21
53.375744
  0
LINE
  8
1
  6
CONTINUOUS
 10
27.298229
 20
53.375744
 11
27.524512
 21
53.428715
  0
LINE
  8
1
  6
CONTINUOUS
 10
27.524512
 20
53.428715
 11
27.750795
 21
53.476133
  0
LINE
  8
1
  6
CONTINUOUS
 10
27.750795
 20
53.476133
 11
27.977077
 21
53.516751
  0
LINE
  8
1
  6
CONTINUOUS
 10
27.977077
 20
53.516751
 11
28.203360
 21
53.549322
  0
LINE
  8
1
  6
CONTINUOUS
 10
28.203360
 20
53.549322
 11
28.429643
 21
53.572601
  0
LINE
  8
1
  6
CONTINUOUS
 10
28.429643
 20
53.572601
 11
28.655926
 21
53.585341
  0
LINE
  8
1
  6
CONTINUOUS
 10
28.655926
 20
53.585341
 11
28.882209
 21
53.587410
  0
LINE
  8
1
  6
CONTINUOUS
 10
28.882209
 20
53.587410
 11
29.108492
 21
53.587410
  0
LINE
  8
1
  6
CONTINUOUS
 10
29.108492
 20
53.587410
 11
29.334774
 21
53.587410
  0
LINE
  8
1
  6
CONTINUOUS
 10
29.334774
 20
53.587410
 11
29.561057
 21
53.587410
  0
LINE
  8
1
  6
CONTINUOUS
 10
29.561057
 20
53.587410
 11
29.787340
 21
53.587410
  0
LINE
  8
1
  6
CONTINUOUS
 10
7.385340
 20
53.787410
 11
7.385340
 21
53.387410
  0
LINE
  8
1
  6
CONTINUOUS
 10
29.787340
 20
53.787410
 11
29.787340
 21
53.387410
  0
LINE
  8
1
  6
CONTINUOUS
 10
7.185340
 20
53.587410
 11
7.385340
 21
53.587410
  0
LINE
  8
1
  6
CONTINUOUS
 10
30.987340
 20
53.587410
 11
29.787340
 21
53.587410
  0
LINE
  8
1
  6
CONTINUOUS
 10
30.987340
 20
53.587410
 11
30.787340
 21
53.687410
  0
LINE
  8
1
  6
CONTINUOUS
 10
30.987340
 20
53.587410
 11
30.787340
 21
53.487410
  0
LINE
  8
1
  6
CONTINUOUS
 10
7.385340
 20
53.307410
 11
7.611623
 21
53.307410
  0
LINE
  8
1
  6
CONTINUOUS
 10
7.611623
 20
53.307410
 11
7.837906
 21
53.307410
  0
LINE
  8
1
  6
CONTINUOUS
 10
7.837906
 20
53.307410
 11
8.064188
 21
53.307410
  0
LINE
  8
1
  6
CONTINUOUS
 10
8.064188
 20
53.307410
 11
8.290471
 21
53.307410
  0
LINE
  8
1
  6
CONTINUOUS
 10
8.290471
 20
53.307410
 11
8.516754
 21
53.307156
  0
LINE
  8
1
  6
CONTINUOUS
 10
8.516754
 20
53.307156
 11
8.743037
 21
53.305554
  0
LINE
  8
1
  6
CONTINUOUS
 10
8.743037
 20
53.305554
 11
8.969320
 21
53.302534
  0
LINE
  8
1
  6
CONTINUOUS
 10
8.969320
 20
53.302534
 11
9.195603
 21
53.298162
  0
LINE
  8
1
  6
CONTINUOUS
 10
9.195603
 20
53.298162
 11
9.421885
 21
53.292501
  0
LINE
  8
1
  6
CONTINUOUS
 10
9.421885
 20
53.292501
 11
9.648168
 21
53.285617
  0
LINE
  8
1
  6
CONTINUOUS
 10
9.648168
 20
53.285617
 11
9.874451
 21
53.277574
  0
LINE
  8
1
  6
CONTINUOUS
 10
9.874451
 20
53.277574
 11
10.100734
 21
53.268436
  0
LINE
  8
1
  6
CONTINUOUS
 10
10.100734
 20
53.268436
 11
10.327017
 21
53.258269
  0
LINE
  8
1
  6
CONTINUOUS
 10
10.327017
 20
53.258269
 11
10.553300
 21
53.247137
  0
LINE
  8
1
  6
CONTINUOUS
 10
10.553300
 20
53.247137
 11
10.779582
 21
53.235104
  0
LINE
  8
1
  6
CONTINUOUS
 10
10.779582
 20
53.235104
 11
11.005865
 21
53.222236
  0
LINE
  8
1
  6
CONTINUOUS
 10
11.005865
 20
53.222236
 11
11.232148
 21
53.208596
  0
LINE
  8
1
  6
CONTINUOUS
 10
11.232148
 20
53.208596
 11
11.458431
 21
53.194250
  0
LINE
  8
1
  6
CONTINUOUS
 10
11.458431
 20
53.194250
 11
11.684714
 21
53.179262
  0
LINE
  8
1
  6
CONTINUOUS
 10
11.684714
 20
53.179262
 11
11.910997
 21
53.163697
  0
LINE
  8
1
  6
CONTINUOUS
 10
11.910997
 20
53.163697
 11
12.137279
 21
53.147619
  0
LINE
  8
1
  6
CONTINUOUS
 10
12.137279
 20
53.147619
 11
12.363562
 21
53.131094
  0
LINE
  8
1
  6
CONTINUOUS
 10
12.363562
 20
53.131094
 11
12.589845
 21
53.114185
  0
LINE
  8
1
  6
CONTINUOUS
 10
12.589845
 20
53.114185
 11
12.816128
 21
53.096957
  0
LINE
  8
1
  6
CONTINUOUS
 10
12.816128
 20
53.096957
 11
13.042411
 21
53.079476
  0
LINE
  8
1
  6
CONTINUOUS
 10
13.042411
 20
53.079476
 11
13.268694
 21
53.061805
  0
LINE
  8
1
  6
CONTINUOUS
 10
13.268694
 20
53.061805
 11
13.494976
 21
53.044009
  0
LINE
  8
1
  6
CONTINUOUS
 10
13.494976
 20
53.044009
 11
13.721259
 21
53.026153
  0
LINE
  8
1
  6
CONTINUOUS
 10
13.721259
 20
53.026153
 11
13.947542
 21
53.008302
  0
LINE
  8
1
  6
CONTINUOUS
 10
13.947542
 20
53.008302
 11
14.173825
 21
52.990520
  0
LINE
  8
1
  6
CONTINUOUS
 10
14.173825
 20
52.990520
 11
14.400108
 21
52.972872
  0
LINE
  8
1
  6
CONTINUOUS
 10
14.400108
 20
52.972872
 11
14.626391
 21
52.955422
  0
LINE
  8
1
  6
CONTINUOUS
 10
14.626391
 20
52.955422
 11
14.852673
 21
52.938235
  0
LINE
  8
1
  6
CONTINUOUS
 10
14.852673
 20
52.938235
 11
15.078956
 21
52.921376
  0
LINE
  8
1
  6
CONTINUOUS
 10
15.078956
 20
52.921376
 11
15.305239
 21
52.904910
  0
LINE
  8
1
  6
CONTINUOUS
 10
15.305239
 20
52.904910
 11
15.531522
 21
52.888900
  0
LINE
  8
1
  6
CONTINUOUS
 10
15.531522
 20
52.888900
 11
15.757805
 21
52.873413
  0
LINE
  8
1
  6
CONTINUOUS
 10
15.757805
 20
52.873413
 11
15.984087
 21
52.858511
  0
LINE
  8
1
  6
CONTINUOUS
 10
15.984087
 20
52.858511
 11
16.210370
 21
52.844261
  0
LINE
  8
1
  6
CONTINUOUS
 10
16.210370
 20
52.844261
 11
16.436653
 21
52.830726
  0
LINE
  8
1
  6
CONTINUOUS
 10
16.436653
 20
52.830726
 11
16.662936
 21
52.817971
  0
LINE
  8
1
  6
CONTINUOUS
 10
16.662936
 20
52.817971
 11
16.889219
 21
52.806061
  0
LINE
  8
1
  6
CONTINUOUS
 10
16.889219
 20
52.806061
 11
17.115502
 21
52.795061
  0
LINE
  8
1
  6
CONTINUOUS
 10
17.115502
 20
52.795061
 11
17.341784
 21
52.785034
  0
LINE
  8
1
  6
CONTINUOUS
 10
17.341784
 20
52.785034
 11
17.568067
 21
52.776047
  0
LINE
  8
1
  6
CONTINUOUS
 10
17.568067
 20
52.776047
 11
17.794350
 21
52.768163
  0
LINE
  8
1
  6
CONTINUOUS
 10
17.794350
 20
52.768163
 11
18.020633
 21
52.761447
  0
LINE
  8
1
  6
CONTINUOUS
 10
18.020633
 20
52.761447
 11
18.246916
 21
52.755963
  0
LINE
  8
1
  6
CONTINUOUS
 10
18.246916
 20
52.755963
 11
18.473199
 21
52.751778
  0
LINE
  8
1
  6
CONTINUOUS
 10
18.473199
 20
52.751778
 11
18.699481
 21
52.748954
  0
LINE
  8
1
  6
CONTINUOUS
 10
18.699481
 20
52.748954
 11
18.925764
 21
52.747556
  0
LINE
  8
1
  6
CONTINUOUS
 10
18.925764
 20
52.747556
 11
19.152047
 21
52.747410
  0
LINE
  8
1
  6
CONTINUOUS
 10
19.152047
 20
52.747410
 11
19.378330
 21
52.747410
  0
LINE
  8
1
  6
CONTINUOUS
 10
19.378330
 20
52.747410
 11
19.604613
 21
52.747410
  0
LINE
  8
1
  6
CONTINUOUS
 10
19.604613
 20
52.747410
 11
19.830896
 21
52.747410
  0
LINE
  8
1
  6
CONTINUOUS
 10
19.830896
 20
52.747410
 11
20.057178
 21
52.747410
  0
LINE
  8
1
  6
CONTINUOUS
 10
20.057178
 20
52.747410
 11
20.283461
 21
52.747410
  0
LINE
  8
1
  6
CONTINUOUS
 10
20.283461
 20
52.747410
 11
20.509744
 21
52.747410
  0
LINE
  8
1
  6
CONTINUOUS
 10
20.509744
 20
52.747410
 11
20.736027
 21
52.747410
  0
LINE
  8
1
  6
CONTINUOUS
 10
20.736027
 20
52.747410
 11
20.962310
 21
52.747410
  0
LINE
  8
1
  6
CONTINUOUS
 10
20.962310
 20
52.747410
 11
21.188593
 21
52.747410
  0
LINE
  8
1
  6
CONTINUOUS
 10
21.188593
 20
52.747410
 11
21.414875
 21
52.747410
  0
LINE
  8
1
  6
CONTINUOUS
 10
21.414875
 20
52.747410
 11
21.641158
 21
52.747410
  0
LINE
  8
1
  6
CONTINUOUS
 10
21.641158
 20
52.747410
 11
21.867441
 21
52.747410
  0
LINE
  8
1
  6
CONTINUOUS
 10
21.867441
 20
52.747410
 11
22.093724
 21
52.747410
  0
LINE
  8
1
  6
CONTINUOUS
 10
22.093724
 20
52.747410
 11
22.320007
 21
52.747410
  0
LINE
  8
1
  6
CONTINUOUS
 10
22.320007
 20
52.747410
 11
22.546289
 21
52.747410
  0
LINE
  8
1
  6
CONTINUOUS
 10
22.546289
 20
52.747410
 11
22.772572
 21
52.747410
  0
LINE
  8
1
  6
CONTINUOUS
 10
22.772572
 20
52.747410
 11
22.998855
 21
52.747410
  0
LINE
  8
1
  6
CONTINUOUS
 10
22.998855
 20
52.747410
 11
23.225138
 21
52.747410
  0
LINE
  8
1
  6
CONTINUOUS
 10
23.225138
 20
52.747410
 11
23.451421
 21
52.747410
  0
LINE
  8
1
  6
CONTINUOUS
 10
23.451421
 20
52.747410
 11
23.677704
 21
52.747410
  0
LINE
  8
1
  6
CONTINUOUS
 10
23.677704
 20
52.747410
 11
23.903986
 21
52.747410
  0
LINE
  8
1
  6
CONTINUOUS
 10
23.903986
 20
52.747410
 11
24.130269
 21
52.747410
  0
LINE
  8
1
  6
CONTINUOUS
 10
24.130269
 20
52.747410
 11
24.356552
 21
52.748401
  0
LINE
  8
1
  6
CONTINUOUS
 10
24.356552
 20
52.748401
 11
24.582835
 21
52.756226
  0
LINE
  8
1
  6
CONTINUOUS
 10
24.582835
 20
52.756226
 11
24.809118
 21
52.771152
  0
LINE
  8
1
  6
CONTINUOUS
 10
24.809118
 20
52.771152
 11
25.035401
 21
52.792347
  0
LINE
  8
1
  6
CONTINUOUS
 10
25.035401
 20
52.792347
 11
25.261683
 21
52.818981
  0
LINE
  8
1
  6
CONTINUOUS
 10
25.261683
 20
52.818981
 11
25.487966
 21
52.850222
  0
LINE
  8
1
  6
CONTINUOUS
 10
25.487966
 20
52.850222
 11
25.714249
 21
52.885239
  0
LINE
  8
1
  6
CONTINUOUS
 10
25.714249
 20
52.885239
 11
25.940532
 21
52.923202
  0
LINE
  8
1
  6
CONTINUOUS
 10
25.940532
 20
52.923202
 11
26.166815
 21
52.963279
  0
LINE
  8
1
  6
CONTINUOUS
 10
26.166815
 20
52.963279
 11
26.393098
 21
53.004640
  0
LINE
  8
1
  6
CONTINUOUS
 10
26.393098
 20
53.004640
 11
26.619380
 21
53.046453
  0
LINE
  8
1
  6
CONTINUOUS
 10
26.619380
 20
53.046453
 11
26.845663
 21
53.087888
  0
LINE
  8
1
  6
CONTINUOUS
 10
26.845663
 20
53.087888
 11
27.071946
 21
53.128114
  0
LINE
  8
1
  6
CONTINUOUS
 10
27.071946
 20
53.128114
 11
27.298229
 21
53.166299
  0
LINE
  8
1
  6
CONTINUOUS
 10
27.298229
 20
53.166299
 11
27.524512
 21
53.201613
  0
LINE
  8
1
  6
CONTINUOUS
 10
27.524512
 20
53.201613
 11
27.750795
 21
53.233225
  0
LINE
  8
1
  6
CONTINUOUS
 10
27.750795
 20
53.233225
 11
27.977077
 21
53.260304
  0
LINE
  8
1
  6
CONTINUOUS
 10
27.977077
 20
53.260304
 11
28.203360
 21
53.282018
  0
LINE
  8
1
  6
CONTINUOUS
 10
28.203360
 20
53.282018
 11
28.429643
 21
53.297538
  0
LINE
  8
1
  6
CONTINUOUS
 10
28.429643
 20
53.297538
 11
28.655926
 21
53.306031
  0
LINE
  8
1
  6
CONTINUOUS
 10
28.655926
 20
53.306031
 11
28.882209
 21
53.307410
  0
LINE
  8
1
  6
CONTINUOUS
 10
28.882209
 20
53.307410
 11
29.108492
 21
53.307410
  0
LINE
  8
1
  6
CONTINUOUS
 10
29.108492
 20
53.307410
 11
29.334774
 21
53.307410
  0
LINE
  8
1
  6
CONTINUOUS
 10
29.334774
 20
53.307410
 11
29.561057
 21
53.307410
  0
LINE
  8
1
  6
CONTINUOUS
 10
29.561057
 20
53.307410
 11
29.787340
 21
53.307410
  0
LINE
  8
1
  6
CONTINUOUS
 10
7.385340
 20
53.507410
 11
7.385340
 21
53.107410
  0
LINE
  8
1
  6
CONTINUOUS
 10
29.787340
 20
53.507410
 11
29.787340
 21
53.107410
  0
LINE
  8
1
  6
CONTINUOUS
 10
7.185340
 20
53.307410
 11
7.385340
 21
53.307410
  0
LINE
  8
1
  6
CONTINUOUS
 10
30.987340
 20
53.307410
 11
29.787340
 21
53.307410
  0
LINE
  8
1
  6
CONTINUOUS
 10
30.987340
 20
53.307410
 11
30.787340
 21
53.407410
  0
LINE
  8
1
  6
CONTINUOUS
 10
30.987340
 20
53.307410
 11
30.787340
 21
53.207410
  0
LINE
  8
2
  6
CONTINUOUS
 10
9.785340
 20
49.347410
 11
29.184240
 21
49.347410
  0
LINE
  8
2
  6
CONTINUOUS
 10
9.785340
 20
47.747410
 11
29.184240
 21
47.747410
  0
LINE
  8
2
  6
CONTINUOUS
 10
7.385340
 20
49.347410
 11
9.785340
 21
49.347410
  0
LINE
  8
2
  6
CONTINUOUS
 10
7.385340
 20
47.747410
 11
9.785340
 21
47.747410
  0
LINE
  8
2
  6
CONTINUOUS
 10
7.385340
 20
49.347410
 11
7.385340
 21
47.747410
  0
LINE
  8
2
  6
CONTINUOUS
 10
9.785340
 20
49.347410
 11
9.785340
 21
47.747410
  0
LINE
  8
2
  6
CONTINUOUS
 10
29.184240
 20
49.347410
 11
29.786440
 21
49.347410
  0
LINE
  8
2
  6
CONTINUOUS
 10
29.184240
 20
47.747410
 11
29.786440
 21
47.747410
  0
LINE
  8
2
  6
CONTINUOUS
 10
29.184240
 20
49.347410
 11
29.184240
 21
47.747410
  0
LINE
  8
2
  6
CONTINUOUS
 10
29.786440
 20
49.347410
 11
29.786440
 21
47.747410
  0
LINE
  8
1
  6
CONTINUOUS
 10
7.385340
 20
48.687410
 11
7.611623
 21
48.687410
  0
LINE
  8
1
  6
CONTINUOUS
 10
7.611623
 20
48.687410
 11
7.837906
 21
48.687410
  0
LINE
  8
1
  6
CONTINUOUS
 10
7.837906
 20
48.687410
 11
8.064188
 21
48.687410
  0
LINE
  8
1
  6
CONTINUOUS
 10
8.064188
 20
48.687410
 11
8.290471
 21
48.687410
  0
LINE
  8
1
  6
CONTINUOUS
 10
8.290471
 20
48.687410
 11
8.516754
 21
48.687029
  0
LINE
  8
1
  6
CONTINUOUS
 10
8.516754
 20
48.687029
 11
8.743037
 21
48.684626
  0
LINE
  8
1
  6
CONTINUOUS
 10
8.743037
 20
48.684626
 11
8.969320
 21
48.680097
  0
LINE
  8
1
  6
CONTINUOUS
 10
8.969320
 20
48.680097
 11
9.195603
 21
48.673538
  0
LINE
  8
1
  6
CONTINUOUS
 10
9.195603
 20
48.673538
 11
9.421885
 21
48.665047
  0
LINE
  8
1
  6
CONTINUOUS
 10
9.421885
 20
48.665047
 11
9.648168
 21
48.654721
  0
LINE
  8
1
  6
CONTINUOUS
 10
9.648168
 20
48.654721
 11
9.874451
 21
48.642656
  0
LINE
  8
1
  6
CONTINUOUS
 10
9.874451
 20
48.642656
 11
10.100734
 21
48.628949
  0
LINE
  8
1
  6
CONTINUOUS
 10
10.100734
 20
48.628949
 11
10.327017
 21
48.613699
  0
LINE
  8
1
  6
CONTINUOUS
 10
10.327017
 20
48.613699
 11
10.553300
 21
48.597000
  0
LINE
  8
1
  6
CONTINUOUS
 10
10.553300
 20
48.597000
 11
10.779582
 21
48.578951
  0
LINE
  8
1
  6
CONTINUOUS
 10
10.779582
 20
48.578951
 11
11.005865
 21
48.559649
  0
LINE
  8
1
  6
CONTINUOUS
 10
11.005865
 20
48.559649
 11
11.232148
 21
48.539189
  0
LINE
  8
1
  6
CONTINUOUS
 10
11.232148
 20
48.539189
 11
11.458431
 21
48.517670
  0
LINE
  8
1
  6
CONTINUOUS
 10
11.458431
 20
48.517670
 11
11.684714
 21
48.495188
  0
LINE
  8
1
  6
CONTINUOUS
 10
11.684714
 20
48.495188
 11
11.910997
 21
48.471841
  0
LINE
  8
1
  6
CONTINUOUS
 10
11.910997
 20
48.471841
 11
12.137279
 21
48.447724
  0
LINE
  8
1
  6
CONTINUOUS
 10
12.137279
 20
48.447724
 11
12.363562
 21
48.422936
  0
LINE
  8
1
  6
CONTINUOUS
 10
12.363562
 20
48.422936
 11
12.589845
 21
48.397572
  0
LINE
  8
1
  6
CONTINUOUS
 10
12.589845
 20
48.397572
 11
12.816128
 21
48.371731
  0
LINE
  8
1
  6
CONTINUOUS
 10
12.816128
 20
48.371731
 11
13.042411
 21
48.345508
  0
LINE
  8
1
  6
CONTINUOUS
 10
13.042411
 20
48.345508
 11
13.268694
 21
48.319002
  0
LINE
  8
1
  6
CONTINUOUS
 10
13.268694
 20
48.319002
 11
13.494976
 21
48.292308
  0
LINE
  8
1
  6
CONTINUOUS
 10
13.494976
 20
48.292308
 11
13.721259
 21
48.265525
  0
LINE
  8
1
  6
CONTINUOUS
 10
13.721259
 20
48.265525
 11
13.947542
 21
48.238748
  0
LINE
  8
1
  6
CONTINUOUS
 10
13.947542
 20
48.238748
 11
14.173825
 21
48.212075
  0
LINE
  8
1
  6
CONTINUOUS
 10
14.173825
 20
48.212075
 11
14.400108
 21
48.185603
  0
LINE
  8
1
  6
CONTINUOUS
 10
14.400108
 20
48.185603
 11
14.626391
 21
48.159428
  0
LINE
  8
1
  6
CONTINUOUS
 10
14.626391
 20
48.159428
 11
14.852673
 21
48.133648
  0
LINE
  8
1
  6
CONTINUOUS
 10
14.852673
 20
48.133648
 11
15.078956
 21
48.108360
  0
LINE
  8
1
  6
CONTINUOUS
 10
15.078956
 20
48.108360
 11
15.305239
 21
48.083660
  0
LINE
  8
1
  6
CONTINUOUS
 10
15.305239
 20
48.083660
 11
15.531522
 21
48.059646
  0
LINE
  8
1
  6
CONTINUOUS
 10
15.531522
 20
48.059646
 11
15.757805
 21
48.036414
  0
LINE
  8
1
  6
CONTINUOUS
 10
15.757805
 20
48.036414
 11
15.984087
 21
48.014062
  0
LINE
  8
1
  6
CONTINUOUS
 10
15.984087
 20
48.014062
 11
16.210370
 21
47.992686
  0
LINE
  8
1
  6
CONTINUOUS
 10
16.210370
 20
47.992686
 11
16.436653
 21
47.972383
  0
LINE
  8
1
  6
CONTINUOUS
 10
16.436653
 20
47.972383
 11
16.662936
 21
47.953251
  0
LINE
  8
1
  6
CONTINUOUS
 10
16.662936
 20
47.953251
 11
16.889219
 21
47.935386
  0
LINE
  8
1
  6
CONTINUOUS
 10
16.889219
 20
47.935386
 11
17.115502
 21
47.918886
  0
LINE
  8
1
  6
CONTINUOUS
 10
17.115502
 20
47.918886
 11
17.341784
 21
47.903846
  0
LINE
  8
1
  6
CONTINUOUS
 10
17.341784
 20
47.903846
 11
17.568067
 21
47.890365
  0
LINE
  8
1
  6
CONTINUOUS
 10
17.568067
 20
47.890365
 11
17.794350
 21
47.878539
  0
LINE
  8
1
  6
CONTINUOUS
 10
17.794350
 20
47.878539
 11
18.020633
 21
47.868465
  0
LINE
  8
1
  6
CONTINUOUS
 10
18.020633
 20
47.868465
 11
18.246916
 21
47.860240
  0
LINE
  8
1
  6
CONTINUOUS
 10
18.246916
 20
47.860240
 11
18.473199
 21
47.853961
  0
LINE
  8
1
  6
CONTINUOUS
 10
18.473199
 20
47.853961
 11
18.699481
 21
47.849725
  0
LINE
  8
1
  6
CONTINUOUS
 10
18.699481
 20
47.849725
 11
18.925764
 21
47.847629
  0
LINE
  8
1
  6
CONTINUOUS
 10
18.925764
 20
47.847629
 11
19.152047
 21
47.847410
  0
LINE
  8
1
  6
CONTINUOUS
 10
19.152047
 20
47.847410
 11
19.378330
 21
47.847410
  0
LINE
  8
1
  6
CONTINUOUS
 10
19.378330
 20
47.847410
 11
19.604613
 21
47.847410
  0
LINE
  8
1
  6
CONTINUOUS
 10
19.604613
 20
47.847410
 11
19.830896
 21
47.847410
  0
LINE
  8
1
  6
CONTINUOUS
 10
19.830896
 20
47.847410
 11
20.057178
 21
47.847410
  0
LINE
  8
1
  6
CONTINUOUS
 10
20.057178
 20
47.847410
 11
20.283461
 21
47.847410
  0
LINE
  8
1
  6
CONTINUOUS
 10
20.283461
 20
47.847410
 11
20.509744
 21
47.847410
  0
LINE
  8
1
  6
CONTINUOUS
 10
20.509744
 20
47.847410
 11
20.736027
 21
47.847410
  0
LINE
  8
1
  6
CONTINUOUS
 10
20.736027
 20
47.847410
 11
20.962310
 21
47.847410
  0
LINE
  8
1
  6
CONTINUOUS
 10
20.962310
 20
47.847410
 11
21.188593
 21
47.847410
  0
LINE
  8
1
  6
CONTINUOUS
 10
21.188593
 20
47.847410
 11
21.414875
 21
47.847410
  0
LINE
  8
1
  6
CONTINUOUS
 10
21.414875
 20
47.847410
 11
21.641158
 21
47.847410
  0
LINE
  8
1
  6
CONTINUOUS
 10
21.641158
 20
47.847410
 11
21.867441
 21
47.847410
  0
LINE
  8
1
  6
CONTINUOUS
 10
21.867441
 20
47.847410
 11
22.093724
 21
47.847410
  0
LINE
  8
1
  6
CONTINUOUS
 10
22.093724
 20
47.847410
 11
22.320007
 21
47.847410
  0
LINE
  8
1
  6
CONTINUOUS
 10
22.320007
 20
47.847410
 11
22.546289
 21
47.847410
  0
LINE
  8
1
  6
CONTINUOUS
 10
22.546289
 20
47.847410
 11
22.772572
 21
47.847410
  0
LINE
  8
1
  6
CONTINUOUS
 10
22.772572
 20
47.847410
 11
22.998855
 21
47.847410
  0
LINE
  8
1
  6
CONTINUOUS
 10
22.998855
 20
47.847410
 11
23.225138
 21
47.847410
  0
LINE
  8
1
  6
CONTINUOUS
 10
23.225138
 20
47.847410
 11
23.451421
 21
47.847410
  0
LINE
  8
1
  6
CONTINUOUS
 10
23.451421
 20
47.847410
 11
23.677704
 21
47.847410
  0
LINE
  8
1
  6
CONTINUOUS
 10
23.677704
 20
47.847410
 11
23.903986
 21
47.847410
  0
LINE
  8
1
  6
CONTINUOUS
 10
23.903986
 20
47.847410
 11
24.130269
 21
47.847410
  0
LINE
  8
1
  6
CONTINUOUS
 10
24.130269
 20
47.847410
 11
24.356552
 21
47.848896
  0
LINE
  8
1
  6
CONTINUOUS
 10
24.356552
 20
47.848896
 11
24.582835
 21
47.860634
  0
LINE
  8
1
  6
CONTINUOUS
 10
24.582835
 20
47.860634
 11
24.809118
 21
47.883023
  0
LINE
  8
1
  6
CONTINUOUS
 10
24.809118
 20
47.883023
 11
25.035401
 21
47.914816
  0
LINE
  8
1
  6
CONTINUOUS
 10
25.035401
 20
47.914816
 11
25.261683
 21
47.954766
  0
LINE
  8
1
  6
CONTINUOUS
 10
25.261683
 20
47.954766
 11
25.487966
 21
48.001627
  0
LINE
  8
1
  6
CONTINUOUS
 10
25.487966
 20
48.001627
 11
25.714249
 21
48.054153
  0
LINE
  8
1
  6
CONTINUOUS
 10
25.714249
 20
48.054153
 11
25.940532
 21
48.111098
  0
LINE
  8
1
  6
CONTINUOUS
 10
25.940532
 20
48.111098
 11
26.166815
 21
48.171214
  0
LINE
  8
1
  6
CONTINUOUS
 10
26.166815
 20
48.171214
 11
26.393098
 21
48.233255
  0
LINE
  8
1
  6
CONTINUOUS
 10
26.393098
 20
48.233255
 11
26.619380
 21
48.295975
  0
LINE
  8
1
  6
CONTINUOUS
 10
26.619380
 20
48.295975
 11
26.845663
 21
48.358127
  0
LINE
  8
1
  6
CONTINUOUS
 10
26.845663
 20
48.358127
 11
27.071946
 21
48.418466
  0
LINE
  8
1
  6
CONTINUOUS
 10
27.071946
 20
48.418466
 11
27.298229
 21
48.475744
  0
LINE
  8
1
  6
CONTINUOUS
 10
27.298229
 20
48.475744
 11
27.524512
 21
48.528715
  0
LINE
  8
1
  6
CONTINUOUS
 10
27.524512
 20
48.528715
 11
27.750795
 21
48.576133
  0
LINE
  8
1
  6
CONTINUOUS
 10
27.750795
 20
48.576133
 11
27.977077
 21
48.616751
  0
LINE
  8
1
  6
CONTINUOUS
 10
27.977077
 20
48.616751
 11
28.203360
 21
48.649322
  0
LINE
  8
1
  6
CONTINUOUS
 10
28.203360
 20
48.649322
 11
28.429643
 21
48.672601
  0
LINE
  8
1
  6
CONTINUOUS
 10
28.429643
 20
48.672601
 11
28.655926
 21
48.685341
  0
LINE
  8
1
  6
CONTINUOUS
 10
28.655926
 20
48.685341
 11
28.882209
 21
48.687410
  0
LINE
  8
1
  6
CONTINUOUS
 10
28.882209
 20
48.687410
 11
29.108492
 21
48.687410
  0
LINE
  8
1
  6
CONTINUOUS
 10
29.108492
 20
48.687410
 11
29.334774
 21
48.687410
  0
LINE
  8
1
  6
CONTINUOUS
 10
29.334774
 20
48.687410
 11
29.561057
 21
48.687410
  0
LINE
  8
1
  6
CONTINUOUS
 10
29.561057
 20
48.687410
 11
29.787340
 21
48.687410
  0
LINE
  8
1
  6
CONTINUOUS
 10
7.385340
 20
48.887410
 11
7.385340
 21
48.487410
  0
LINE
  8
1
  6
CONTINUOUS
 10
29.787340
 20
48.887410
 11
29.787340
 21
48.487410
  0
LINE
  8
1
  6
CONTINUOUS
 10
7.185340
 20
48.687410
 11
7.385340
 21
48.687410
  0
LINE
  8
1
  6
CONTINUOUS
 10
30.987340
 20
48.687410
 11
29.787340
 21
48.687410
  0
LINE
  8
1
  6
CONTINUOUS
 10
30.987340
 20
48.687410
 11
30.787340
 21
48.787410
  0
LINE
  8
1
  6
CONTINUOUS
 10
30.987340
 20
48.687410
 11
30.787340
 21
48.587410
  0
LINE
  8
1
  6
CONTINUOUS
 10
7.385340
 20
48.407410
 11
7.611623
 21
48.407410
  0
LINE
  8
1
  6
CONTINUOUS
 10
7.611623
 20
48.407410
 11
7.837906
 21
48.407410
  0
LINE
  8
1
  6
CONTINUOUS
 10
7.837906
 20
48.407410
 11
8.064188
 21
48.407410
  0
LINE
  8
1
  6
CONTINUOUS
 10
8.064188
 20
48.407410
 11
8.290471
 21
48.407410
  0
LINE
  8
1
  6
CONTINUOUS
 10
8.290471
 20
48.407410
 11
8.516754
 21
48.407156
  0
LINE
  8
1
  6
CONTINUOUS
 10
8.516754
 20
48.407156
 11
8.743037
 21
48.405554
  0
LINE
  8
1
  6
CONTINUOUS
 10
8.743037
 20
48.405554
 11
8.969320
 21
48.402534
  0
LINE
  8
1
  6
CONTINUOUS
 10
8.969320
 20
48.402534
 11
9.195603
 21
48.398162
  0
LINE
  8
1
  6
CONTINUOUS
 10
9.195603
 20
48.398162
 11
9.421885
 21
48.392501
  0
LINE
  8
1
  6
CONTINUOUS
 10
9.421885
 20
48.392501
 11
9.648168
 21
48.385617
  0
LINE
  8
1
  6
CONTINUOUS
 10
9.648168
 20
48.385617
 11
9.874451
 21
48.377574
  0
LINE
  8
1
  6
CONTINUOUS
 10
9.874451
 20
48.377574
 11
10.100734
 21
48.368436
  0
LINE
  8
1
  6
CONTINUOUS
 10
10.100734
 20
48.368436
 11
10.327017
 21
48.358269
  0
LINE
  8
1
  6
CONTINUOUS
 10
10.327017
 20
48.358269
 11
10.553300
 21
48.347137
  0
LINE
  8
1
  6
CONTINUOUS
 10
10.553300
 20
48.347137
 11
10.779582
 21
48.335104
  0
LINE
  8
1
  6
CONTINUOUS
 10
10.779582
 20
48.335104
 11
11.005865
 21
48.322236
  0
LINE
  8
1
  6
CONTINUOUS
 10
11.005865
 20
48.322236
 11
11.232148
 21
48.308596
  0
LINE
  8
1
  6
CONTINUOUS
 10
11.232148
 20
48.308596
 11
11.458431
 21
48.294250
  0
LINE
  8
1
  6
CONTINUOUS
 10
11.458431
 20
48.294250
 11
11.684714
 21
48.279262
  0
LINE
  8
1
  6
CONTINUOUS
 10
11.684714
 20
48.279262
 11
11.910997
 21
48.263697
  0
LINE
  8
1
  6
CONTINUOUS
 10
11.910997
 20
48.263697
 11
12.137279
 21
48.247619
  0
LINE
  8
1
  6
CONTINUOUS
 10
12.137279
 20
48.247619
 11
12.363562
 21
48.231094
  0
LINE
  8
1
  6
CONTINUOUS
 10
12.363562
 20
48.231094
 11
12.589845
 21
48.214185
  0
LINE
  8
1
  6
CONTINUOUS
 10
12.589845
 20
48.214185
 11
12.816128
 21
48.196957
  0
LINE
  8
1
  6
CONTINUOUS
 10
12.816128
 20
48.196957
 11
13.042411
 21
48.179476
  0
LINE
  8
1
  6
CONTINUOUS
 10
13.042411
 20
48.179476
 11
13.268694
 21
48.161805
  0
LINE
  8
1
  6
CONTINUOUS
 10
13.268694
 20
48.161805
 11
13.494976
 21
48.144009
  0
LINE
  8
1
  6
CONTINUOUS
 10
13.494976
 20
48.144009
 11
13.721259
 21
48.126153
  0
LINE
  8
1
  6
CONTINUOUS
 10
13.721259
 20
48.126153
 11
13.947542
 21
48.108302
  0
LINE
  8
1
  6
CONTINUOUS
 10
13.947542
 20
48.108302
 11
14.173825
 21
48.090520
  0
LINE
  8
1
  6
CONTINUOUS
 10
14.173825
 20
48.090520
 11
14.400108
 21
48.072872
  0
LINE
  8
1
  6
CONTINUOUS
 10
14.400108
 20
48.072872
 11
14.626391
 21
48.055422
  0
LINE
  8
1
  6
CONTINUOUS
 10
14.626391
 20
48.055422
 11
14.852673
 21
48.038235
  0
LINE
  8
1
  6
CONTINUOUS
 10
14.852673
 20
48.038235
 11
15.078956
 21
48.021376
  0
LINE
  8
1
  6
CONTINUOUS
 10
15.078956
 20
48.021376
 11
15.305239
 21
48.004910
  0
LINE
  8
1
  6
CONTINUOUS
 10
15.305239
 20
48.004910
 11
15.531522
 21
47.988900
  0
LINE
  8
1
  6
CONTINUOUS
 10
15.531522
 20
47.988900
 11
15.757805
 21
47.973413
  0
LINE
  8
1
  6
CONTINUOUS
 10
15.757805
 20
47.973413
 11
15.984087
 21
47.958511
  0
LINE
  8
1
  6
CONTINUOUS
 10
15.984087
 20
47.958511
 11
16.210370
 21
47.944261
  0
LINE
  8
1
  6
CONTINUOUS
 10
16.210370
 20
47.944261
 11
16.436653
 21
47.930726
  0
LINE
  8
1
  6
CONTINUOUS
 10
16.436653
 20
47.930726
 11
16.662936
 21
47.917971
  0
LINE
  8
1
  6
CONTINUOUS
 10
16.662936
 20
47.917971
 11
16.889219
 21
47.906061
  0
LINE
  8
1
  6
CONTINUOUS
 10
16.889219
 20
47.906061
 11
17.115502
 21
47.895061
  0
LINE
  8
1
  6
CONTINUOUS
 10
17.115502
 20
47.895061
 11
17.341784
 21
47.885034
  0
LINE
  8
1
  6
CONTINUOUS
 10
17.341784
 20
47.885034
 11
17.568067
 21
47.876047
  0
LINE
  8
1
  6
CONTINUOUS
 10
17.568067
 20
47.876047
 11
17.794350
 21
47.868163
  0
LINE
  8
1
  6
CONTINUOUS
 10
17.794350
 20
47.868163
 11
18.020633
 21
47.861447
  0
LINE
  8
1
  6
CONTINUOUS
 10
18.020633
 20
47.861447
 11
18.246916
 21
47.855963
  0
LINE
  8
1
  6
CONTINUOUS
 10
18.246916
 20
47.855963
 11
18.473199
 21
47.851778
  0
LINE
  8
1
  6
CONTINUOUS
 10
18.473199
 20
47.851778
 11
18.699481
 21
47.848954
  0
LINE
  8
1
  6
CONTINUOUS
 10
18.699481
 20
47.848954
 11
18.925764
 21
47.847556
  0
LINE
  8
1
  6
CONTINUOUS
 10
18.925764
 20
47.847556
 11
19.152047
 21
47.847410
  0
LINE
  8
1
  6
CONTINUOUS
 10
19.152047
 20
47.847410
 11
19.378330
 21
47.847410
  0
LINE
  8
1
  6
CONTINUOUS
 10
19.378330
 20
47.847410
 11
19.604613
 21
47.847410
  0
LINE
  8
1
  6
CONTINUOUS
 10
19.604613
 20
47.847410
 11
19.830896
 21
47.847410
  0
LINE
  8
1
  6
CONTINUOUS
 10
19.830896
 20
47.847410
 11
20.057178
 21
47.847410
  0
LINE
  8
1
  6
CONTINUOUS
 10
20.057178
 20
47.847410
 11
20.283461
 21
47.847410
  0
LINE
  8
1
  6
CONTINUOUS
 10
20.283461
 20
47.847410
 11
20.509744
 21
47.847410
  0
LINE
  8
1
  6
CONTINUOUS
 10
20.509744
 20
47.847410
 11
20.736027
 21
47.847410
  0
LINE
  8
1
  6
CONTINUOUS
 10
20.736027
 20
47.847410
 11
20.962310
 21
47.847410
  0
LINE
  8
1
  6
CONTINUOUS
 10
20.962310
 20
47.847410
 11
21.188593
 21
47.847410
  0
LINE
  8
1
  6
CONTINUOUS
 10
21.188593
 20
47.847410
 11
21.414875
 21
47.847410
  0
LINE
  8
1
  6
CONTINUOUS
 10
21.414875
 20
47.847410
 11
21.641158
 21
47.847410
  0
LINE
  8
1
  6
CONTINUOUS
 10
21.641158
 20
47.847410
 11
21.867441
 21
47.847410
  0
LINE
  8
1
  6
CONTINUOUS
 10
21.867441
 20
47.847410
 11
22.093724
 21
47.847410
  0
LINE
  8
1
  6
CONTINUOUS
 10
22.093724
 20
47.847410
 11
22.320007
 21
47.847410
  0
LINE
  8
1
  6
CONTINUOUS
 10
22.320007
 20
47.847410
 11
22.546289
 21
47.847410
  0
LINE
  8
1
  6
CONTINUOUS
 10
22.546289
 20
47.847410
 11
22.772572
 21
47.847410
  0
LINE
  8
1
  6
CONTINUOUS
 10
22.772572
 20
47.847410
 11
22.998855
 21
47.847410
  0
LINE
  8
1
  6
CONTINUOUS
 10
22.998855
 20
47.847410
 11
23.225138
 21
47.847410
  0
LINE
  8
1
  6
CONTINUOUS
 10
23.225138
 20
47.847410
 11
23.451421
 21
47.847410
  0
LINE
  8
1
  6
CONTINUOUS
 10
23.451421
 20
47.847410
 11
23.677704
 21
47.847410
  0
LINE
  8
1
  6
CONTINUOUS
 10
23.677704
 20
47.847410
 11
23.903986
 21
47.847410
  0
LINE
  8
1
  6
CONTINUOUS
 10
23.903986
 20
47.847410
 11
24.130269
 21
47.847410
  0
LINE
  8
1
  6
CONTINUOUS
 10
24.130269
 20
47.847410
 11
24.356552
 21
47.848401
  0
LINE
  8
1
  6
CONTINUOUS
 10
24.356552
 20
47.848401
 11
24.582835
 21
47.856226
  0
LINE
  8
1
  6
CONTINUOUS
 10
24.582835
 20
47.856226
 11
24.809118
 21
47.871152
  0
LINE
  8
1
  6
CONTINUOUS
 10
24.809118
 20
47.871152
 11
25.035401
 21
47.892347
  0
LINE
  8
1
  6
CONTINUOUS
 10
25.035401
 20
47.892347
 11
25.261683
 21
47.918981
  0
LINE
  8
1
  6
CONTINUOUS
 10
25.261683
 20
47.918981
 11
25.487966
 21
47.950222
  0
LINE
  8
1
  6
CONTINUOUS
 10
25.487966
 20
47.950222
 11
25.714249
 21
47.985239
  0
LINE
  8
1
  6
CONTINUOUS
 10
25.714249
 20
47.985239
 11
25.940532
 21
48.023202
  0
LINE
  8
1
  6
CONTINUOUS
 10
25.940532
 20
48.023202
 11
26.166815
 21
48.063279
  0
LINE
  8
1
  6
CONTINUOUS
 10
26.166815
 20
48.063279
 11
26.393098
 21
48.104640
  0
LINE
  8
1
  6
CONTINUOUS
 10
26.393098
 20
48.104640
 11
26.619380
 21
48.146453
  0
LINE
  8
1
  6
CONTINUOUS
 10
26.619380
 20
48.146453
 11
26.845663
 21
48.187888
  0
LINE
  8
1
  6
CONTINUOUS
 10
26.845663
 20
48.187888
 11
27.071946
 21
48.228114
  0
LINE
  8
1
  6
CONTINUOUS
 10
27.071946
 20
48.228114
 11
27.298229
 21
48.266299
  0
LINE
  8
1
  6
CONTINUOUS
 10
27.298229
 20
48.266299
 11
27.524512
 21
48.301613
  0
LINE
  8
1
  6
CONTINUOUS
 10
27.524512
 20
48.301613
 11
27.750795
 21
48.333225
  0
LINE
  8
1
  6
CONTINUOUS
 10
27.750795
 20
48.333225
 11
27.977077
 21
48.360304
  0
LINE
  8
1
  6
CONTINUOUS
 10
27.977077
 20
48.360304
 11
28.203360
 21
48.382018
  0
LINE
  8
1
  6
CONTINUOUS
 10
28.203360
 20
48.382018
 11
28.429643
 21
48.397538
  0
LINE
  8
1
  6
CONTINUOUS
 10
28.429643
 20
48.397538
 11
28.655926
 21
48.406031
  0
LINE
  8
1
  6
CONTINUOUS
 10
28.655926
 20
48.406031
 11
28.882209
 21
48.407410
  0
LINE
  8
1
  6
CONTINUOUS
 10
28.882209
 20
48.407410
 11
29.108492
 21
48.407410
  0
LINE
  8
1
  6
CONTINUOUS
 10
29.108492
 20
48.407410
 11
29.334774
 21
48.407410
  0
LINE
  8
1
  6
CONTINUOUS
 10
29.334774
 20
48.407410
 11
29.561057
 21
48.407410
  0
LINE
  8
1
  6
CONTINUOUS
 10
29.561057
 20
48.407410
 11
29.787340
 21
48.407410
  0
LINE
  8
1
  6
CONTINUOUS
 10
7.385340
 20
48.607410
 11
7.385340
 21
48.207410
  0
LINE
  8
1
  6
CONTINUOUS
 10
29.787340
 20
48.607410
 11
29.787340
 21
48.207410
  0
LINE
  8
1
  6
CONTINUOUS
 10
7.185340
 20
48.407410
 11
7.385340
 21
48.407410
  0
LINE
  8
1
  6
CONTINUOUS
 10
30.987340
 20
48.407410
 11
29.787340
 21
48.407410
  0
LINE
  8
1
  6
CONTINUOUS
 10
30.987340
 20
48.407410
 11
30.787340
 21
48.507410
  0
LINE
  8
1
  6
CONTINUOUS
 10
30.987340
 20
48.407410
 11
30.787340
 21
48.307410
  0
LINE
  8
2
  6
CONTINUOUS
 10
9.785340
 20
43.247410
 11
29.184240
 21
43.247410
  0
LINE
  8
2
  6
CONTINUOUS
 10
9.785340
 20
41.647410
 11
29.184240
 21
41.647410
  0
LINE
  8
2
  6
CONTINUOUS
 10
7.385340
 20
43.247410
 11
9.785340
 21
43.247410
  0
LINE
  8
2
  6
CONTINUOUS
 10
7.385340
 20
41.647410
 11
9.785340
 21
41.647410
  0
LINE
  8
2
  6
CONTINUOUS
 10
7.385340
 20
43.247410
 11
7.385340
 21
41.647410
  0
LINE
  8
2
  6
CONTINUOUS
 10
9.785340
 20
43.247410
 11
9.785340
 21
41.647410
  0
LINE
  8
2
  6
CONTINUOUS
 10
29.184240
 20
43.247410
 11
29.786440
 21
43.247410
  0
LINE
  8
2
  6
CONTINUOUS
 10
29.184240
 20
41.647410
 11
29.786440
 21
41.647410
  0
LINE
  8
2
  6
CONTINUOUS
 10
29.184240
 20
43.247410
 11
29.184240
 21
41.647410
  0
LINE
  8
2
  6
CONTINUOUS
 10
29.786440
 20
43.247410
 11
29.786440
 21
41.647410
  0
LINE
  8
1
  6
CONTINUOUS
 10
7.385340
 20
42.587410
 11
7.611623
 21
42.587410
  0
LINE
  8
1
  6
CONTINUOUS
 10
7.611623
 20
42.587410
 11
7.837906
 21
42.587410
  0
LINE
  8
1
  6
CONTINUOUS
 10
7.837906
 20
42.587410
 11
8.064188
 21
42.587410
  0
LINE
  8
1
  6
CONTINUOUS
 10
8.064188
 20
42.587410
 11
8.290471
 21
42.587410
  0
LINE
  8
1
  6
CONTINUOUS
 10
8.290471
 20
42.587410
 11
8.516754
 21
42.587029
  0
LINE
  8
1
  6
CONTINUOUS
 10
8.516754
 20
42.587029
 11
8.743037
 21
42.584626
  0
LINE
  8
1
  6
CONTINUOUS
 10
8.743037
 20
42.584626
 11
8.969320
 21
42.580097
  0
LINE
  8
1
  6
CONTINUOUS
 10
8.969320
 20
42.580097
 11
9.195603
 21
42.573538
  0
LINE
  8
1
  6
CONTINUOUS
 10
9.195603
 20
42.573538
 11
9.421885
 21
42.565047
  0
LINE
  8
1
  6
CONTINUOUS
 10
9.421885
 20
42.565047
 11
9.648168
 21
42.554721
  0
LINE
  8
1
  6
CONTINUOUS
 10
9.648168
 20
42.554721
 11
9.874451
 21
42.542656
  0
LINE
  8
1
  6
CONTINUOUS
 10
9.874451
 20
42.542656
 11
10.100734
 21
42.528949
  0
LINE
  8
1
  6
CONTINUOUS
 10
10.100734
 20
42.528949
 11
10.327017
 21
42.513699
  0
LINE
  8
1
  6
CONTINUOUS
 10
10.327017
 20
42.513699
 11
10.553300
 21
42.497000
  0
LINE
  8
1
  6
CONTINUOUS
 10
10.553300
 20
42.497000
 11
10.779582
 21
42.478951
  0
LINE
  8
1
  6
CONTINUOUS
 10
10.779582
 20
42.478951
 11
11.005865
 21
42.459649
  0
LINE
  8
1
  6
CONTINUOUS
 10
11.005865
 20
42.459649
 11
11.232148
 21
42.439189
  0
LINE
  8
1
  6
CONTINUOUS
 10
11.232148
 20
42.439189
 11
11.458431
 21
42.417670
  0
LINE
  8
1
  6
CONTINUOUS
 10
11.458431
 20
42.417670
 11
11.684714
 21
42.395188
  0
LINE
  8
1
  6
CONTINUOUS
 10
11.684714
 20
42.395188
 11
11.910997
 21
42.371841
  0
LINE
  8
1
  6
CONTINUOUS
 10
11.910997
 20
42.371841
 11
12.137279
 21
42.347724
  0
LINE
  8
1
  6
CONTINUOUS
 10
12.137279
 20
42.347724
 11
12.363562
 21
42.322936
  0
LINE
  8
1
  6
CONTINUOUS
 10
12.363562
 20
42.322936
 11
12.589845
 21
42.297572
  0
LINE
  8
1
  6
CONTINUOUS
 10
12.589845
 20
42.297572
 11
12.816128
 21
42.271731
  0
LINE
  8
1
  6
CONTINUOUS
 10
12.816128
 20
42.271731
 11
13.042411
 21
42.245508
  0
LINE
  8
1
  6
CONTINUOUS
 10
13.042411
 20
42.245508
 11
13.268694
 21
42.219002
  0
LINE
  8
1
  6
CONTINUOUS
 10
13.268694
 20
42.219002
 11
13.494976
 21
42.192308
  0
LINE
  8
1
  6
CONTINUOUS
 10
13.494976
 20
42.192308
 11
13.721259
 21
42.165525
  0
LINE
  8
1
  6
CONTINUOUS
 10
13.721259
 20
42.165525
 11
13.947542
 21
42.138748
  0
LINE
  8
1
  6
CONTINUOUS
 10
13.947542
 20
42.138748
 11
14.173825
 21
42.112075
  0
LINE
  8
1
  6
CONTINUOUS
 10
14.173825
 20
42.112075
 11
14.400108
 21
42.085603
  0
LINE
  8
1
  6
CONTINUOUS
 10
14.400108
 20
42.085603
 11
14.626391
 21
42.059428
  0
LINE
  8
1
  6
CONTINUOUS
 10
14.626391
 20
42.059428
 11
14.852673
 21
42.033648
  0
LINE
  8
1
  6
CONTINUOUS
 10
14.852673
 20
42.033648
 11
15.078956
 21
42.008360
  0
LINE
  8
1
  6
CONTINUOUS
 10
15.078956
 20
42.008360
 11
15.305239
 21
41.983660
  0
LINE
  8
1
  6
CONTINUOUS
 10
15.305239
 20
41.983660
 11
15.531522
 21
41.959646
  0
LINE
  8
1
  6
CONTINUOUS
 10
15.531522
 20
41.959646
 11
15.757805
 21
41.936414
  0
LINE
  8
1
  6
CONTINUOUS
 10
15.757805
 20
41.936414
 11
15.984087
 21
41.914062
  0
LINE
  8
1
  6
CONTINUOUS
 10
15.984087
 20
41.914062
 11
16.210370
 21
41.892686
  0
LINE
  8
1
  6
CONTINUOUS
 10
16.210370
 20
41.892686
 11
16.436653
 21
41.872383
  0
LINE
  8
1
  6
CONTINUOUS
 10
16.436653
 20
41.872383
 11
16.662936
 21
41.853251
  0
LINE
  8
1
  6
CONTINUOUS
 10
16.662936
 20
41.853251
 11
16.889219
 21
41.835386
  0
LINE
  8
1
  6
CONTINUOUS
 10
16.889219
 20
41.835386
 11
17.115502
 21
41.818886
  0
LINE
  8
1
  6
CONTINUOUS
 10
17.115502
 20
41.818886
 11
17.341784
 21
41.803846
  0
LINE
  8
1
  6
CONTINUOUS
 10
17.341784
 20
41.803846
 11
17.568067
 21
41.790365
  0
LINE
  8
1
  6
CONTINUOUS
 10
17.568067
 20
41.790365
 11
17.794350
 21
41.778539
  0
LINE
  8
1
  6
CONTINUOUS
 10
17.794350
 20
41.778539
 11
18.020633
 21
41.768465
  0
LINE
  8
1
  6
CONTINUOUS
 10
18.020633
 20
41.768465
 11
18.246916
 21
41.760240
  0
LINE
  8
1
  6
CONTINUOUS
 10
18.246916
 20
41.760240
 11
18.473199
 21
41.753961
  0
LINE
  8
1
  6
CONTINUOUS
 10
18.473199
 20
41.753961
 11
18.699481
 21
41.749725
  0
LINE
  8
1
  6
CONTINUOUS
 10
18.699481
 20
41.749725
 11
18.925764
 21
41.747629
  0
LINE
  8
1
  6
CONTINUOUS
 10
18.925764
 20
41.747629
 11
19.152047
 21
41.747410
  0
LINE
  8
1
  6
CONTINUOUS
 10
19.152047
 20
41.747410
 11
19.378330
 21
41.747410
  0
LINE
  8
1
  6
CONTINUOUS
 10
19.378330
 20
41.747410
 11
19.604613
 21
41.747410
  0
LINE
  8
1
  6
CONTINUOUS
 10
19.604613
 20
41.747410
 11
19.830896
 21
41.747410
  0
LINE
  8
1
  6
CONTINUOUS
 10
19.830896
 20
41.747410
 11
20.057178
 21
41.747410
  0
LINE
  8
1
  6
CONTINUOUS
 10
20.057178
 20
41.747410
 11
20.283461
 21
41.747410
  0
LINE
  8
1
  6
CONTINUOUS
 10
20.283461
 20
41.747410
 11
20.509744
 21
41.747410
  0
LINE
  8
1
  6
CONTINUOUS
 10
20.509744
 20
41.747410
 11
20.736027
 21
41.747410
  0
LINE
  8
1
  6
CONTINUOUS
 10
20.736027
 20
41.747410
 11
20.962310
 21
41.747410
  0
LINE
  8
1
  6
CONTINUOUS
 10
20.962310
 20
41.747410
 11
21.188593
 21
41.747410
  0
LINE
  8
1
  6
CONTINUOUS
 10
21.188593
 20
41.747410
 11
21.414875
 21
41.747410
  0
LINE
  8
1
  6
CONTINUOUS
 10
21.414875
 20
41.747410
 11
21.641158
 21
41.747410
  0
LINE
  8
1
  6
CONTINUOUS
 10
21.641158
 20
41.747410
 11
21.867441
 21
41.747410
  0
LINE
  8
1
  6
CONTINUOUS
 10
21.867441
 20
41.747410
 11
22.093724
 21
41.747410
  0
LINE
  8
1
  6
CONTINUOUS
 10
22.093724
 20
41.747410
 11
22.320007
 21
41.747410
  0
LINE
  8
1
  6
CONTINUOUS
 10
22.320007
 20
41.747410
 11
22.546289
 21
41.747410
  0
LINE
  8
1
  6
CONTINUOUS
 10
22.546289
 20
41.747410
 11
22.772572
 21
41.747410
  0
LINE
  8
1
  6
CONTINUOUS
 10
22.772572
 20
41.747410
 11
22.998855
 21
41.747410
  0
LINE
  8
1
  6
CONTINUOUS
 10
22.998855
 20
41.747410
 11
23.225138
 21
41.747410
  0
LINE
  8
1
  6
CONTINUOUS
 10
23.225138
 20
41.747410
 11
23.451421
 21
41.747410
  0
LINE
  8
1
  6
CONTINUOUS
 10
23.451421
 20
41.747410
 11
23.677704
 21
41.747410
  0
LINE
  8
1
  6
CONTINUOUS
 10
23.677704
 20
41.747410
 11
23.903986
 21
41.747410
  0
LINE
  8
1
  6
CONTINUOUS
 10
23.903986
 20
41.747410
 11
24.130269
 21
41.747410
  0
LINE
  8
1
  6
CONTINUOUS
 10
24.130269
 20
41.747410
 11
24.356552
 21
41.748896
  0
LINE
  8
1
  6
CONTINUOUS
 10
24.356552
 20
41.748896
 11
24.582835
 21
41.760634
  0
LINE
  8
1
  6
CONTINUOUS
 10
24.582835
 20
41.760634
 11
24.809118
 21
41.783023
  0
LINE
  8
1
  6
CONTINUOUS
 10
24.809118
 20
41.783023
 11
25.035401
 21
41.814816
  0
LINE
  8
1
  6
CONTINUOUS
 10
25.035401
 20
41.814816
 11
25.261683
 21
41.854766
  0
LINE
  8
1
  6
CONTINUOUS
 10
25.261683
 20
41.854766
 11
25.487966
 21
41.901627
  0
LINE
  8
1
  6
CONTINUOUS
 10
25.487966
 20
41.901627
 11
25.714249
 21
41.954153
  0
LINE
  8
1
  6
CONTINUOUS
 10
25.714249
 20
41.954153
 11
25.940532
 21
42.011098
  0
LINE
  8
1
  6
CONTINUOUS
 10
25.940532
 20
42.011098
 11
26.166815
 21
42.071214
  0
LINE
  8
1
  6
CONTINUOUS
 10
26.166815
 20
42.071214
 11
26.393098
 21
42.133255
  0
LINE
  8
1
  6
CONTINUOUS
 10
26.393098
 20
42.133255
 11
26.619380
 21
42.195975
  0
LINE
  8
1
  6
CONTINUOUS
 10
26.619380
 20
42.195975
 11
26.845663
 21
42.258127
  0
LINE
  8
1
  6
CONTINUOUS
 10
26.845663
 20
42.258127
 11
27.071946
 21
42.318466
  0
LINE
  8
1
  6
CONTINUOUS
 10
27.071946
 20
42.318466
 11
27.298229
 21
42.375744
  0
LINE
  8
1
  6
CONTINUOUS
 10
27.298229
 20
42.375744
 11
27.524512
 21
42.428715
  0
LINE
  8
1
  6
CONTINUOUS
 10
27.524512
 20
42.428715
 11
27.750795
 21
42.476133
  0
LINE
  8
1
  6
CONTINUOUS
 10
27.750795
 20
42.476133
 11
27.977077
 21
42.516751
  0
LINE
  8
1
  6
CONTINUOUS
 10
27.977077
 20
42.516751
 11
28.203360
 21
42.549322
  0
LINE
  8
1
  6
CONTINUOUS
 10
28.203360
 20
42.549322
 11
28.429643
 21
42.572601
  0
LINE
  8
1
  6
CONTINUOUS
 10
28.429643
 20
42.572601
 11
28.655926
 21
42.585341
  0
LINE
  8
1
  6
CONTINUOUS
 10
28.655926
 20
42.585341
 11
28.882209
 21
42.587410
  0
LINE
  8
1
  6
CONTINUOUS
 10
28.882209
 20
42.587410
 11
29.108492
 21
42.587410
  0
LINE
  8
1
  6
CONTINUOUS
 10
29.108492
 20
42.587410
 11
29.334774
 21
42.587410
  0
LINE
  8
1
  6
CONTINUOUS
 10
29.334774
 20
42.587410
 11
29.561057
 21
42.587410
  0
LINE
  8
1
  6
CONTINUOUS
 10
29.561057
 20
42.587410
 11
29.787340
 21
42.587410
  0
LINE
  8
1
  6
CONTINUOUS
 10
7.385340
 20
42.787410
 11
7.385340
 21
42.387410
  0
LINE
  8
1
  6
CONTINUOUS
 10
29.787340
 20
42.787410
 11
29.787340
 21
42.387410
  0
LINE
  8
1
  6
CONTINUOUS
 10
7.185340
 20
42.587410
 11
7.385340
 21
42.587410
  0
LINE
  8
1
  6
CONTINUOUS
 10
30.987340
 20
42.587410
 11
29.787340
 21
42.587410
  0
LINE
  8
1
  6
CONTINUOUS
 10
30.987340
 20
42.587410
 11
30.787340
 21
42.687410
  0
LINE
  8
1
  6
CONTINUOUS
 10
30.987340
 20
42.587410
 11
30.787340
 21
42.487410
  0
LINE
  8
1
  6
CONTINUOUS
 10
7.385340
 20
42.307410
 11
7.611623
 21
42.307410
  0
LINE
  8
1
  6
CONTINUOUS
 10
7.611623
 20
42.307410
 11
7.837906
 21
42.307410
  0
LINE
  8
1
  6
CONTINUOUS
 10
7.837906
 20
42.307410
 11
8.064188
 21
42.307410
  0
LINE
  8
1
  6
CONTINUOUS
 10
8.064188
 20
42.307410
 11
8.290471
 21
42.307410
  0
LINE
  8
1
  6
CONTINUOUS
 10
8.290471
 20
42.307410
 11
8.516754
 21
42.307156
  0
LINE
  8
1
  6
CONTINUOUS
 10
8.516754
 20
42.307156
 11
8.743037
 21
42.305554
  0
LINE
  8
1
  6
CONTINUOUS
 10
8.743037
 20
42.305554
 11
8.969320
 21
42.302534
  0
LINE
  8
1
  6
CONTINUOUS
 10
8.969320
 20
42.302534
 11
9.195603
 21
42.298162
  0
LINE
  8
1
  6
CONTINUOUS
 10
9.195603
 20
42.298162
 11
9.421885
 21
42.292501
  0
LINE
  8
1
  6
CONTINUOUS
 10
9.421885
 20
42.292501
 11
9.648168
 21
42.285617
  0
LINE
  8
1
  6
CONTINUOUS
 10
9.648168
 20
42.285617
 11
9.874451
 21
42.277574
  0
LINE
  8
1
  6
CONTINUOUS
 10
9.874451
 20
42.277574
 11
10.100734
 21
42.268436
  0
LINE
  8
1
  6
CONTINUOUS
 10
10.100734
 20
42.268436
 11
10.327017
 21
42.258269
  0
LINE
  8
1
  6
CONTINUOUS
 10
10.327017
 20
42.258269
 11
10.553300
 21
42.247137
  0
LINE
  8
1
  6
CONTINUOUS
 10
10.553300
 20
42.247137
 11
10.779582
 21
42.235104
  0
LINE
  8
1
  6
CONTINUOUS
 10
10.779582
 20
42.235104
 11
11.005865
 21
42.222236
  0
LINE
  8
1
  6
CONTINUOUS
 10
11.005865
 20
42.222236
 11
11.232148
 21
42.208596
  0
LINE
  8
1
  6
CONTINUOUS
 10
11.232148
 20
42.208596
 11
11.458431
 21
42.194250
  0
LINE
  8
1
  6
CONTINUOUS
 10
11.458431
 20
42.194250
 11
11.684714
 21
42.179262
  0
LINE
  8
1
  6
CONTINUOUS
 10
11.684714
 20
42.179262
 11
11.910997
 21
42.163697
  0
LINE
  8
1
  6
CONTINUOUS
 10
11.910997
 20
42.163697
 11
12.137279
 21
42.147619
  0
LINE
  8
1
  6
CONTINUOUS
 10
12.137279
 20
42.147619
 11
12.363562
 21
42.131094
  0
LINE
  8
1
  6
CONTINUOUS
 10
12.363562
 20
42.131094
 11
12.589845
 21
42.114185
  0
LINE
  8
1
  6
CONTINUOUS
 10
12.589845
 20
42.114185
 11
12.816128
 21
42.096957
  0
LINE
  8
1
  6
CONTINUOUS
 10
12.816128
 20
42.096957
 11
13.042411
 21
42.079476
  0
LINE
  8
1
  6
CONTINUOUS
 10
13.042411
 20
42.079476
 11
13.268694
 21
42.061805
  0
LINE
  8
1
  6
CONTINUOUS
 10
13.268694
 20
42.061805
 11
13.494976
 21
42.044009
  0
LINE
  8
1
  6
CONTINUOUS
 10
13.494976
 20
42.044009
 11
13.721259
 21
42.026153
  0
LINE
  8
1
  6
CONTINUOUS
 10
13.721259
 20
42.026153
 11
13.947542
 21
42.008302
  0
LINE
  8
1
  6
CONTINUOUS
 10
13.947542
 20
42.008302
 11
14.173825
 21
41.990520
  0
LINE
  8
1
  6
CONTINUOUS
 10
14.173825
 20
41.990520
 11
14.400108
 21
41.972872
  0
LINE
  8
1
  6
CONTINUOUS
 10
14.400108
 20
41.972872
 11
14.626391
 21
41.955422
  0
LINE
  8
1
  6
CONTINUOUS
 10
14.626391
 20
41.955422
 11
14.852673
 21
41.938235
  0
LINE
  8
1
  6
CONTINUOUS
 10
14.852673
 20
41.938235
 11
15.078956
 21
41.921376
  0
LINE
  8
1
  6
CONTINUOUS
 10
15.078956
 20
41.921376
 11
15.305239
 21
41.904910
  0
LINE
  8
1
  6
CONTINUOUS
 10
15.305239
 20
41.904910
 11
15.531522
 21
41.888900
  0
LINE
  8
1
  6
CONTINUOUS
 10
15.531522
 20
41.888900
 11
15.757805
 21
41.873413
  0
LINE
  8
1
  6
CONTINUOUS
 10
15.757805
 20
41.873413
 11
15.984087
 21
41.858511
  0
LINE
  8
1
  6
CONTINUOUS
 10
15.984087
 20
41.858511
 11
16.210370
 21
41.844261
  0
LINE
  8
1
  6
CONTINUOUS
 10
16.210370
 20
41.844261
 11
16.436653
 21
41.830726
  0
LINE
  8
1
  6
CONTINUOUS
 10
16.436653
 20
41.830726
 11
16.662936
 21
41.817971
  0
LINE
  8
1
  6
CONTINUOUS
 10
16.662936
 20
41.817971
 11
16.889219
 21
41.806061
  0
LINE
  8
1
  6
CONTINUOUS
 10
16.889219
 20
41.806061
 11
17.115502
 21
41.795061
  0
LINE
  8
1
  6
CONTINUOUS
 10
17.115502
 20
41.795061
 11
17.341784
 21
41.785034
  0
LINE
  8
1
  6
CONTINUOUS
 10
17.341784
 20
41.785034
 11
17.568067
 21
41.776047
  0
LINE
  8
1
  6
CONTINUOUS
 10
17.568067
 20
41.776047
 11
17.794350
 21
41.768163
  0
LINE
  8
1
  6
CONTINUOUS
 10
17.794350
 20
41.768163
 11
18.020633
 21
41.761447
  0
LINE
  8
1
  6
CONTINUOUS
 10
18.020633
 20
41.761447
 11
18.246916
 21
41.755963
  0
LINE
  8
1
  6
CONTINUOUS
 10
18.246916
 20
41.755963
 11
18.473199
 21
41.751778
  0
LINE
  8
1
  6
CONTINUOUS
 10
18.473199
 20
41.751778
 11
18.699481
 21
41.748954
  0
LINE
  8
1
  6
CONTINUOUS
 10
18.699481
 20
41.748954
 11
18.925764
 21
41.747556
  0
LINE
  8
1
  6
CONTINUOUS
 10
18.925764
 20
41.747556
 11
19.152047
 21
41.747410
  0
LINE
  8
1
  6
CONTINUOUS
 10
19.152047
 20
41.747410
 11
19.378330
 21
41.747410
  0
LINE
  8
1
  6
CONTINUOUS
 10
19.378330
 20
41.747410
 11
19.604613
 21
41.747410
  0
LINE
  8
1
  6
CONTINUOUS
 10
19.604613
 20
41.747410
 11
19.830896
 21
41.747410
  0
LINE
  8
1
  6
CONTINUOUS
 10
19.830896
 20
41.747410
 11
20.057178
 21
41.747410
  0
LINE
  8
1
  6
CONTINUOUS
 10
20.057178
 20
41.747410
 11
20.283461
 21
41.747410
  0
LINE
  8
1
  6
CONTINUOUS
 10
20.283461
 20
41.747410
 11
20.509744
 21
41.747410
  0
LINE
  8
1
  6
CONTINUOUS
 10
20.509744
 20
41.747410
 11
20.736027
 21
41.747410
  0
LINE
  8
1
  6
CONTINUOUS
 10
20.736027
 20
41.747410
 11
20.962310
 21
41.747410
  0
LINE
  8
1
  6
CONTINUOUS
 10
20.962310
 20
41.747410
 11
21.188593
 21
41.747410
  0
LINE
  8
1
  6
CONTINUOUS
 10
21.188593
 20
41.747410
 11
21.414875
 21
41.747410
  0
LINE
  8
1
  6
CONTINUOUS
 10
21.414875
 20
41.747410
 11
21.641158
 21
41.747410
  0
LINE
  8
1
  6
CONTINUOUS
 10
21.641158
 20
41.747410
 11
21.867441
 21
41.747410
  0
LINE
  8
1
  6
CONTINUOUS
 10
21.867441
 20
41.747410
 11
22.093724
 21
41.747410
  0
LINE
  8
1
  6
CONTINUOUS
 10
22.093724
 20
41.747410
 11
22.320007
 21
41.747410
  0
LINE
  8
1
  6
CONTINUOUS
 10
22.320007
 20
41.747410
 11
22.546289
 21
41.747410
  0
LINE
  8
1
  6
CONTINUOUS
 10
22.546289
 20
41.747410
 11
22.772572
 21
41.747410
  0
LINE
  8
1
  6
CONTINUOUS
 10
22.772572
 20
41.747410
 11
22.998855
 21
41.747410
  0
LINE
  8
1
  6
CONTINUOUS
 10
22.998855
 20
41.747410
 11
23.225138
 21
41.747410
  0
LINE
  8
1
  6
CONTINUOUS
 10
23.225138
 20
41.747410
 11
23.451421
 21
41.747410
  0
LINE
  8
1
  6
CONTINUOUS
 10
23.451421
 20
41.747410
 11
23.677704
 21
41.747410
  0
LINE
  8
1
  6
CONTINUOUS
 10
23.677704
 20
41.747410
 11
23.903986
 21
41.747410
  0
LINE
  8
1
  6
CONTINUOUS
 10
23.903986
 20
41.747410
 11
24.130269
 21
41.747410
  0
LINE
  8
1
  6
CONTINUOUS
 10
24.130269
 20
41.747410
 11
24.356552
 21
41.748401
  0
LINE
  8
1
  6
CONTINUOUS
 10
24.356552
 20
41.748401
 11
24.582835
 21
41.756226
  0
LINE
  8
1
  6
CONTINUOUS
 10
24.582835
 20
41.756226
 11
24.809118
 21
41.771152
  0
LINE
  8
1
  6
CONTINUOUS
 10
24.809118
 20
41.771152
 11
25.035401
 21
41.792347
  0
LINE
  8
1
  6
CONTINUOUS
 10
25.035401
 20
41.792347
 11
25.261683
 21
41.818981
  0
LINE
  8
1
  6
CONTINUOUS
 10
25.261683
 20
41.818981
 11
25.487966
 21
41.850222
  0
LINE
  8
1
  6
CONTINUOUS
 10
25.487966
 20
41.850222
 11
25.714249
 21
41.885239
  0
LINE
  8
1
  6
CONTINUOUS
 10
25.714249
 20
41.885239
 11
25.940532
 21
41.923202
  0
LINE
  8
1
  6
CONTINUOUS
 10
25.940532
 20
41.923202
 11
26.166815
 21
41.963279
  0
LINE
  8
1
  6
CONTINUOUS
 10
26.166815
 20
41.963279
 11
26.393098
 21
42.004640
  0
LINE
  8
1
  6
CONTINUOUS
 10
26.393098
 20
42.004640
 11
26.619380
 21
42.046453
  0
LINE
  8
1
  6
CONTINUOUS
 10
26.619380
 20
42.046453
 11
26.845663
 21
42.087888
  0
LINE
  8
1
  6
CONTINUOUS
 10
26.845663
 20
42.087888
 11
27.071946
 21
42.128114
  0
LINE
  8
1
  6
CONTINUOUS
 10
27.071946
 20
42.128114
 11
27.298229
 21
42.166299
  0
LINE
  8
1
  6
CONTINUOUS
 10
27.298229
 20
42.166299
 11
27.524512
 21
42.201613
  0
LINE
  8
1
  6
CONTINUOUS
 10
27.524512
 20
42.201613
 11
27.750795
 21
42.233225
  0
LINE
  8
1
  6
CONTINUOUS
 10
27.750795
 20
42.233225
 11
27.977077
 21
42.260304
  0
LINE
  8
1
  6
CONTINUOUS
 10
27.977077
 20
42.260304
 11
28.203360
 21
42.282018
  0
LINE
  8
1
  6
CONTINUOUS
 10
28.203360
 20
42.282018
 11
28.429643
 21
42.297538
  0
LINE
  8
1
  6
CONTINUOUS
 10
28.429643
 20
42.297538
 11
28.655926
 21
42.306031
  0
LINE
  8
1
  6
CONTINUOUS
 10
28.655926
 20
42.306031
 11
28.882209
 21
42.307410
  0
LINE
  8
1
  6
CONTINUOUS
 10
28.882209
 20
42.307410
 11
29.108492
 21
42.307410
  0
LINE
  8
1
  6
CONTINUOUS
 10
29.108492
 20
42.307410
 11
29.334774
 21
42.307410
  0
LINE
  8
1
  6
CONTINUOUS
 10
29.334774
 20
42.307410
 11
29.561057
 21
42.307410
  0
LINE
  8
1
  6
CONTINUOUS
 10
29.561057
 20
42.307410
 11
29.787340
 21
42.307410
  0
LINE
  8
1
  6
CONTINUOUS
 10
7.385340
 20
42.507410
 11
7.385340
 21
42.107410
  0
LINE
  8
1
  6
CONTINUOUS
 10
29.787340
 20
42.507410
 11
29.787340
 21
42.107410
  0
LINE
  8
1
  6
CONTINUOUS
 10
7.185340
 20
42.307410
 11
7.385340
 21
42.307410
  0
LINE
  8
1
  6
CONTINUOUS
 10
30.987340
 20
42.307410
 11
29.787340
 21
42.307410
  0
LINE
  8
1
  6
CONTINUOUS
 10
30.987340
 20
42.307410
 11
30.787340
 21
42.407410
  0
LINE
  8
1
  6
CONTINUOUS
 10
30.987340
 20
42.307410
 11
30.787340
 21
42.207410
  0
LINE
  8
1
  6
ESTILO_TQS_0003
 10
7.385340
 20
57.147410
 11
7.385340
 21
39.047410
  0
CIRCLE
  8
1
  6
CONTINUOUS
 10
7.385340
 20
57.357410
 40
0.210000
  0
LINE
  8
1
  6
CONTINUOUS
 10
7.235340
 20
56.647410
 11
9.571885
 21
56.647410
  0
LINE
  8
1
  6
CONTINUOUS
 10
7.314629
 20
56.576699
 11
7.456051
 21
56.718121
  0
LINE
  8
1
  6
CONTINUOUS
 10
9.351175
 20
56.576699
 11
9.492596
 21
56.718121
  0
LINE
  8
2
  6
CONTINUOUS
 10
7.385340
 20
56.647410
 11
7.385340
 21
56.647410
  0
LINE
  8
2
  6
CONTINUOUS
 10
9.421885
 20
56.647410
 11
9.421885
 21
56.647410
  0
LINE
  8
1
  6
ESTILO_TQS_0003
 10
9.421885
 20
57.147410
 11
9.421885
 21
39.047410
  0
CIRCLE
  8
1
  6
CONTINUOUS
 10
9.421885
 20
57.357410
 40
0.210000
  0
LINE
  8
1
  6
CONTINUOUS
 10
9.271885
 20
56.647410
 11
11.608431
 21
56.647410
  0
LINE
  8
1
  6
CONTINUOUS
 10
9.351175
 20
56.576699
 11
9.492596
 21
56.718121
  0
LINE
  8
1
  6
CONTINUOUS
 10
11.387720
 20
56.576699
 11
11.529142
 21
56.718121
  0
LINE
  8
2
  6
CONTINUOUS
 10
9.421885
 20
56.647410
 11
9.421885
 21
56.647410
  0
LINE
  8
2
  6
CONTINUOUS
 10
11.458431
 20
56.647410
 11
11.458431
 21
56.647410
  0
LINE
  8
1
  6
ESTILO_TQS_0003
 10
11.458431
 20
57.147410
 11
11.458431
 21
39.047410
  0
CIRCLE
  8
1
  6
CONTINUOUS
 10
11.458431
 20
57.357410
 40
0.210000
  0
LINE
  8
1
  6
CONTINUOUS
 10
11.308431
 20
56.647410
 11
13.644976
 21
56.647410
  0
LINE
  8
1
  6
CONTINUOUS
 10
11.387720
 20
56.576699
 11
11.529142
 21
56.718121
  0
LINE
  8
1
  6
CONTINUOUS
 10
13.424266
 20
56.576699
 11
13.565687
 21
56.718121
  0
LINE
  8
2
  6
CONTINUOUS
 10
11.458431
 20
56.647410
 11
11.458431
 21
56.647410
  0
LINE
  8
2
  6
CONTINUOUS
 10
13.494976
 20
56.647410
 11
13.494976
 21
56.647410
  0
LINE
  8
1
  6
ESTILO_TQS_0003
 10
13.494976
 20
57.147410
 11
13.494976
 21
39.047410
  0
CIRCLE
  8
1
  6
CONTINUOUS
 10
13.494976
 20
57.357410
 40
0.210000
  0
LINE
  8
1
  6
CONTINUOUS
 10
13.344976
 20
56.647410
 11
15.681522
 21
56.647410
  0
LINE
  8
1
  6
CONTINUOUS
 10
13.424266
 20
56.576699
 11
13.565687
 21
56.718121
  0
LINE
  8
1
  6
CONTINUOUS
 10
15.460811
 20
56.576699
 11
15.602232
 21
56.718121
  0
LINE
  8
2
  6
CONTINUOUS
 10
13.494976
 20
56.647410
 11
13.494976
 21
56.647410
  0
LINE
  8
2
  6
CONTINUOUS
 10
15.531522
 20
56.647410
 11
15.531522
 21
56.647410
  0
LINE
  8
1
  6
ESTILO_TQS_0003
 10
15.531522
 20
57.147410
 11
15.531522
 21
39.047410
  0
CIRCLE
  8
1
  6
CONTINUOUS
 10
15.531522
 20
57.357410
 40
0.210000
  0
LINE
  8
1
  6
CONTINUOUS
 10
15.381522
 20
56.647410
 11
17.718067
 21
56.647410
  0
LINE
  8
1
  6
CONTINUOUS
 10
15.460811
 20
56.576699
 11
15.602232
 21
56.718121
  0
LINE
  8
1
  6
CONTINUOUS
 10
17.497357
 20
56.576699
 11
17.638778
 21
56.718121
  0
LINE
  8
2
  6
CONTINUOUS
 10
15.531522
 20
56.647410
 11
15.531522
 21
56.647410
  0
LINE
  8
2
  6
CONTINUOUS
 10
17.568067
 20
56.647410
 11
17.568067
 21
56.647410
  0
LINE
  8
1
  6
ESTILO_TQS_0003
 10
17.568067
 20
57.147410
 11
17.568067
 21
39.047410
  0
CIRCLE
  8
1
  6
CONTINUOUS
 10
17.568067
 20
57.357410
 40
0.210000
  0
LINE
  8
1
  6
CONTINUOUS
 10
17.418067
 20
56.647410
 11
19.754613
 21
56.647410
  0
LINE
  8
1
  6
CONTINUOUS
 10
17.497357
 20
56.576699
 11
17.638778
 21
56.718121
  0
LINE
  8
1
  6
CONTINUOUS
 10
19.533902
 20
56.576699
 11
19.675323
 21
56.718121
  0
LINE
  8
2
  6
CONTINUOUS
 10
17.568067
 20
56.647410
 11
17.568067
 21
56.647410
  0
LINE
  8
2
  6
CONTINUOUS
 10
19.604613
 20
56.647410
 11
19.604613
 21
56.647410
  0
LINE
  8
1
  6
ESTILO_TQS_0003
 10
19.604613
 20
57.147410
 11
19.604613
 21
39.047410
  0
CIRCLE
  8
1
  6
CONTINUOUS
 10
19.604613
 20
57.357410
 40
0.210000
  0
LINE
  8
1
  6
CONTINUOUS
 10
19.454613
 20
56.647410
 11
21.791158
 21
56.647410
  0
LINE
  8
1
  6
CONTINUOUS
 10
19.533902
 20
56.576699
 11
19.675323
 21
56.718121
  0
LINE
  8
1
  6
CONTINUOUS
 10
21.570448
 20
56.576699
 11
21.711869
 21
56.718121
  0
LINE
  8
2
  6
CONTINUOUS
 10
19.604613
 20
56.647410
 11
19.604613
 21
56.647410
  0
LINE
  8
2
  6
CONTINUOUS
 10
21.641158
 20
56.647410
 11
21.641158
 21
56.647410
  0
LINE
  8
1
  6
ESTILO_TQS_0003
 10
21.641158
 20
57.147410
 11
21.641158
 21
39.047410
  0
CIRCLE
  8
1
  6
CONTINUOUS
 10
21.641158
 20
57.357410
 40
0.210000
  0
LINE
  8
1
  6
CONTINUOUS
 10
21.491158
 20
56.647410
 11
23.827704
 21
56.647410
  0
LINE
  8
1
  6
CONTINUOUS
 10
21.570448
 20
56.576699
 11
21.711869
 21
56.718121
  0
LINE
  8
1
  6
CONTINUOUS
 10
23.606993
 20
56.576699
 11
23.748414
 21
56.718121
  0
LINE
  8
2
  6
CONTINUOUS
 10
21.641158
 20
56.647410
 11
21.641158
 21
56.647410
  0
LINE
  8
2
  6
CONTINUOUS
 10
23.677704
 20
56.647410
 11
23.677704
 21
56.647410
  0
LINE
  8
1
  6
ESTILO_TQS_0003
 10
23.677704
 20
57.147410
 11
23.677704
 21
39.047410
  0
CIRCLE
  8
1
  6
CONTINUOUS
 10
23.677704
 20
57.357410
 40
0.210000
  0
LINE
  8
1
  6
CONTINUOUS
 10
23.527704
 20
56.647410
 11
25.864249
 21
56.647410
  0
LINE
  8
1
  6
CONTINUOUS
 10
23.606993
 20
56.576699
 11
23.748414
 21
56.718121
  0
LINE
  8
1
  6
CONTINUOUS
 10
25.643538
 20
56.576699
 11
25.784960
 21
56.718121
  0
LINE
  8
2
  6
CONTINUOUS
 10
23.677704
 20
56.647410
 11
23.677704
 21
56.647410
  0
LINE
  8
2
  6
CONTINUOUS
 10
25.714249
 20
56.647410
 11
25.714249
 21
56.647410
  0
LINE
  8
1
  6
ESTILO_TQS_0003
 10
25.714249
 20
57.147410
 11
25.714249
 21
39.047410
  0
CIRCLE
  8
1
  6
CONTINUOUS
 10
25.714249
 20
57.357410
 40
0.210000
  0
LINE
  8
1
  6
CONTINUOUS
 10
25.564249
 20
56.647410
 11
27.900795
 21
56.647410
  0
LINE
  8
1
  6
CONTINUOUS
 10
25.643538
 20
56.576699
 11
25.784960
 21
56.718121
  0
LINE
  8
1
  6
CONTINUOUS
 10
27.680084
 20
56.576699
 11
27.821505
 21
56.718121
  0
LINE
  8
2
  6
CONTINUOUS
 10
25.714249
 20
56.647410
 11
25.714249
 21
56.647410
  0
LINE
  8
2
  6
CONTINUOUS
 10
27.750795
 20
56.647410
 11
27.750795
 21
56.647410
  0
LINE
  8
1
  6
ESTILO_TQS_0003
 10
27.750795
 20
57.147410
 11
27.750795
 21
39.047410
  0
CIRCLE
  8
1
  6
CONTINUOUS
 10
27.750795
 20
57.357410
 40
0.210000
  0
LINE
  8
1
  6
CONTINUOUS
 10
27.600795
 20
56.647410
 11
29.937340
 21
56.647410
  0
LINE
  8
1
  6
CONTINUOUS
 10
27.680084
 20
56.576699
 11
27.821505
 21
56.718121
  0
LINE
  8
1
  6
CONTINUOUS
 10
29.716629
 20
56.576699
 11
29.858051
 21
56.718121
  0
LINE
  8
2
  6
CONTINUOUS
 10
27.750795
 20
56.647410
 11
27.750795
 21
56.647410
  0
LINE
  8
2
  6
CONTINUOUS
 10
29.787340
 20
56.647410
 11
29.787340
 21
56.647410
  0
LINE
  8
1
  6
ESTILO_TQS_0003
 10
29.787340
 20
57.147410
 11
29.787340
 21
39.047410
  0
CIRCLE
  8
1
  6
CONTINUOUS
 10
29.787340
 20
57.357410
 40
0.210000
  0
LINE
  8
2
  6
CONTINUOUS
 10
33.786440
 20
56.147410
 11
48.906440
 21
56.147410
  0
LINE
  8
2
  6
CONTINUOUS
 10
33.786440
 20
56.147410
 11
33.786440
 21
55.455645
  0
LINE
  8
2
  6
CONTINUOUS
 10
48.906440
 20
56.147410
 11
48.906440
 21
55.455645
  0
LINE
  8
2
  6
CONTINUOUS
 10
33.786440
 20
55.455645
 11
48.906440
 21
55.455645
  0
LINE
  8
2
  6
CONTINUOUS
 10
33.786440
 20
55.455645
 11
33.786440
 21
54.755645
  0
LINE
  8
2
  6
CONTINUOUS
 10
35.466440
 20
55.455645
 11
35.466440
 21
54.755645
  0
LINE
  8
2
  6
CONTINUOUS
 10
37.146440
 20
55.455645
 11
37.146440
 21
54.755645
  0
LINE
  8
2
  6
CONTINUOUS
 10
40.506440
 20
55.455645
 11
40.506440
 21
54.755645
  0
LINE
  8
2
  6
CONTINUOUS
 10
40.506440
 20
55.105645
 11
43.866440
 21
55.105645
  0
LINE
  8
2
  6
CONTINUOUS
 10
42.186440
 20
55.105645
 11
42.186440
 21
54.755645
  0
LINE
  8
2
  6
CONTINUOUS
 10
43.866440
 20
55.455645
 11
43.866440
 21
54.755645
  0
LINE
  8
2
  6
CONTINUOUS
 10
45.546440
 20
55.455645
 11
45.546440
 21
54.755645
  0
LINE
  8
2
  6
CONTINUOUS
 10
47.226440
 20
55.455645
 11
47.226440
 21
54.755645
  0
LINE
  8
2
  6
CONTINUOUS
 10
48.906440
 20
55.455645
 11
48.906440
 21
54.755645
  0
LINE
  8
2
  6
CONTINUOUS
 10
33.786440
 20
54.755645
 11
48.906440
 21
54.755645
  0
LINE
  8
2
  6
CONTINUOUS
 10
33.786440
 20
54.755645
 11
33.786440
 21
54.335645
  0
LINE
  8
2
  6
CONTINUOUS
 10
35.466440
 20
54.755645
 11
35.466440
 21
54.335645
  0
LINE
  8
2
  6
CONTINUOUS
 10
37.146440
 20
54.755645
 11
37.146440
 21
54.335645
  0
LINE
  8
2
  6
CONTINUOUS
 10
40.506440
 20
54.755645
 11
40.506440
 21
54.335645
  0
LINE
  8
2
  6
CONTINUOUS
 10
42.186440
 20
54.755645
 11
42.186440
 21
54.335645
  0
LINE
  8
2
  6
CONTINUOUS
 10
43.866440
 20
54.755645
 11
43.866440
 21
54.335645
  0
LINE
  8
2
  6
CONTINUOUS
 10
45.546440
 20
54.755645
 11
45.546440
 21
54.335645
  0
LINE
  8
2
  6
CONTINUOUS
 10
47.226440
 20
54.755645
 11
47.226440
 21
54.335645
  0
LINE
  8
2
  6
CONTINUOUS
 10
48.906440
 20
54.755645
 11
48.906440
 21
54.335645
  0
LINE
  8
2
  6
CONTINUOUS
 10
33.786440
 20
54.335645
 11
48.906440
 21
54.335645
  0
LINE
  8
2
  6
CONTINUOUS
 10
33.786440
 20
54.335645
 11
33.786440
 21
53.915645
  0
LINE
  8
2
  6
CONTINUOUS
 10
35.466440
 20
54.335645
 11
35.466440
 21
53.915645
  0
LINE
  8
2
  6
CONTINUOUS
 10
37.146440
 20
54.335645
 11
37.146440
 21
53.915645
  0
LINE
  8
2
  6
CONTINUOUS
 10
40.506440
 20
54.335645
 11
40.506440
 21
53.915645
  0
LINE
  8
2
  6
CONTINUOUS
 10
42.186440
 20
54.335645
 11
42.186440
 21
53.915645
  0
LINE
  8
2
  6
CONTINUOUS
 10
43.866440
 20
54.335645
 11
43.866440
 21
53.915645
  0
LINE
  8
2
  6
CONTINUOUS
 10
45.546440
 20
54.335645
 11
45.546440
 21
53.915645
  0
LINE
  8
2
  6
CONTINUOUS
 10
47.226440
 20
54.335645
 11
47.226440
 21
53.915645
  0
LINE
  8
2
  6
CONTINUOUS
 10
48.906440
 20
54.335645
 11
48.906440
 21
53.915645
  0
LINE
  8
2
  6
CONTINUOUS
 10
33.786440
 20
53.915645
 11
48.906440
 21
53.915645
  0
LINE
  8
2
  6
CONTINUOUS
 10
33.786440
 20
53.495645
 11
48.906440
 21
53.495645
  0
LINE
  8
2
  6
CONTINUOUS
 10
33.786440
 20
53.075645
 11
48.906440
 21
53.075645
  0
LINE
  8
2
  6
CONTINUOUS
 10
33.786440
 20
53.495645
 11
33.786440
 21
53.075645
  0
LINE
  8
2
  6
CONTINUOUS
 10
48.906440
 20
53.495645
 11
48.906440
 21
53.075645
  0
LINE
  8
2
  6
CONTINUOUS
 10
48.906440
 20
53.495645
 11
48.906440
 21
53.075645
  0
LINE
  8
2
  6
CONTINUOUS
 10
33.786440
 20
53.075645
 11
47.226440
 21
53.075645
  0
LINE
  8
2
  6
CONTINUOUS
 10
33.786440
 20
52.655645
 11
48.906440
 21
52.655645
  0
LINE
  8
2
  6
CONTINUOUS
 10
33.786440
 20
53.075645
 11
33.786440
 21
52.655645
  0
LINE
  8
2
  6
CONTINUOUS
 10
47.226440
 20
53.075645
 11
47.226440
 21
52.655645
  0
LINE
  8
2
  6
CONTINUOUS
 10
48.906440
 20
53.075645
 11
48.906440
 21
52.655645
  0
LINE
  8
2
  6
CONTINUOUS
 10
33.786440
 20
52.655645
 11
48.906440
 21
52.655645
  0
LINE
  8
2
  6
CONTINUOUS
 10
33.786440
 20
52.235645
 11
48.906440
 21
52.235645
  0
LINE
  8
2
  6
CONTINUOUS
 10
33.786440
 20
52.655645
 11
33.786440
 21
52.235645
  0
LINE
  8
2
  6
CONTINUOUS
 10
47.226440
 20
52.655645
 11
47.226440
 21
52.235645
  0
LINE
  8
2
  6
CONTINUOUS
 10
48.906440
 20
52.655645
 11
48.906440
 21
52.235645
  0
LINE
  8
2
  6
CONTINUOUS
 10
33.786440
 20
52.235645
 11
48.906440
 21
52.235645
  0
LINE
  8
2
  6
CONTINUOUS
 10
33.786440
 20
51.815645
 11
48.906440
 21
51.815645
  0
LINE
  8
2
  6
CONTINUOUS
 10
33.786440
 20
52.235645
 11
33.786440
 21
51.815645
  0
LINE
  8
2
  6
CONTINUOUS
 10
47.226440
 20
52.235645
 11
47.226440
 21
51.815645
  0
LINE
  8
2
  6
CONTINUOUS
 10
48.906440
 20
52.235645
 11
48.906440
 21
51.815645
  0
LINE
  8
2
  6
CONTINUOUS
 10
33.786440
 20
51.815645
 11
48.906440
 21
51.815645
  0
LINE
  8
2
  6
CONTINUOUS
 10
33.786440
 20
51.395645
 11
48.906440
 21
51.395645
  0
LINE
  8
2
  6
CONTINUOUS
 10
33.786440
 20
51.815645
 11
33.786440
 21
51.395645
  0
LINE
  8
2
  6
CONTINUOUS
 10
47.226440
 20
51.815645
 11
47.226440
 21
51.395645
  0
LINE
  8
2
  6
CONTINUOUS
 10
48.906440
 20
51.815645
 11
48.906440
 21
51.395645
  0
POLYLINE
  8
2
  6
CONTINUOUS
 66
     1
  0
VERTEX
  8
2
  6
CONTINUOUS
 10
8.185340
 20
35.747410
  0
VERTEX
  8
2
  6
CONTINUOUS
 10
8.185340
 20
36.947410
  0
VERTEX
  8
2
  6
CONTINUOUS
 10
10.203340
 20
36.947410
  0
VERTEX
  8
2
  6
CONTINUOUS
 10
10.203340
 20
37.347410
  0
VERTEX
  8
2
  6
CONTINUOUS
 10
4.567340
 20
37.347410
  0
VERTEX
  8
2
  6
CONTINUOUS
 10
4.567340
 20
36.947410
  0
VERTEX
  8
2
  6
CONTINUOUS
 10
6.585340
 20
36.947410
  0
VERTEX
  8
2
  6
CONTINUOUS
 10
6.585340
 20
35.747410
  0
VERTEX
  8
2
  6
CONTINUOUS
 10
8.185340
 20
35.747410
  0
SEQEND
  8
2
  6
CONTINUOUS
  0
CIRCLE
  8
1
  6
CONTINUOUS
 10
6.895340
 20
36.687410
 40
0.011227
  0
CIRCLE
  8
2
  6
CONTINUOUS
 10
6.895340
 20
36.687410
 40
0.031227
  0
LINE
  8
2
  6
CONTINUOUS
 10
6.835340
 20
36.817410
 11
6.955340
 21
36.817410
  0
LINE
  8
2
  6
CONTINUOUS
 10
6.835340
 20
36.557410
 11
6.955340
 21
36.557410
  0
LINE
  8
2
  6
CONTINUOUS
 10
6.835340
 20
36.557410
 11
6.835340
 21
36.817410
  0
LINE
  8
2
  6
CONTINUOUS
 10
6.955340
 20
36.557410
 11
6.955340
 21
36.817410
  0
LINE
  8
2
  6
CONTINUOUS
 10
6.835340
 20
36.817410
 11
6.882254
 21
36.715763
  0
LINE
  8
2
  6
CONTINUOUS
 10
6.955340
 20
36.817410
 11
6.908426
 21
36.715763
  0
LINE
  8
2
  6
CONTINUOUS
 10
6.835340
 20
36.557410
 11
6.882254
 21
36.659057
  0
LINE
  8
2
  6
CONTINUOUS
 10
6.955340
 20
36.557410
 11
6.908426
 21
36.659057
  0
CIRCLE
  8
1
  6
CONTINUOUS
 10
7.035340
 20
36.687410
 40
0.011227
  0
CIRCLE
  8
2
  6
CONTINUOUS
 10
7.035340
 20
36.687410
 40
0.031227
  0
LINE
  8
2
  6
CONTINUOUS
 10
6.975340
 20
36.817410
 11
7.095340
 21
36.817410
  0
LINE
  8
2
  6
CONTINUOUS
 10
6.975340
 20
36.557410
 11
7.095340
 21
36.557410
  0
LINE
  8
2
  6
CONTINUOUS
 10
6.975340
 20
36.557410
 11
6.975340
 21
36.817410
  0
LINE
  8
2
  6
CONTINUOUS
 10
7.095340
 20
36.557410
 11
7.095340
 21
36.817410
  0
LINE
  8
2
  6
CONTINUOUS
 10
6.975340
 20
36.817410
 11
7.022254
 21
36.715763
  0
LINE
  8
2
  6
CONTINUOUS
 10
7.095340
 20
36.817410
 11
7.048426
 21
36.715763
  0
LINE
  8
2
  6
CONTINUOUS
 10
6.975340
 20
36.557410
 11
7.022254
 21
36.659057
  0
LINE
  8
2
  6
CONTINUOUS
 10
7.095340
 20
36.557410
 11
7.048426
 21
36.659057
  0
CIRCLE
  8
1
  6
CONTINUOUS
 10
7.175340
 20
36.687410
 40
0.011227
  0
CIRCLE
  8
2
  6
CONTINUOUS
 10
7.175340
 20
36.687410
 40
0.031227
  0
LINE
  8
2
  6
CONTINUOUS
 10
7.115340
 20
36.817410
 11
7.235340
 21
36.817410
  0
LINE
  8
2
  6
CONTINUOUS
 10
7.115340
 20
36.557410
 11
7.235340
 21
36.557410
  0
LINE
  8
2
  6
CONTINUOUS
 10
7.115340
 20
36.557410
 11
7.115340
 21
36.817410
  0
LINE
  8
2
  6
CONTINUOUS
 10
7.235340
 20
36.557410
 11
7.235340
 21
36.817410
  0
LINE
  8
2
  6
CONTINUOUS
 10
7.115340
 20
36.817410
 11
7.162254
 21
36.715763
  0
LINE
  8
2
  6
CONTINUOUS
 10
7.235340
 20
36.817410
 11
7.188426
 21
36.715763
  0
LINE
  8
2
  6
CONTINUOUS
 10
7.115340
 20
36.557410
 11
7.162254
 21
36.659057
  0
LINE
  8
2
  6
CONTINUOUS
 10
7.235340
 20
36.557410
 11
7.188426
 21
36.659057
  0
CIRCLE
  8
1
  6
CONTINUOUS
 10
7.315340
 20
36.687410
 40
0.011227
  0
CIRCLE
  8
2
  6
CONTINUOUS
 10
7.315340
 20
36.687410
 40
0.031227
  0
LINE
  8
2
  6
CONTINUOUS
 10
7.255340
 20
36.817410
 11
7.375340
 21
36.817410
  0
LINE
  8
2
  6
CONTINUOUS
 10
7.255340
 20
36.557410
 11
7.375340
 21
36.557410
  0
LINE
  8
2
  6
CONTINUOUS
 10
7.255340
 20
36.557410
 11
7.255340
 21
36.817410
  0
LINE
  8
2
  6
CONTINUOUS
 10
7.375340
 20
36.557410
 11
7.375340
 21
36.817410
  0
LINE
  8
2
  6
CONTINUOUS
 10
7.255340
 20
36.817410
 11
7.302254
 21
36.715763
  0
LINE
  8
2
  6
CONTINUOUS
 10
7.375340
 20
36.817410
 11
7.328426
 21
36.715763
  0
LINE
  8
2
  6
CONTINUOUS
 10
7.255340
 20
36.557410
 11
7.302254
 21
36.659057
  0
LINE
  8
2
  6
CONTINUOUS
 10
7.375340
 20
36.557410
 11
7.328426
 21
36.659057
  0
CIRCLE
  8
1
  6
CONTINUOUS
 10
7.455340
 20
36.687410
 40
0.011227
  0
CIRCLE
  8
2
  6
CONTINUOUS
 10
7.455340
 20
36.687410
 40
0.031227
  0
LINE
  8
2
  6
CONTINUOUS
 10
7.395340
 20
36.817410
 11
7.515340
 21
36.817410
  0
LINE
  8
2
  6
CONTINUOUS
 10
7.395340
 20
36.557410
 11
7.515340
 21
36.557410
  0
LINE
  8
2
  6
CONTINUOUS
 10
7.395340
 20
36.557410
 11
7.395340
 21
36.817410
  0
LINE
  8
2
  6
CONTINUOUS
 10
7.515340
 20
36.557410
 11
7.515340
 21
36.817410
  0
LINE
  8
2
  6
CONTINUOUS
 10
7.395340
 20
36.817410
 11
7.442254
 21
36.715763
  0
LINE
  8
2
  6
CONTINUOUS
 10
7.515340
 20
36.817410
 11
7.468426
 21
36.715763
  0
LINE
  8
2
  6
CONTINUOUS
 10
7.395340
 20
36.557410
 11
7.442254
 21
36.659057
  0
LINE
  8
2
  6
CONTINUOUS
 10
7.515340
 20
36.557410
 11
7.468426
 21
36.659057
  0
CIRCLE
  8
1
  6
CONTINUOUS
 10
7.595340
 20
36.687410
 40
0.011227
  0
CIRCLE
  8
2
  6
CONTINUOUS
 10
7.595340
 20
36.687410
 40
0.031227
  0
LINE
  8
2
  6
CONTINUOUS
 10
7.535340
 20
36.817410
 11
7.655340
 21
36.817410
  0
LINE
  8
2
  6
CONTINUOUS
 10
7.535340
 20
36.557410
 11
7.655340
 21
36.557410
  0
LINE
  8
2
  6
CONTINUOUS
 10
7.535340
 20
36.557410
 11
7.535340
 21
36.817410
  0
LINE
  8
2
  6
CONTINUOUS
 10
7.655340
 20
36.557410
 11
7.655340
 21
36.817410
  0
LINE
  8
2
  6
CONTINUOUS
 10
7.535340
 20
36.817410
 11
7.582254
 21
36.715763
  0
LINE
  8
2
  6
CONTINUOUS
 10
7.655340
 20
36.817410
 11
7.608426
 21
36.715763
  0
LINE
  8
2
  6
CONTINUOUS
 10
7.535340
 20
36.557410
 11
7.582254
 21
36.659057
  0
LINE
  8
2
  6
CONTINUOUS
 10
7.655340
 20
36.557410
 11
7.608426
 21
36.659057
  0
CIRCLE
  8
1
  6
CONTINUOUS
 10
7.735340
 20
36.687410
 40
0.011227
  0
CIRCLE
  8
2
  6
CONTINUOUS
 10
7.735340
 20
36.687410
 40
0.031227
  0
LINE
  8
2
  6
CONTINUOUS
 10
7.675340
 20
36.817410
 11
7.795340
 21
36.817410
  0
LINE
  8
2
  6
CONTINUOUS
 10
7.675340
 20
36.557410
 11
7.795340
 21
36.557410
  0
LINE
  8
2
  6
CONTINUOUS
 10
7.675340
 20
36.557410
 11
7.675340
 21
36.817410
  0
LINE
  8
2
  6
CONTINUOUS
 10
7.795340
 20
36.557410
 11
7.795340
 21
36.817410
  0
LINE
  8
2
  6
CONTINUOUS
 10
7.675340
 20
36.817410
 11
7.722254
 21
36.715763
  0
LINE
  8
2
  6
CONTINUOUS
 10
7.795340
 20
36.817410
 11
7.748426
 21
36.715763
  0
LINE
  8
2
  6
CONTINUOUS
 10
7.675340
 20
36.557410
 11
7.722254
 21
36.659057
  0
LINE
  8
2
  6
CONTINUOUS
 10
7.795340
 20
36.557410
 11
7.748426
 21
36.659057
  0
CIRCLE
  8
1
  6
CONTINUOUS
 10
7.875340
 20
36.687410
 40
0.011227
  0
CIRCLE
  8
2
  6
CONTINUOUS
 10
7.875340
 20
36.687410
 40
0.031227
  0
LINE
  8
2
  6
CONTINUOUS
 10
7.815340
 20
36.817410
 11
7.935340
 21
36.817410
  0
LINE
  8
2
  6
CONTINUOUS
 10
7.815340
 20
36.557410
 11
7.935340
 21
36.557410
  0
LINE
  8
2
  6
CONTINUOUS
 10
7.815340
 20
36.557410
 11
7.815340
 21
36.817410
  0
LINE
  8
2
  6
CONTINUOUS
 10
7.935340
 20
36.557410
 11
7.935340
 21
36.817410
  0
LINE
  8
2
  6
CONTINUOUS
 10
7.815340
 20
36.817410
 11
7.862254
 21
36.715763
  0
LINE
  8
2
  6
CONTINUOUS
 10
7.935340
 20
36.817410
 11
7.888426
 21
36.715763
  0
LINE
  8
2
  6
CONTINUOUS
 10
7.815340
 20
36.557410
 11
7.862254
 21
36.659057
  0
LINE
  8
2
  6
CONTINUOUS
 10
7.935340
 20
36.557410
 11
7.888426
 21
36.659057
  0
CIRCLE
  8
1
  6
CONTINUOUS
 10
6.895340
 20
36.407410
 40
0.011227
  0
CIRCLE
  8
2
  6
CONTINUOUS
 10
6.895340
 20
36.407410
 40
0.031227
  0
LINE
  8
2
  6
CONTINUOUS
 10
6.835340
 20
36.537410
 11
6.955340
 21
36.537410
  0
LINE
  8
2
  6
CONTINUOUS
 10
6.835340
 20
36.277410
 11
6.955340
 21
36.277410
  0
LINE
  8
2
  6
CONTINUOUS
 10
6.835340
 20
36.277410
 11
6.835340
 21
36.537410
  0
LINE
  8
2
  6
CONTINUOUS
 10
6.955340
 20
36.277410
 11
6.955340
 21
36.537410
  0
LINE
  8
2
  6
CONTINUOUS
 10
6.835340
 20
36.537410
 11
6.882254
 21
36.435763
  0
LINE
  8
2
  6
CONTINUOUS
 10
6.955340
 20
36.537410
 11
6.908426
 21
36.435763
  0
LINE
  8
2
  6
CONTINUOUS
 10
6.835340
 20
36.277410
 11
6.882254
 21
36.379057
  0
LINE
  8
2
  6
CONTINUOUS
 10
6.955340
 20
36.277410
 11
6.908426
 21
36.379057
  0
CIRCLE
  8
1
  6
CONTINUOUS
 10
7.035340
 20
36.407410
 40
0.011227
  0
CIRCLE
  8
2
  6
CONTINUOUS
 10
7.035340
 20
36.407410
 40
0.031227
  0
LINE
  8
2
  6
CONTINUOUS
 10
6.975340
 20
36.537410
 11
7.095340
 21
36.537410
  0
LINE
  8
2
  6
CONTINUOUS
 10
6.975340
 20
36.277410
 11
7.095340
 21
36.277410
  0
LINE
  8
2
  6
CONTINUOUS
 10
6.975340
 20
36.277410
 11
6.975340
 21
36.537410
  0
LINE
  8
2
  6
CONTINUOUS
 10
7.095340
 20
36.277410
 11
7.095340
 21
36.537410
  0
LINE
  8
2
  6
CONTINUOUS
 10
6.975340
 20
36.537410
 11
7.022254
 21
36.435763
  0
LINE
  8
2
  6
CONTINUOUS
 10
7.095340
 20
36.537410
 11
7.048426
 21
36.435763
  0
LINE
  8
2
  6
CONTINUOUS
 10
6.975340
 20
36.277410
 11
7.022254
 21
36.379057
  0
LINE
  8
2
  6
CONTINUOUS
 10
7.095340
 20
36.277410
 11
7.048426
 21
36.379057
  0
CIRCLE
  8
1
  6
CONTINUOUS
 10
7.175340
 20
36.407410
 40
0.011227
  0
CIRCLE
  8
2
  6
CONTINUOUS
 10
7.175340
 20
36.407410
 40
0.031227
  0
LINE
  8
2
  6
CONTINUOUS
 10
7.115340
 20
36.537410
 11
7.235340
 21
36.537410
  0
LINE
  8
2
  6
CONTINUOUS
 10
7.115340
 20
36.277410
 11
7.235340
 21
36.277410
  0
LINE
  8
2
  6
CONTINUOUS
 10
7.115340
 20
36.277410
 11
7.115340
 21
36.537410
  0
LINE
  8
2
  6
CONTINUOUS
 10
7.235340
 20
36.277410
 11
7.235340
 21
36.537410
  0
LINE
  8
2
  6
CONTINUOUS
 10
7.115340
 20
36.537410
 11
7.162254
 21
36.435763
  0
LINE
  8
2
  6
CONTINUOUS
 10
7.235340
 20
36.537410
 11
7.188426
 21
36.435763
  0
LINE
  8
2
  6
CONTINUOUS
 10
7.115340
 20
36.277410
 11
7.162254
 21
36.379057
  0
LINE
  8
2
  6
CONTINUOUS
 10
7.235340
 20
36.277410
 11
7.188426
 21
36.379057
  0
CIRCLE
  8
1
  6
CONTINUOUS
 10
7.315340
 20
36.407410
 40
0.011227
  0
CIRCLE
  8
2
  6
CONTINUOUS
 10
7.315340
 20
36.407410
 40
0.031227
  0
LINE
  8
2
  6
CONTINUOUS
 10
7.255340
 20
36.537410
 11
7.375340
 21
36.537410
  0
LINE
  8
2
  6
CONTINUOUS
 10
7.255340
 20
36.277410
 11
7.375340
 21
36.277410
  0
LINE
  8
2
  6
CONTINUOUS
 10
7.255340
 20
36.277410
 11
7.255340
 21
36.537410
  0
LINE
  8
2
  6
CONTINUOUS
 10
7.375340
 20
36.277410
 11
7.375340
 21
36.537410
  0
LINE
  8
2
  6
CONTINUOUS
 10
7.255340
 20
36.537410
 11
7.302254
 21
36.435763
  0
LINE
  8
2
  6
CONTINUOUS
 10
7.375340
 20
36.537410
 11
7.328426
 21
36.435763
  0
LINE
  8
2
  6
CONTINUOUS
 10
7.255340
 20
36.277410
 11
7.302254
 21
36.379057
  0
LINE
  8
2
  6
CONTINUOUS
 10
7.375340
 20
36.277410
 11
7.328426
 21
36.379057
  0
CIRCLE
  8
1
  6
CONTINUOUS
 10
7.455340
 20
36.407410
 40
0.011227
  0
CIRCLE
  8
2
  6
CONTINUOUS
 10
7.455340
 20
36.407410
 40
0.031227
  0
LINE
  8
2
  6
CONTINUOUS
 10
7.395340
 20
36.537410
 11
7.515340
 21
36.537410
  0
LINE
  8
2
  6
CONTINUOUS
 10
7.395340
 20
36.277410
 11
7.515340
 21
36.277410
  0
LINE
  8
2
  6
CONTINUOUS
 10
7.395340
 20
36.277410
 11
7.395340
 21
36.537410
  0
LINE
  8
2
  6
CONTINUOUS
 10
7.515340
 20
36.277410
 11
7.515340
 21
36.537410
  0
LINE
  8
2
  6
CONTINUOUS
 10
7.395340
 20
36.537410
 11
7.442254
 21
36.435763
  0
LINE
  8
2
  6
CONTINUOUS
 10
7.515340
 20
36.537410
 11
7.468426
 21
36.435763
  0
LINE
  8
2
  6
CONTINUOUS
 10
7.395340
 20
36.277410
 11
7.442254
 21
36.379057
  0
LINE
  8
2
  6
CONTINUOUS
 10
7.515340
 20
36.277410
 11
7.468426
 21
36.379057
  0
CIRCLE
  8
1
  6
CONTINUOUS
 10
7.595340
 20
36.407410
 40
0.011227
  0
CIRCLE
  8
2
  6
CONTINUOUS
 10
7.595340
 20
36.407410
 40
0.031227
  0
LINE
  8
2
  6
CONTINUOUS
 10
7.535340
 20
36.537410
 11
7.655340
 21
36.537410
  0
LINE
  8
2
  6
CONTINUOUS
 10
7.535340
 20
36.277410
 11
7.655340
 21
36.277410
  0
LINE
  8
2
  6
CONTINUOUS
 10
7.535340
 20
36.277410
 11
7.535340
 21
36.537410
  0
LINE
  8
2
  6
CONTINUOUS
 10
7.655340
 20
36.277410
 11
7.655340
 21
36.537410
  0
LINE
  8
2
  6
CONTINUOUS
 10
7.535340
 20
36.537410
 11
7.582254
 21
36.435763
  0
LINE
  8
2
  6
CONTINUOUS
 10
7.655340
 20
36.537410
 11
7.608426
 21
36.435763
  0
LINE
  8
2
  6
CONTINUOUS
 10
7.535340
 20
36.277410
 11
7.582254
 21
36.379057
  0
LINE
  8
2
  6
CONTINUOUS
 10
7.655340
 20
36.277410
 11
7.608426
 21
36.379057
  0
CIRCLE
  8
1
  6
CONTINUOUS
 10
7.735340
 20
36.407410
 40
0.011227
  0
CIRCLE
  8
2
  6
CONTINUOUS
 10
7.735340
 20
36.407410
 40
0.031227
  0
LINE
  8
2
  6
CONTINUOUS
 10
7.675340
 20
36.537410
 11
7.795340
 21
36.537410
  0
LINE
  8
2
  6
CONTINUOUS
 10
7.675340
 20
36.277410
 11
7.795340
 21
36.277410
  0
LINE
  8
2
  6
CONTINUOUS
 10
7.675340
 20
36.277410
 11
7.675340
 21
36.537410
  0
LINE
  8
2
  6
CONTINUOUS
 10
7.795340
 20
36.277410
 11
7.795340
 21
36.537410
  0
LINE
  8
2
  6
CONTINUOUS
 10
7.675340
 20
36.537410
 11
7.722254
 21
36.435763
  0
LINE
  8
2
  6
CONTINUOUS
 10
7.795340
 20
36.537410
 11
7.748426
 21
36.435763
  0
LINE
  8
2
  6
CONTINUOUS
 10
7.675340
 20
36.277410
 11
7.722254
 21
36.379057
  0
LINE
  8
2
  6
CONTINUOUS
 10
7.795340
 20
36.277410
 11
7.748426
 21
36.379057
  0
CIRCLE
  8
1
  6
CONTINUOUS
 10
7.875340
 20
36.407410
 40
0.011227
  0
CIRCLE
  8
2
  6
CONTINUOUS
 10
7.875340
 20
36.407410
 40
0.031227
  0
LINE
  8
2
  6
CONTINUOUS
 10
7.815340
 20
36.537410
 11
7.935340
 21
36.537410
  0
LINE
  8
2
  6
CONTINUOUS
 10
7.815340
 20
36.277410
 11
7.935340
 21
36.277410
  0
LINE
  8
2
  6
CONTINUOUS
 10
7.815340
 20
36.277410
 11
7.815340
 21
36.537410
  0
LINE
  8
2
  6
CONTINUOUS
 10
7.935340
 20
36.277410
 11
7.935340
 21
36.537410
  0
LINE
  8
2
  6
CONTINUOUS
 10
7.815340
 20
36.537410
 11
7.862254
 21
36.435763
  0
LINE
  8
2
  6
CONTINUOUS
 10
7.935340
 20
36.537410
 11
7.888426
 21
36.435763
  0
LINE
  8
2
  6
CONTINUOUS
 10
7.815340
 20
36.277410
 11
7.862254
 21
36.379057
  0
LINE
  8
2
  6
CONTINUOUS
 10
7.935340
 20
36.277410
 11
7.888426
 21
36.379057
  0
POLYLINE
  8
2
  6
CONTINUOUS
 66
     1
  0
VERTEX
  8
2
  6
CONTINUOUS
 10
14.785340
 20
35.747410
  0
VERTEX
  8
2
  6
CONTINUOUS
 10
14.785340
 20
36.947410
  0
VERTEX
  8
2
  6
CONTINUOUS
 10
16.803340
 20
36.947410
  0
VERTEX
  8
2
  6
CONTINUOUS
 10
16.803340
 20
37.347410
  0
VERTEX
  8
2
  6
CONTINUOUS
 10
11.167340
 20
37.347410
  0
VERTEX
  8
2
  6
CONTINUOUS
 10
11.167340
 20
36.947410
  0
VERTEX
  8
2
  6
CONTINUOUS
 10
13.185340
 20
36.947410
  0
VERTEX
  8
2
  6
CONTINUOUS
 10
13.185340
 20
35.747410
  0
VERTEX
  8
2
  6
CONTINUOUS
 10
14.785340
 20
35.747410
  0
SEQEND
  8
2
  6
CONTINUOUS
  0
CIRCLE
  8
1
  6
CONTINUOUS
 10
13.495340
 20
36.665047
 40
0.011227
  0
CIRCLE
  8
1
  6
CONTINUOUS
 10
13.635340
 20
36.665047
 40
0.011227
  0
CIRCLE
  8
1
  6
CONTINUOUS
 10
13.775340
 20
36.665047
 40
0.011227
  0
CIRCLE
  8
1
  6
CONTINUOUS
 10
13.915340
 20
36.665047
 40
0.011227
  0
CIRCLE
  8
1
  6
CONTINUOUS
 10
14.055340
 20
36.665047
 40
0.011227
  0
CIRCLE
  8
1
  6
CONTINUOUS
 10
14.195340
 20
36.665047
 40
0.011227
  0
CIRCLE
  8
1
  6
CONTINUOUS
 10
14.335340
 20
36.665047
 40
0.011227
  0
CIRCLE
  8
1
  6
CONTINUOUS
 10
14.475340
 20
36.665047
 40
0.011227
  0
CIRCLE
  8
1
  6
CONTINUOUS
 10
13.495340
 20
36.392501
 40
0.011227
  0
CIRCLE
  8
1
  6
CONTINUOUS
 10
13.635340
 20
36.392501
 40
0.011227
  0
CIRCLE
  8
1
  6
CONTINUOUS
 10
13.775340
 20
36.392501
 40
0.011227
  0
CIRCLE
  8
1
  6
CONTINUOUS
 10
13.915340
 20
36.392501
 40
0.011227
  0
CIRCLE
  8
1
  6
CONTINUOUS
 10
14.055340
 20
36.392501
 40
0.011227
  0
CIRCLE
  8
1
  6
CONTINUOUS
 10
14.195340
 20
36.392501
 40
0.011227
  0
CIRCLE
  8
1
  6
CONTINUOUS
 10
14.335340
 20
36.392501
 40
0.011227
  0
CIRCLE
  8
1
  6
CONTINUOUS
 10
14.475340
 20
36.392501
 40
0.011227
  0
POLYLINE
  8
2
  6
CONTINUOUS
 66
     1
  0
VERTEX
  8
2
  6
CONTINUOUS
 10
21.385340
 20
35.747410
  0
VERTEX
  8
2
  6
CONTINUOUS
 10
21.385340
 20
36.947410
  0
VERTEX
  8
2
  6
CONTINUOUS
 10
23.403340
 20
36.947410
  0
VERTEX
  8
2
  6
CONTINUOUS
 10
23.403340
 20
37.347410
  0
VERTEX
  8
2
  6
CONTINUOUS
 10
17.767340
 20
37.347410
  0
VERTEX
  8
2
  6
CONTINUOUS
 10
17.767340
 20
36.947410
  0
VERTEX
  8
2
  6
CONTINUOUS
 10
19.785340
 20
36.947410
  0
VERTEX
  8
2
  6
CONTINUOUS
 10
19.785340
 20
35.747410
  0
VERTEX
  8
2
  6
CONTINUOUS
 10
21.385340
 20
35.747410
  0
SEQEND
  8
2
  6
CONTINUOUS
  0
CIRCLE
  8
1
  6
CONTINUOUS
 10
20.095340
 20
36.517670
 40
0.011227
  0
CIRCLE
  8
1
  6
CONTINUOUS
 10
20.235340
 20
36.517670
 40
0.011227
  0
CIRCLE
  8
1
  6
CONTINUOUS
 10
20.375340
 20
36.517670
 40
0.011227
  0
CIRCLE
  8
1
  6
CONTINUOUS
 10
20.515340
 20
36.517670
 40
0.011227
  0
CIRCLE
  8
1
  6
CONTINUOUS
 10
20.655340
 20
36.517670
 40
0.011227
  0
CIRCLE
  8
1
  6
CONTINUOUS
 10
20.795340
 20
36.517670
 40
0.011227
  0
CIRCLE
  8
1
  6
CONTINUOUS
 10
20.935340
 20
36.517670
 40
0.011227
  0
CIRCLE
  8
1
  6
CONTINUOUS
 10
21.075340
 20
36.517670
 40
0.011227
  0
CIRCLE
  8
1
  6
CONTINUOUS
 10
20.095340
 20
36.294250
 40
0.011227
  0
CIRCLE
  8
1
  6
CONTINUOUS
 10
20.235340
 20
36.294250
 40
0.011227
  0
CIRCLE
  8
1
  6
CONTINUOUS
 10
20.375340
 20
36.294250
 40
0.011227
  0
CIRCLE
  8
1
  6
CONTINUOUS
 10
20.515340
 20
36.294250
 40
0.011227
  0
CIRCLE
  8
1
  6
CONTINUOUS
 10
20.655340
 20
36.294250
 40
0.011227
  0
CIRCLE
  8
1
  6
CONTINUOUS
 10
20.795340
 20
36.294250
 40
0.011227
  0
CIRCLE
  8
1
  6
CONTINUOUS
 10
20.935340
 20
36.294250
 40
0.011227
  0
CIRCLE
  8
1
  6
CONTINUOUS
 10
21.075340
 20
36.294250
 40
0.011227
  0
POLYLINE
  8
2
  6
CONTINUOUS
 66
     1
  0
VERTEX
  8
2
  6
CONTINUOUS
 10
27.985340
 20
35.747410
  0
VERTEX
  8
2
  6
CONTINUOUS
 10
27.985340
 20
36.947410
  0
VERTEX
  8
2
  6
CONTINUOUS
 10
30.003340
 20
36.947410
  0
VERTEX
  8
2
  6
CONTINUOUS
 10
30.003340
 20
37.347410
  0
VERTEX
  8
2
  6
CONTINUOUS
 10
24.367340
 20
37.347410
  0
VERTEX
  8
2
  6
CONTINUOUS
 10
24.367340
 20
36.947410
  0
VERTEX
  8
2
  6
CONTINUOUS
 10
26.385340
 20
36.947410
  0
VERTEX
  8
2
  6
CONTINUOUS
 10
26.385340
 20
35.747410
  0
VERTEX
  8
2
  6
CONTINUOUS
 10
27.985340
 20
35.747410
  0
SEQEND
  8
2
  6
CONTINUOUS
  0
CIRCLE
  8
1
  6
CONTINUOUS
 10
26.695340
 20
36.292308
 40
0.011227
  0
CIRCLE
  8
1
  6
CONTINUOUS
 10
26.835340
 20
36.292308
 40
0.011227
  0
CIRCLE
  8
1
  6
CONTINUOUS
 10
26.975340
 20
36.292308
 40
0.011227
  0
CIRCLE
  8
1
  6
CONTINUOUS
 10
27.115340
 20
36.292308
 40
0.011227
  0
CIRCLE
  8
1
  6
CONTINUOUS
 10
27.255340
 20
36.292308
 40
0.011227
  0
CIRCLE
  8
1
  6
CONTINUOUS
 10
27.395340
 20
36.292308
 40
0.011227
  0
CIRCLE
  8
1
  6
CONTINUOUS
 10
27.535340
 20
36.292308
 40
0.011227
  0
CIRCLE
  8
1
  6
CONTINUOUS
 10
27.675340
 20
36.292308
 40
0.011227
  0
CIRCLE
  8
1
  6
CONTINUOUS
 10
26.695340
 20
36.144009
 40
0.011227
  0
CIRCLE
  8
1
  6
CONTINUOUS
 10
26.835340
 20
36.144009
 40
0.011227
  0
CIRCLE
  8
1
  6
CONTINUOUS
 10
26.975340
 20
36.144009
 40
0.011227
  0
CIRCLE
  8
1
  6
CONTINUOUS
 10
27.115340
 20
36.144009
 40
0.011227
  0
CIRCLE
  8
1
  6
CONTINUOUS
 10
27.255340
 20
36.144009
 40
0.011227
  0
CIRCLE
  8
1
  6
CONTINUOUS
 10
27.395340
 20
36.144009
 40
0.011227
  0
CIRCLE
  8
1
  6
CONTINUOUS
 10
27.535340
 20
36.144009
 40
0.011227
  0
CIRCLE
  8
1
  6
CONTINUOUS
 10
27.675340
 20
36.144009
 40
0.011227
  0
POLYLINE
  8
2
  6
CONTINUOUS
 66
     1
  0
VERTEX
  8
2
  6
CONTINUOUS
 10
34.585340
 20
35.747410
  0
VERTEX
  8
2
  6
CONTINUOUS
 10
34.585340
 20
36.947410
  0
VERTEX
  8
2
  6
CONTINUOUS
 10
36.603340
 20
36.947410
  0
VERTEX
  8
2
  6
CONTINUOUS
 10
36.603340
 20
37.347410
  0
VERTEX
  8
2
  6
CONTINUOUS
 10
30.967340
 20
37.347410
  0
VERTEX
  8
2
  6
CONTINUOUS
 10
30.967340
 20
36.947410
  0
VERTEX
  8
2
  6
CONTINUOUS
 10
32.985340
 20
36.947410
  0
VERTEX
  8
2
  6
CONTINUOUS
 10
32.985340
 20
35.747410
  0
VERTEX
  8
2
  6
CONTINUOUS
 10
34.585340
 20
35.747410
  0
SEQEND
  8
2
  6
CONTINUOUS
  0
CIRCLE
  8
1
  6
CONTINUOUS
 10
33.295340
 20
36.059646
 40
0.011227
  0
CIRCLE
  8
1
  6
CONTINUOUS
 10
33.435340
 20
36.059646
 40
0.011227
  0
CIRCLE
  8
1
  6
CONTINUOUS
 10
33.575340
 20
36.059646
 40
0.011227
  0
CIRCLE
  8
1
  6
CONTINUOUS
 10
33.715340
 20
36.059646
 40
0.011227
  0
CIRCLE
  8
1
  6
CONTINUOUS
 10
33.855340
 20
36.059646
 40
0.011227
  0
CIRCLE
  8
1
  6
CONTINUOUS
 10
33.995340
 20
36.059646
 40
0.011227
  0
CIRCLE
  8
1
  6
CONTINUOUS
 10
34.135340
 20
36.059646
 40
0.011227
  0
CIRCLE
  8
1
  6
CONTINUOUS
 10
34.275340
 20
36.059646
 40
0.011227
  0
CIRCLE
  8
1
  6
CONTINUOUS
 10
33.295340
 20
35.988900
 40
0.011227
  0
CIRCLE
  8
1
  6
CONTINUOUS
 10
33.435340
 20
35.988900
 40
0.011227
  0
CIRCLE
  8
1
  6
CONTINUOUS
 10
33.575340
 20
35.988900
 40
0.011227
  0
CIRCLE
  8
1
  6
CONTINUOUS
 10
33.715340
 20
35.988900
 40
0.011227
  0
CIRCLE
  8
1
  6
CONTINUOUS
 10
33.855340
 20
35.988900
 40
0.011227
  0
CIRCLE
  8
1
  6
CONTINUOUS
 10
33.995340
 20
35.988900
 40
0.011227
  0
CIRCLE
  8
1
  6
CONTINUOUS
 10
34.135340
 20
35.988900
 40
0.011227
  0
CIRCLE
  8
1
  6
CONTINUOUS
 10
34.275340
 20
35.988900
 40
0.011227
  0
POLYLINE
  8
2
  6
CONTINUOUS
 66
     1
  0
VERTEX
  8
2
  6
CONTINUOUS
 10
41.185340
 20
35.747410
  0
VERTEX
  8
2
  6
CONTINUOUS
 10
41.185340
 20
36.947410
  0
VERTEX
  8
2
  6
CONTINUOUS
 10
43.203340
 20
36.947410
  0
VERTEX
  8
2
  6
CONTINUOUS
 10
43.203340
 20
37.347410
  0
VERTEX
  8
2
  6
CONTINUOUS
 10
37.567340
 20
37.347410
  0
VERTEX
  8
2
  6
CONTINUOUS
 10
37.567340
 20
36.947410
  0
VERTEX
  8
2
  6
CONTINUOUS
 10
39.585340
 20
36.947410
  0
VERTEX
  8
2
  6
CONTINUOUS
 10
39.585340
 20
35.747410
  0
VERTEX
  8
2
  6
CONTINUOUS
 10
41.185340
 20
35.747410
  0
SEQEND
  8
2
  6
CONTINUOUS
  0
CIRCLE
  8
1
  6
CONTINUOUS
 10
39.895340
 20
35.890365
 40
0.011227
  0
CIRCLE
  8
1
  6
CONTINUOUS
 10
40.035340
 20
35.890365
 40
0.011227
  0
CIRCLE
  8
1
  6
CONTINUOUS
 10
40.175340
 20
35.890365
 40
0.011227
  0
CIRCLE
  8
1
  6
CONTINUOUS
 10
40.315340
 20
35.890365
 40
0.011227
  0
CIRCLE
  8
1
  6
CONTINUOUS
 10
40.455340
 20
35.890365
 40
0.011227
  0
CIRCLE
  8
1
  6
CONTINUOUS
 10
40.595340
 20
35.890365
 40
0.011227
  0
CIRCLE
  8
1
  6
CONTINUOUS
 10
40.735340
 20
35.890365
 40
0.011227
  0
CIRCLE
  8
1
  6
CONTINUOUS
 10
40.875340
 20
35.890365
 40
0.011227
  0
CIRCLE
  8
1
  6
CONTINUOUS
 10
39.895340
 20
35.876047
 40
0.011227
  0
CIRCLE
  8
1
  6
CONTINUOUS
 10
40.035340
 20
35.876047
 40
0.011227
  0
CIRCLE
  8
1
  6
CONTINUOUS
 10
40.175340
 20
35.876047
 40
0.011227
  0
CIRCLE
  8
1
  6
CONTINUOUS
 10
40.315340
 20
35.876047
 40
0.011227
  0
CIRCLE
  8
1
  6
CONTINUOUS
 10
40.455340
 20
35.876047
 40
0.011227
  0
CIRCLE
  8
1
  6
CONTINUOUS
 10
40.595340
 20
35.876047
 40
0.011227
  0
CIRCLE
  8
1
  6
CONTINUOUS
 10
40.735340
 20
35.876047
 40
0.011227
  0
CIRCLE
  8
1
  6
CONTINUOUS
 10
40.875340
 20
35.876047
 40
0.011227
  0
POLYLINE
  8
2
  6
CONTINUOUS
 66
     1
  0
VERTEX
  8
2
  6
CONTINUOUS
 10
47.785340
 20
35.747410
  0
VERTEX
  8
2
  6
CONTINUOUS
 10
47.785340
 20
36.947410
  0
VERTEX
  8
2
  6
CONTINUOUS
 10
49.803340
 20
36.947410
  0
VERTEX
  8
2
  6
CONTINUOUS
 10
49.803340
 20
37.347410
  0
VERTEX
  8
2
  6
CONTINUOUS
 10
44.167340
 20
37.347410
  0
VERTEX
  8
2
  6
CONTINUOUS
 10
44.167340
 20
36.947410
  0
VERTEX
  8
2
  6
CONTINUOUS
 10
46.185340
 20
36.947410
  0
VERTEX
  8
2
  6
CONTINUOUS
 10
46.185340
 20
35.747410
  0
VERTEX
  8
2
  6
CONTINUOUS
 10
47.785340
 20
35.747410
  0
SEQEND
  8
2
  6
CONTINUOUS
  0
CIRCLE
  8
1
  6
CONTINUOUS
 10
46.495340
 20
35.847410
 40
0.011227
  0
CIRCLE
  8
1
  6
CONTINUOUS
 10
46.635340
 20
35.847410
 40
0.011227
  0
CIRCLE
  8
1
  6
CONTINUOUS
 10
46.775340
 20
35.847410
 40
0.011227
  0
CIRCLE
  8
1
  6
CONTINUOUS
 10
46.915340
 20
35.847410
 40
0.011227
  0
CIRCLE
  8
1
  6
CONTINUOUS
 10
47.055340
 20
35.847410
 40
0.011227
  0
CIRCLE
  8
1
  6
CONTINUOUS
 10
47.195340
 20
35.847410
 40
0.011227
  0
CIRCLE
  8
1
  6
CONTINUOUS
 10
47.335340
 20
35.847410
 40
0.011227
  0
CIRCLE
  8
1
  6
CONTINUOUS
 10
47.475340
 20
35.847410
 40
0.011227
  0
CIRCLE
  8
1
  6
CONTINUOUS
 10
46.495340
 20
35.847410
 40
0.011227
  0
CIRCLE
  8
1
  6
CONTINUOUS
 10
46.635340
 20
35.847410
 40
0.011227
  0
CIRCLE
  8
1
  6
CONTINUOUS
 10
46.775340
 20
35.847410
 40
0.011227
  0
CIRCLE
  8
1
  6
CONTINUOUS
 10
46.915340
 20
35.847410
 40
0.011227
  0
CIRCLE
  8
1
  6
CONTINUOUS
 10
47.055340
 20
35.847410
 40
0.011227
  0
CIRCLE
  8
1
  6
CONTINUOUS
 10
47.195340
 20
35.847410
 40
0.011227
  0
CIRCLE
  8
1
  6
CONTINUOUS
 10
47.335340
 20
35.847410
 40
0.011227
  0
CIRCLE
  8
1
  6
CONTINUOUS
 10
47.475340
 20
35.847410
 40
0.011227
  0
POLYLINE
  8
2
  6
CONTINUOUS
 66
     1
  0
VERTEX
  8
2
  6
CONTINUOUS
 10
54.385340
 20
35.747410
  0
VERTEX
  8
2
  6
CONTINUOUS
 10
54.385340
 20
36.947410
  0
VERTEX
  8
2
  6
CONTINUOUS
 10
56.403340
 20
36.947410
  0
VERTEX
  8
2
  6
CONTINUOUS
 10
56.403340
 20
37.347410
  0
VERTEX
  8
2
  6
CONTINUOUS
 10
50.767340
 20
37.347410
  0
VERTEX
  8
2
  6
CONTINUOUS
 10
50.767340
 20
36.947410
  0
VERTEX
  8
2
  6
CONTINUOUS
 10
52.785340
 20
36.947410
  0
VERTEX
  8
2
  6
CONTINUOUS
 10
52.785340
 20
35.747410
  0
VERTEX
  8
2
  6
CONTINUOUS
 10
54.385340
 20
35.747410
  0
SEQEND
  8
2
  6
CONTINUOUS
  0
CIRCLE
  8
1
  6
CONTINUOUS
 10
53.095340
 20
35.847410
 40
0.011227
  0
CIRCLE
  8
1
  6
CONTINUOUS
 10
53.235340
 20
35.847410
 40
0.011227
  0
CIRCLE
  8
1
  6
CONTINUOUS
 10
53.375340
 20
35.847410
 40
0.011227
  0
CIRCLE
  8
1
  6
CONTINUOUS
 10
53.515340
 20
35.847410
 40
0.011227
  0
CIRCLE
  8
1
  6
CONTINUOUS
 10
53.655340
 20
35.847410
 40
0.011227
  0
CIRCLE
  8
1
  6
CONTINUOUS
 10
53.795340
 20
35.847410
 40
0.011227
  0
CIRCLE
  8
1
  6
CONTINUOUS
 10
53.935340
 20
35.847410
 40
0.011227
  0
CIRCLE
  8
1
  6
CONTINUOUS
 10
54.075340
 20
35.847410
 40
0.011227
  0
CIRCLE
  8
1
  6
CONTINUOUS
 10
53.095340
 20
35.847410
 40
0.011227
  0
CIRCLE
  8
1
  6
CONTINUOUS
 10
53.235340
 20
35.847410
 40
0.011227
  0
CIRCLE
  8
1
  6
CONTINUOUS
 10
53.375340
 20
35.847410
 40
0.011227
  0
CIRCLE
  8
1
  6
CONTINUOUS
 10
53.515340
 20
35.847410
 40
0.011227
  0
CIRCLE
  8
1
  6
CONTINUOUS
 10
53.655340
 20
35.847410
 40
0.011227
  0
CIRCLE
  8
1
  6
CONTINUOUS
 10
53.795340
 20
35.847410
 40
0.011227
  0
CIRCLE
  8
1
  6
CONTINUOUS
 10
53.935340
 20
35.847410
 40
0.011227
  0
CIRCLE
  8
1
  6
CONTINUOUS
 10
54.075340
 20
35.847410
 40
0.011227
  0
POLYLINE
  8
2
  6
CONTINUOUS
 66
     1
  0
VERTEX
  8
2
  6
CONTINUOUS
 10
60.985340
 20
35.747410
  0
VERTEX
  8
2
  6
CONTINUOUS
 10
60.985340
 20
36.947410
  0
VERTEX
  8
2
  6
CONTINUOUS
 10
63.003340
 20
36.947410
  0
VERTEX
  8
2
  6
CONTINUOUS
 10
63.003340
 20
37.347410
  0
VERTEX
  8
2
  6
CONTINUOUS
 10
57.367340
 20
37.347410
  0
VERTEX
  8
2
  6
CONTINUOUS
 10
57.367340
 20
36.947410
  0
VERTEX
  8
2
  6
CONTINUOUS
 10
59.385340
 20
36.947410
  0
VERTEX
  8
2
  6
CONTINUOUS
 10
59.385340
 20
35.747410
  0
VERTEX
  8
2
  6
CONTINUOUS
 10
60.985340
 20
35.747410
  0
SEQEND
  8
2
  6
CONTINUOUS
  0
CIRCLE
  8
1
  6
CONTINUOUS
 10
59.695340
 20
35.847410
 40
0.011227
  0
CIRCLE
  8
1
  6
CONTINUOUS
 10
59.835340
 20
35.847410
 40
0.011227
  0
CIRCLE
  8
1
  6
CONTINUOUS
 10
59.975340
 20
35.847410
 40
0.011227
  0
CIRCLE
  8
1
  6
CONTINUOUS
 10
60.115340
 20
35.847410
 40
0.011227
  0
CIRCLE
  8
1
  6
CONTINUOUS
 10
60.255340
 20
35.847410
 40
0.011227
  0
CIRCLE
  8
1
  6
CONTINUOUS
 10
60.395340
 20
35.847410
 40
0.011227
  0
CIRCLE
  8
1
  6
CONTINUOUS
 10
60.535340
 20
35.847410
 40
0.011227
  0
CIRCLE
  8
1
  6
CONTINUOUS
 10
60.675340
 20
35.847410
 40
0.011227
  0
CIRCLE
  8
1
  6
CONTINUOUS
 10
59.695340
 20
35.847410
 40
0.011227
  0
CIRCLE
  8
1
  6
CONTINUOUS
 10
59.835340
 20
35.847410
 40
0.011227
  0
CIRCLE
  8
1
  6
CONTINUOUS
 10
59.975340
 20
35.847410
 40
0.011227
  0
CIRCLE
  8
1
  6
CONTINUOUS
 10
60.115340
 20
35.847410
 40
0.011227
  0
CIRCLE
  8
1
  6
CONTINUOUS
 10
60.255340
 20
35.847410
 40
0.011227
  0
CIRCLE
  8
1
  6
CONTINUOUS
 10
60.395340
 20
35.847410
 40
0.011227
  0
CIRCLE
  8
1
  6
CONTINUOUS
 10
60.535340
 20
35.847410
 40
0.011227
  0
CIRCLE
  8
1
  6
CONTINUOUS
 10
60.675340
 20
35.847410
 40
0.011227
  0
POLYLINE
  8
2
  6
CONTINUOUS
 66
     1
  0
VERTEX
  8
2
  6
CONTINUOUS
 10
67.585340
 20
35.747410
  0
VERTEX
  8
2
  6
CONTINUOUS
 10
67.585340
 20
36.947410
  0
VERTEX
  8
2
  6
CONTINUOUS
 10
69.603340
 20
36.947410
  0
VERTEX
  8
2
  6
CONTINUOUS
 10
69.603340
 20
37.347410
  0
VERTEX
  8
2
  6
CONTINUOUS
 10
63.967340
 20
37.347410
  0
VERTEX
  8
2
  6
CONTINUOUS
 10
63.967340
 20
36.947410
  0
VERTEX
  8
2
  6
CONTINUOUS
 10
65.985340
 20
36.947410
  0
VERTEX
  8
2
  6
CONTINUOUS
 10
65.985340
 20
35.747410
  0
VERTEX
  8
2
  6
CONTINUOUS
 10
67.585340
 20
35.747410
  0
SEQEND
  8
2
  6
CONTINUOUS
  0
CIRCLE
  8
1
  6
CONTINUOUS
 10
66.295340
 20
36.054153
 40
0.011227
  0
CIRCLE
  8
1
  6
CONTINUOUS
 10
66.435340
 20
36.054153
 40
0.011227
  0
CIRCLE
  8
1
  6
CONTINUOUS
 10
66.575340
 20
36.054153
 40
0.011227
  0
CIRCLE
  8
1
  6
CONTINUOUS
 10
66.715340
 20
36.054153
 40
0.011227
  0
CIRCLE
  8
1
  6
CONTINUOUS
 10
66.855340
 20
36.054153
 40
0.011227
  0
CIRCLE
  8
1
  6
CONTINUOUS
 10
66.995340
 20
36.054153
 40
0.011227
  0
CIRCLE
  8
1
  6
CONTINUOUS
 10
67.135340
 20
36.054153
 40
0.011227
  0
CIRCLE
  8
1
  6
CONTINUOUS
 10
67.275340
 20
36.054153
 40
0.011227
  0
CIRCLE
  8
1
  6
CONTINUOUS
 10
66.295340
 20
35.985239
 40
0.011227
  0
CIRCLE
  8
1
  6
CONTINUOUS
 10
66.435340
 20
35.985239
 40
0.011227
  0
CIRCLE
  8
1
  6
CONTINUOUS
 10
66.575340
 20
35.985239
 40
0.011227
  0
CIRCLE
  8
1
  6
CONTINUOUS
 10
66.715340
 20
35.985239
 40
0.011227
  0
CIRCLE
  8
1
  6
CONTINUOUS
 10
66.855340
 20
35.985239
 40
0.011227
  0
CIRCLE
  8
1
  6
CONTINUOUS
 10
66.995340
 20
35.985239
 40
0.011227
  0
CIRCLE
  8
1
  6
CONTINUOUS
 10
67.135340
 20
35.985239
 40
0.011227
  0
CIRCLE
  8
1
  6
CONTINUOUS
 10
67.275340
 20
35.985239
 40
0.011227
  0
POLYLINE
  8
2
  6
CONTINUOUS
 66
     1
  0
VERTEX
  8
2
  6
CONTINUOUS
 10
74.185340
 20
35.747410
  0
VERTEX
  8
2
  6
CONTINUOUS
 10
74.185340
 20
36.947410
  0
VERTEX
  8
2
  6
CONTINUOUS
 10
76.203340
 20
36.947410
  0
VERTEX
  8
2
  6
CONTINUOUS
 10
76.203340
 20
37.347410
  0
VERTEX
  8
2
  6
CONTINUOUS
 10
70.567340
 20
37.347410
  0
VERTEX
  8
2
  6
CONTINUOUS
 10
70.567340
 20
36.947410
  0
VERTEX
  8
2
  6
CONTINUOUS
 10
72.585340
 20
36.947410
  0
VERTEX
  8
2
  6
CONTINUOUS
 10
72.585340
 20
35.747410
  0
VERTEX
  8
2
  6
CONTINUOUS
 10
74.185340
 20
35.747410
  0
SEQEND
  8
2
  6
CONTINUOUS
  0
CIRCLE
  8
1
  6
CONTINUOUS
 10
72.895340
 20
36.576133
 40
0.011227
  0
CIRCLE
  8
1
  6
CONTINUOUS
 10
73.035340
 20
36.576133
 40
0.011227
  0
CIRCLE
  8
1
  6
CONTINUOUS
 10
73.175340
 20
36.576133
 40
0.011227
  0
CIRCLE
  8
1
  6
CONTINUOUS
 10
73.315340
 20
36.576133
 40
0.011227
  0
CIRCLE
  8
1
  6
CONTINUOUS
 10
73.455340
 20
36.576133
 40
0.011227
  0
CIRCLE
  8
1
  6
CONTINUOUS
 10
73.595340
 20
36.576133
 40
0.011227
  0
CIRCLE
  8
1
  6
CONTINUOUS
 10
73.735340
 20
36.576133
 40
0.011227
  0
CIRCLE
  8
1
  6
CONTINUOUS
 10
73.875340
 20
36.576133
 40
0.011227
  0
CIRCLE
  8
1
  6
CONTINUOUS
 10
72.895340
 20
36.333225
 40
0.011227
  0
CIRCLE
  8
1
  6
CONTINUOUS
 10
73.035340
 20
36.333225
 40
0.011227
  0
CIRCLE
  8
1
  6
CONTINUOUS
 10
73.175340
 20
36.333225
 40
0.011227
  0
CIRCLE
  8
1
  6
CONTINUOUS
 10
73.315340
 20
36.333225
 40
0.011227
  0
CIRCLE
  8
1
  6
CONTINUOUS
 10
73.455340
 20
36.333225
 40
0.011227
  0
CIRCLE
  8
1
  6
CONTINUOUS
 10
73.595340
 20
36.333225
 40
0.011227
  0
CIRCLE
  8
1
  6
CONTINUOUS
 10
73.735340
 20
36.333225
 40
0.011227
  0
CIRCLE
  8
1
  6
CONTINUOUS
 10
73.875340
 20
36.333225
 40
0.011227
  0
POLYLINE
  8
2
  6
CONTINUOUS
 66
     1
  0
VERTEX
  8
2
  6
CONTINUOUS
 10
8.185340
 20
30.147410
  0
VERTEX
  8
2
  6
CONTINUOUS
 10
8.185340
 20
31.347410
  0
VERTEX
  8
2
  6
CONTINUOUS
 10
10.203340
 20
31.347410
  0
VERTEX
  8
2
  6
CONTINUOUS
 10
10.203340
 20
31.747410
  0
VERTEX
  8
2
  6
CONTINUOUS
 10
4.567340
 20
31.747410
  0
VERTEX
  8
2
  6
CONTINUOUS
 10
4.567340
 20
31.347410
  0
VERTEX
  8
2
  6
CONTINUOUS
 10
6.585340
 20
31.347410
  0
VERTEX
  8
2
  6
CONTINUOUS
 10
6.585340
 20
30.147410
  0
VERTEX
  8
2
  6
CONTINUOUS
 10
8.185340
 20
30.147410
  0
SEQEND
  8
2
  6
CONTINUOUS
  0
CIRCLE
  8
1
  6
CONTINUOUS
 10
6.895340
 20
31.087410
 40
0.011227
  0
CIRCLE
  8
2
  6
CONTINUOUS
 10
6.895340
 20
31.087410
 40
0.031227
  0
LINE
  8
2
  6
CONTINUOUS
 10
6.835340
 20
31.217410
 11
6.955340
 21
31.217410
  0
LINE
  8
2
  6
CONTINUOUS
 10
6.835340
 20
30.957410
 11
6.955340
 21
30.957410
  0
LINE
  8
2
  6
CONTINUOUS
 10
6.835340
 20
30.957410
 11
6.835340
 21
31.217410
  0
LINE
  8
2
  6
CONTINUOUS
 10
6.955340
 20
30.957410
 11
6.955340
 21
31.217410
  0
LINE
  8
2
  6
CONTINUOUS
 10
6.835340
 20
31.217410
 11
6.882254
 21
31.115763
  0
LINE
  8
2
  6
CONTINUOUS
 10
6.955340
 20
31.217410
 11
6.908426
 21
31.115763
  0
LINE
  8
2
  6
CONTINUOUS
 10
6.835340
 20
30.957410
 11
6.882254
 21
31.059057
  0
LINE
  8
2
  6
CONTINUOUS
 10
6.955340
 20
30.957410
 11
6.908426
 21
31.059057
  0
CIRCLE
  8
1
  6
CONTINUOUS
 10
7.035340
 20
31.087410
 40
0.011227
  0
CIRCLE
  8
2
  6
CONTINUOUS
 10
7.035340
 20
31.087410
 40
0.031227
  0
LINE
  8
2
  6
CONTINUOUS
 10
6.975340
 20
31.217410
 11
7.095340
 21
31.217410
  0
LINE
  8
2
  6
CONTINUOUS
 10
6.975340
 20
30.957410
 11
7.095340
 21
30.957410
  0
LINE
  8
2
  6
CONTINUOUS
 10
6.975340
 20
30.957410
 11
6.975340
 21
31.217410
  0
LINE
  8
2
  6
CONTINUOUS
 10
7.095340
 20
30.957410
 11
7.095340
 21
31.217410
  0
LINE
  8
2
  6
CONTINUOUS
 10
6.975340
 20
31.217410
 11
7.022254
 21
31.115763
  0
LINE
  8
2
  6
CONTINUOUS
 10
7.095340
 20
31.217410
 11
7.048426
 21
31.115763
  0
LINE
  8
2
  6
CONTINUOUS
 10
6.975340
 20
30.957410
 11
7.022254
 21
31.059057
  0
LINE
  8
2
  6
CONTINUOUS
 10
7.095340
 20
30.957410
 11
7.048426
 21
31.059057
  0
CIRCLE
  8
1
  6
CONTINUOUS
 10
7.175340
 20
31.087410
 40
0.011227
  0
CIRCLE
  8
2
  6
CONTINUOUS
 10
7.175340
 20
31.087410
 40
0.031227
  0
LINE
  8
2
  6
CONTINUOUS
 10
7.115340
 20
31.217410
 11
7.235340
 21
31.217410
  0
LINE
  8
2
  6
CONTINUOUS
 10
7.115340
 20
30.957410
 11
7.235340
 21
30.957410
  0
LINE
  8
2
  6
CONTINUOUS
 10
7.115340
 20
30.957410
 11
7.115340
 21
31.217410
  0
LINE
  8
2
  6
CONTINUOUS
 10
7.235340
 20
30.957410
 11
7.235340
 21
31.217410
  0
LINE
  8
2
  6
CONTINUOUS
 10
7.115340
 20
31.217410
 11
7.162254
 21
31.115763
  0
LINE
  8
2
  6
CONTINUOUS
 10
7.235340
 20
31.217410
 11
7.188426
 21
31.115763
  0
LINE
  8
2
  6
CONTINUOUS
 10
7.115340
 20
30.957410
 11
7.162254
 21
31.059057
  0
LINE
  8
2
  6
CONTINUOUS
 10
7.235340
 20
30.957410
 11
7.188426
 21
31.059057
  0
CIRCLE
  8
1
  6
CONTINUOUS
 10
7.315340
 20
31.087410
 40
0.011227
  0
CIRCLE
  8
2
  6
CONTINUOUS
 10
7.315340
 20
31.087410
 40
0.031227
  0
LINE
  8
2
  6
CONTINUOUS
 10
7.255340
 20
31.217410
 11
7.375340
 21
31.217410
  0
LINE
  8
2
  6
CONTINUOUS
 10
7.255340
 20
30.957410
 11
7.375340
 21
30.957410
  0
LINE
  8
2
  6
CONTINUOUS
 10
7.255340
 20
30.957410
 11
7.255340
 21
31.217410
  0
LINE
  8
2
  6
CONTINUOUS
 10
7.375340
 20
30.957410
 11
7.375340
 21
31.217410
  0
LINE
  8
2
  6
CONTINUOUS
 10
7.255340
 20
31.217410
 11
7.302254
 21
31.115763
  0
LINE
  8
2
  6
CONTINUOUS
 10
7.375340
 20
31.217410
 11
7.328426
 21
31.115763
  0
LINE
  8
2
  6
CONTINUOUS
 10
7.255340
 20
30.957410
 11
7.302254
 21
31.059057
  0
LINE
  8
2
  6
CONTINUOUS
 10
7.375340
 20
30.957410
 11
7.328426
 21
31.059057
  0
CIRCLE
  8
1
  6
CONTINUOUS
 10
7.455340
 20
31.087410
 40
0.011227
  0
CIRCLE
  8
2
  6
CONTINUOUS
 10
7.455340
 20
31.087410
 40
0.031227
  0
LINE
  8
2
  6
CONTINUOUS
 10
7.395340
 20
31.217410
 11
7.515340
 21
31.217410
  0
LINE
  8
2
  6
CONTINUOUS
 10
7.395340
 20
30.957410
 11
7.515340
 21
30.957410
  0
LINE
  8
2
  6
CONTINUOUS
 10
7.395340
 20
30.957410
 11
7.395340
 21
31.217410
  0
LINE
  8
2
  6
CONTINUOUS
 10
7.515340
 20
30.957410
 11
7.515340
 21
31.217410
  0
LINE
  8
2
  6
CONTINUOUS
 10
7.395340
 20
31.217410
 11
7.442254
 21
31.115763
  0
LINE
  8
2
  6
CONTINUOUS
 10
7.515340
 20
31.217410
 11
7.468426
 21
31.115763
  0
LINE
  8
2
  6
CONTINUOUS
 10
7.395340
 20
30.957410
 11
7.442254
 21
31.059057
  0
LINE
  8
2
  6
CONTINUOUS
 10
7.515340
 20
30.957410
 11
7.468426
 21
31.059057
  0
CIRCLE
  8
1
  6
CONTINUOUS
 10
7.595340
 20
31.087410
 40
0.011227
  0
CIRCLE
  8
2
  6
CONTINUOUS
 10
7.595340
 20
31.087410
 40
0.031227
  0
LINE
  8
2
  6
CONTINUOUS
 10
7.535340
 20
31.217410
 11
7.655340
 21
31.217410
  0
LINE
  8
2
  6
CONTINUOUS
 10
7.535340
 20
30.957410
 11
7.655340
 21
30.957410
  0
LINE
  8
2
  6
CONTINUOUS
 10
7.535340
 20
30.957410
 11
7.535340
 21
31.217410
  0
LINE
  8
2
  6
CONTINUOUS
 10
7.655340
 20
30.957410
 11
7.655340
 21
31.217410
  0
LINE
  8
2
  6
CONTINUOUS
 10
7.535340
 20
31.217410
 11
7.582254
 21
31.115763
  0
LINE
  8
2
  6
CONTINUOUS
 10
7.655340
 20
31.217410
 11
7.608426
 21
31.115763
  0
LINE
  8
2
  6
CONTINUOUS
 10
7.535340
 20
30.957410
 11
7.582254
 21
31.059057
  0
LINE
  8
2
  6
CONTINUOUS
 10
7.655340
 20
30.957410
 11
7.608426
 21
31.059057
  0
CIRCLE
  8
1
  6
CONTINUOUS
 10
7.735340
 20
31.087410
 40
0.011227
  0
CIRCLE
  8
2
  6
CONTINUOUS
 10
7.735340
 20
31.087410
 40
0.031227
  0
LINE
  8
2
  6
CONTINUOUS
 10
7.675340
 20
31.217410
 11
7.795340
 21
31.217410
  0
LINE
  8
2
  6
CONTINUOUS
 10
7.675340
 20
30.957410
 11
7.795340
 21
30.957410
  0
LINE
  8
2
  6
CONTINUOUS
 10
7.675340
 20
30.957410
 11
7.675340
 21
31.217410
  0
LINE
  8
2
  6
CONTINUOUS
 10
7.795340
 20
30.957410
 11
7.795340
 21
31.217410
  0
LINE
  8
2
  6
CONTINUOUS
 10
7.675340
 20
31.217410
 11
7.722254
 21
31.115763
  0
LINE
  8
2
  6
CONTINUOUS
 10
7.795340
 20
31.217410
 11
7.748426
 21
31.115763
  0
LINE
  8
2
  6
CONTINUOUS
 10
7.675340
 20
30.957410
 11
7.722254
 21
31.059057
  0
LINE
  8
2
  6
CONTINUOUS
 10
7.795340
 20
30.957410
 11
7.748426
 21
31.059057
  0
CIRCLE
  8
1
  6
CONTINUOUS
 10
7.875340
 20
31.087410
 40
0.011227
  0
CIRCLE
  8
2
  6
CONTINUOUS
 10
7.875340
 20
31.087410
 40
0.031227
  0
LINE
  8
2
  6
CONTINUOUS
 10
7.815340
 20
31.217410
 11
7.935340
 21
31.217410
  0
LINE
  8
2
  6
CONTINUOUS
 10
7.815340
 20
30.957410
 11
7.935340
 21
30.957410
  0
LINE
  8
2
  6
CONTINUOUS
 10
7.815340
 20
30.957410
 11
7.815340
 21
31.217410
  0
LINE
  8
2
  6
CONTINUOUS
 10
7.935340
 20
30.957410
 11
7.935340
 21
31.217410
  0
LINE
  8
2
  6
CONTINUOUS
 10
7.815340
 20
31.217410
 11
7.862254
 21
31.115763
  0
LINE
  8
2
  6
CONTINUOUS
 10
7.935340
 20
31.217410
 11
7.888426
 21
31.115763
  0
LINE
  8
2
  6
CONTINUOUS
 10
7.815340
 20
30.957410
 11
7.862254
 21
31.059057
  0
LINE
  8
2
  6
CONTINUOUS
 10
7.935340
 20
30.957410
 11
7.888426
 21
31.059057
  0
CIRCLE
  8
1
  6
CONTINUOUS
 10
6.895340
 20
30.807410
 40
0.011227
  0
CIRCLE
  8
2
  6
CONTINUOUS
 10
6.895340
 20
30.807410
 40
0.031227
  0
LINE
  8
2
  6
CONTINUOUS
 10
6.835340
 20
30.937410
 11
6.955340
 21
30.937410
  0
LINE
  8
2
  6
CONTINUOUS
 10
6.835340
 20
30.677410
 11
6.955340
 21
30.677410
  0
LINE
  8
2
  6
CONTINUOUS
 10
6.835340
 20
30.677410
 11
6.835340
 21
30.937410
  0
LINE
  8
2
  6
CONTINUOUS
 10
6.955340
 20
30.677410
 11
6.955340
 21
30.937410
  0
LINE
  8
2
  6
CONTINUOUS
 10
6.835340
 20
30.937410
 11
6.882254
 21
30.835763
  0
LINE
  8
2
  6
CONTINUOUS
 10
6.955340
 20
30.937410
 11
6.908426
 21
30.835763
  0
LINE
  8
2
  6
CONTINUOUS
 10
6.835340
 20
30.677410
 11
6.882254
 21
30.779057
  0
LINE
  8
2
  6
CONTINUOUS
 10
6.955340
 20
30.677410
 11
6.908426
 21
30.779057
  0
CIRCLE
  8
1
  6
CONTINUOUS
 10
7.035340
 20
30.807410
 40
0.011227
  0
CIRCLE
  8
2
  6
CONTINUOUS
 10
7.035340
 20
30.807410
 40
0.031227
  0
LINE
  8
2
  6
CONTINUOUS
 10
6.975340
 20
30.937410
 11
7.095340
 21
30.937410
  0
LINE
  8
2
  6
CONTINUOUS
 10
6.975340
 20
30.677410
 11
7.095340
 21
30.677410
  0
LINE
  8
2
  6
CONTINUOUS
 10
6.975340
 20
30.677410
 11
6.975340
 21
30.937410
  0
LINE
  8
2
  6
CONTINUOUS
 10
7.095340
 20
30.677410
 11
7.095340
 21
30.937410
  0
LINE
  8
2
  6
CONTINUOUS
 10
6.975340
 20
30.937410
 11
7.022254
 21
30.835763
  0
LINE
  8
2
  6
CONTINUOUS
 10
7.095340
 20
30.937410
 11
7.048426
 21
30.835763
  0
LINE
  8
2
  6
CONTINUOUS
 10
6.975340
 20
30.677410
 11
7.022254
 21
30.779057
  0
LINE
  8
2
  6
CONTINUOUS
 10
7.095340
 20
30.677410
 11
7.048426
 21
30.779057
  0
CIRCLE
  8
1
  6
CONTINUOUS
 10
7.175340
 20
30.807410
 40
0.011227
  0
CIRCLE
  8
2
  6
CONTINUOUS
 10
7.175340
 20
30.807410
 40
0.031227
  0
LINE
  8
2
  6
CONTINUOUS
 10
7.115340
 20
30.937410
 11
7.235340
 21
30.937410
  0
LINE
  8
2
  6
CONTINUOUS
 10
7.115340
 20
30.677410
 11
7.235340
 21
30.677410
  0
LINE
  8
2
  6
CONTINUOUS
 10
7.115340
 20
30.677410
 11
7.115340
 21
30.937410
  0
LINE
  8
2
  6
CONTINUOUS
 10
7.235340
 20
30.677410
 11
7.235340
 21
30.937410
  0
LINE
  8
2
  6
CONTINUOUS
 10
7.115340
 20
30.937410
 11
7.162254
 21
30.835763
  0
LINE
  8
2
  6
CONTINUOUS
 10
7.235340
 20
30.937410
 11
7.188426
 21
30.835763
  0
LINE
  8
2
  6
CONTINUOUS
 10
7.115340
 20
30.677410
 11
7.162254
 21
30.779057
  0
LINE
  8
2
  6
CONTINUOUS
 10
7.235340
 20
30.677410
 11
7.188426
 21
30.779057
  0
CIRCLE
  8
1
  6
CONTINUOUS
 10
7.315340
 20
30.807410
 40
0.011227
  0
CIRCLE
  8
2
  6
CONTINUOUS
 10
7.315340
 20
30.807410
 40
0.031227
  0
LINE
  8
2
  6
CONTINUOUS
 10
7.255340
 20
30.937410
 11
7.375340
 21
30.937410
  0
LINE
  8
2
  6
CONTINUOUS
 10
7.255340
 20
30.677410
 11
7.375340
 21
30.677410
  0
LINE
  8
2
  6
CONTINUOUS
 10
7.255340
 20
30.677410
 11
7.255340
 21
30.937410
  0
LINE
  8
2
  6
CONTINUOUS
 10
7.375340
 20
30.677410
 11
7.375340
 21
30.937410
  0
LINE
  8
2
  6
CONTINUOUS
 10
7.255340
 20
30.937410
 11
7.302254
 21
30.835763
  0
LINE
  8
2
  6
CONTINUOUS
 10
7.375340
 20
30.937410
 11
7.328426
 21
30.835763
  0
LINE
  8
2
  6
CONTINUOUS
 10
7.255340
 20
30.677410
 11
7.302254
 21
30.779057
  0
LINE
  8
2
  6
CONTINUOUS
 10
7.375340
 20
30.677410
 11
7.328426
 21
30.779057
  0
CIRCLE
  8
1
  6
CONTINUOUS
 10
7.455340
 20
30.807410
 40
0.011227
  0
CIRCLE
  8
2
  6
CONTINUOUS
 10
7.455340
 20
30.807410
 40
0.031227
  0
LINE
  8
2
  6
CONTINUOUS
 10
7.395340
 20
30.937410
 11
7.515340
 21
30.937410
  0
LINE
  8
2
  6
CONTINUOUS
 10
7.395340
 20
30.677410
 11
7.515340
 21
30.677410
  0
LINE
  8
2
  6
CONTINUOUS
 10
7.395340
 20
30.677410
 11
7.395340
 21
30.937410
  0
LINE
  8
2
  6
CONTINUOUS
 10
7.515340
 20
30.677410
 11
7.515340
 21
30.937410
  0
LINE
  8
2
  6
CONTINUOUS
 10
7.395340
 20
30.937410
 11
7.442254
 21
30.835763
  0
LINE
  8
2
  6
CONTINUOUS
 10
7.515340
 20
30.937410
 11
7.468426
 21
30.835763
  0
LINE
  8
2
  6
CONTINUOUS
 10
7.395340
 20
30.677410
 11
7.442254
 21
30.779057
  0
LINE
  8
2
  6
CONTINUOUS
 10
7.515340
 20
30.677410
 11
7.468426
 21
30.779057
  0
CIRCLE
  8
1
  6
CONTINUOUS
 10
7.595340
 20
30.807410
 40
0.011227
  0
CIRCLE
  8
2
  6
CONTINUOUS
 10
7.595340
 20
30.807410
 40
0.031227
  0
LINE
  8
2
  6
CONTINUOUS
 10
7.535340
 20
30.937410
 11
7.655340
 21
30.937410
  0
LINE
  8
2
  6
CONTINUOUS
 10
7.535340
 20
30.677410
 11
7.655340
 21
30.677410
  0
LINE
  8
2
  6
CONTINUOUS
 10
7.535340
 20
30.677410
 11
7.535340
 21
30.937410
  0
LINE
  8
2
  6
CONTINUOUS
 10
7.655340
 20
30.677410
 11
7.655340
 21
30.937410
  0
LINE
  8
2
  6
CONTINUOUS
 10
7.535340
 20
30.937410
 11
7.582254
 21
30.835763
  0
LINE
  8
2
  6
CONTINUOUS
 10
7.655340
 20
30.937410
 11
7.608426
 21
30.835763
  0
LINE
  8
2
  6
CONTINUOUS
 10
7.535340
 20
30.677410
 11
7.582254
 21
30.779057
  0
LINE
  8
2
  6
CONTINUOUS
 10
7.655340
 20
30.677410
 11
7.608426
 21
30.779057
  0
CIRCLE
  8
1
  6
CONTINUOUS
 10
7.735340
 20
30.807410
 40
0.011227
  0
CIRCLE
  8
2
  6
CONTINUOUS
 10
7.735340
 20
30.807410
 40
0.031227
  0
LINE
  8
2
  6
CONTINUOUS
 10
7.675340
 20
30.937410
 11
7.795340
 21
30.937410
  0
LINE
  8
2
  6
CONTINUOUS
 10
7.675340
 20
30.677410
 11
7.795340
 21
30.677410
  0
LINE
  8
2
  6
CONTINUOUS
 10
7.675340
 20
30.677410
 11
7.675340
 21
30.937410
  0
LINE
  8
2
  6
CONTINUOUS
 10
7.795340
 20
30.677410
 11
7.795340
 21
30.937410
  0
LINE
  8
2
  6
CONTINUOUS
 10
7.675340
 20
30.937410
 11
7.722254
 21
30.835763
  0
LINE
  8
2
  6
CONTINUOUS
 10
7.795340
 20
30.937410
 11
7.748426
 21
30.835763
  0
LINE
  8
2
  6
CONTINUOUS
 10
7.675340
 20
30.677410
 11
7.722254
 21
30.779057
  0
LINE
  8
2
  6
CONTINUOUS
 10
7.795340
 20
30.677410
 11
7.748426
 21
30.779057
  0
CIRCLE
  8
1
  6
CONTINUOUS
 10
7.875340
 20
30.807410
 40
0.011227
  0
CIRCLE
  8
2
  6
CONTINUOUS
 10
7.875340
 20
30.807410
 40
0.031227
  0
LINE
  8
2
  6
CONTINUOUS
 10
7.815340
 20
30.937410
 11
7.935340
 21
30.937410
  0
LINE
  8
2
  6
CONTINUOUS
 10
7.815340
 20
30.677410
 11
7.935340
 21
30.677410
  0
LINE
  8
2
  6
CONTINUOUS
 10
7.815340
 20
30.677410
 11
7.815340
 21
30.937410
  0
LINE
  8
2
  6
CONTINUOUS
 10
7.935340
 20
30.677410
 11
7.935340
 21
30.937410
  0
LINE
  8
2
  6
CONTINUOUS
 10
7.815340
 20
30.937410
 11
7.862254
 21
30.835763
  0
LINE
  8
2
  6
CONTINUOUS
 10
7.935340
 20
30.937410
 11
7.888426
 21
30.835763
  0
LINE
  8
2
  6
CONTINUOUS
 10
7.815340
 20
30.677410
 11
7.862254
 21
30.779057
  0
LINE
  8
2
  6
CONTINUOUS
 10
7.935340
 20
30.677410
 11
7.888426
 21
30.779057
  0
LINE
  8
1
  6
CONTINUOUS
 10
7.385340
 20
41.497410
 11
7.385340
 21
42.737410
  0
LINE
  8
1
  6
CONTINUOUS
 10
7.456051
 20
41.576699
 11
7.314629
 21
41.718121
  0
LINE
  8
1
  6
CONTINUOUS
 10
7.456051
 20
42.516699
 11
7.314629
 21
42.658121
  0
LINE
  8
2
  6
CONTINUOUS
 10
7.385340
 20
41.647410
 11
7.385340
 21
41.647410
  0
LINE
  8
2
  6
CONTINUOUS
 10
7.385340
 20
42.587410
 11
7.385340
 21
42.587410
  0
LINE
  8
1
  6
CONTINUOUS
 10
9.421885
 20
41.497410
 11
9.421885
 21
42.715047
  0
LINE
  8
1
  6
CONTINUOUS
 10
9.492596
 20
41.576699
 11
9.351175
 21
41.718121
  0
LINE
  8
1
  6
CONTINUOUS
 10
9.492596
 20
42.494336
 11
9.351175
 21
42.635758
  0
LINE
  8
2
  6
CONTINUOUS
 10
9.421885
 20
41.647410
 11
9.421885
 21
41.647410
  0
LINE
  8
2
  6
CONTINUOUS
 10
9.421885
 20
42.565047
 11
9.421885
 21
42.565047
  0
LINE
  8
1
  6
CONTINUOUS
 10
11.458431
 20
41.497410
 11
11.458431
 21
42.567670
  0
LINE
  8
1
  6
CONTINUOUS
 10
11.529142
 20
41.576699
 11
11.387720
 21
41.718121
  0
LINE
  8
1
  6
CONTINUOUS
 10
11.529142
 20
42.346959
 11
11.387720
 21
42.488381
  0
LINE
  8
2
  6
CONTINUOUS
 10
11.458431
 20
41.647410
 11
11.458431
 21
41.647410
  0
LINE
  8
2
  6
CONTINUOUS
 10
11.458431
 20
42.417670
 11
11.458431
 21
42.417670
  0
LINE
  8
1
  6
CONTINUOUS
 10
13.494976
 20
41.497410
 11
13.494976
 21
42.342308
  0
LINE
  8
1
  6
CONTINUOUS
 10
13.565687
 20
41.576699
 11
13.424266
 21
41.718121
  0
LINE
  8
1
  6
CONTINUOUS
 10
13.565687
 20
42.121598
 11
13.424266
 21
42.263019
  0
LINE
  8
2
  6
CONTINUOUS
 10
13.494976
 20
41.647410
 11
13.494976
 21
41.647410
  0
LINE
  8
2
  6
CONTINUOUS
 10
13.494976
 20
42.192308
 11
13.494976
 21
42.192308
  0
LINE
  8
1
  6
CONTINUOUS
 10
15.531522
 20
41.497410
 11
15.531522
 21
42.109646
  0
LINE
  8
1
  6
CONTINUOUS
 10
15.602232
 20
41.576699
 11
15.460811
 21
41.718121
  0
LINE
  8
1
  6
CONTINUOUS
 10
15.602232
 20
41.888935
 11
15.460811
 21
42.030356
  0
LINE
  8
2
  6
CONTINUOUS
 10
15.531522
 20
41.647410
 11
15.531522
 21
41.647410
  0
LINE
  8
2
  6
CONTINUOUS
 10
15.531522
 20
41.959646
 11
15.531522
 21
41.959646
  0
LINE
  8
1
  6
CONTINUOUS
 10
17.568067
 20
41.497410
 11
17.568067
 21
41.940365
  0
LINE
  8
1
  6
CONTINUOUS
 10
17.638778
 20
41.576699
 11
17.497357
 21
41.718121
  0
LINE
  8
1
  6
CONTINUOUS
 10
17.638778
 20
41.719655
 11
17.497357
 21
41.861076
  0
LINE
  8
2
  6
CONTINUOUS
 10
17.568067
 20
41.647410
 11
17.568067
 21
41.647410
  0
LINE
  8
2
  6
CONTINUOUS
 10
17.568067
 20
41.790365
 11
17.568067
 21
41.790365
  0
LINE
  8
1
  6
CONTINUOUS
 10
19.604613
 20
41.497410
 11
19.604613
 21
41.897410
  0
LINE
  8
1
  6
CONTINUOUS
 10
19.675323
 20
41.576699
 11
19.533902
 21
41.718121
  0
LINE
  8
1
  6
CONTINUOUS
 10
19.675323
 20
41.676699
 11
19.533902
 21
41.818121
  0
LINE
  8
2
  6
CONTINUOUS
 10
19.604613
 20
41.647410
 11
19.604613
 21
41.647410
  0
LINE
  8
2
  6
CONTINUOUS
 10
19.604613
 20
41.747410
 11
19.604613
 21
41.747410
  0
LINE
  8
1
  6
CONTINUOUS
 10
21.641158
 20
41.497410
 11
21.641158
 21
41.897410
  0
LINE
  8
1
  6
CONTINUOUS
 10
21.711869
 20
41.576699
 11
21.570448
 21
41.718121
  0
LINE
  8
1
  6
CONTINUOUS
 10
21.711869
 20
41.676699
 11
21.570448
 21
41.818121
  0
LINE
  8
2
  6
CONTINUOUS
 10
21.641158
 20
41.647410
 11
21.641158
 21
41.647410
  0
LINE
  8
2
  6
CONTINUOUS
 10
21.641158
 20
41.747410
 11
21.641158
 21
41.747410
  0
LINE
  8
1
  6
CONTINUOUS
 10
23.677704
 20
41.497410
 11
23.677704
 21
41.897410
  0
LINE
  8
1
  6
CONTINUOUS
 10
23.748414
 20
41.576699
 11
23.606993
 21
41.718121
  0
LINE
  8
1
  6
CONTINUOUS
 10
23.748414
 20
41.676699
 11
23.606993
 21
41.818121
  0
LINE
  8
2
  6
CONTINUOUS
 10
23.677704
 20
41.647410
 11
23.677704
 21
41.647410
  0
LINE
  8
2
  6
CONTINUOUS
 10
23.677704
 20
41.747410
 11
23.677704
 21
41.747410
  0
LINE
  8
1
  6
CONTINUOUS
 10
25.714249
 20
41.497410
 11
25.714249
 21
42.104153
  0
LINE
  8
1
  6
CONTINUOUS
 10
25.784960
 20
41.576699
 11
25.643538
 21
41.718121
  0
LINE
  8
1
  6
CONTINUOUS
 10
25.784960
 20
41.883443
 11
25.643538
 21
42.024864
  0
LINE
  8
2
  6
CONTINUOUS
 10
25.714249
 20
41.647410
 11
25.714249
 21
41.647410
  0
LINE
  8
2
  6
CONTINUOUS
 10
25.714249
 20
41.954153
 11
25.714249
 21
41.954153
  0
LINE
  8
1
  6
CONTINUOUS
 10
27.750795
 20
41.497410
 11
27.750795
 21
42.626133
  0
LINE
  8
1
  6
CONTINUOUS
 10
27.821505
 20
41.576699
 11
27.680084
 21
41.718121
  0
LINE
  8
1
  6
CONTINUOUS
 10
27.821505
 20
42.405422
 11
27.680084
 21
42.546844
  0
LINE
  8
2
  6
CONTINUOUS
 10
27.750795
 20
41.647410
 11
27.750795
 21
41.647410
  0
LINE
  8
2
  6
CONTINUOUS
 10
27.750795
 20
42.476133
 11
27.750795
 21
42.476133
  0
LINE
  8
1
  6
CONTINUOUS
 10
29.787340
 20
41.497410
 11
29.787340
 21
42.737410
  0
LINE
  8
1
  6
CONTINUOUS
 10
29.858051
 20
41.576699
 11
29.716629
 21
41.718121
  0
LINE
  8
1
  6
CONTINUOUS
 10
29.858051
 20
42.516699
 11
29.716629
 21
42.658121
  0
LINE
  8
2
  6
CONTINUOUS
 10
29.787340
 20
41.647410
 11
29.787340
 21
41.647410
  0
LINE
  8
2
  6
CONTINUOUS
 10
29.787340
 20
42.587410
 11
29.787340
 21
42.587410
  0
LINE
  8
1
  6
CONTINUOUS
 10
7.385340
 20
47.597410
 11
7.385340
 21
48.557410
  0
LINE
  8
1
  6
CONTINUOUS
 10
7.456051
 20
47.676699
 11
7.314629
 21
47.818121
  0
LINE
  8
1
  6
CONTINUOUS
 10
7.456051
 20
48.336699
 11
7.314629
 21
48.478121
  0
LINE
  8
2
  6
CONTINUOUS
 10
7.385340
 20
47.747410
 11
7.385340
 21
47.747410
  0
LINE
  8
2
  6
CONTINUOUS
 10
7.385340
 20
48.407410
 11
7.385340
 21
48.407410
  0
LINE
  8
1
  6
CONTINUOUS
 10
9.421885
 20
47.597410
 11
9.421885
 21
48.542501
  0
LINE
  8
1
  6
CONTINUOUS
 10
9.492596
 20
47.676699
 11
9.351175
 21
47.818121
  0
LINE
  8
1
  6
CONTINUOUS
 10
9.492596
 20
48.321791
 11
9.351175
 21
48.463212
  0
LINE
  8
2
  6
CONTINUOUS
 10
9.421885
 20
47.747410
 11
9.421885
 21
47.747410
  0
LINE
  8
2
  6
CONTINUOUS
 10
9.421885
 20
48.392501
 11
9.421885
 21
48.392501
  0
LINE
  8
1
  6
CONTINUOUS
 10
11.458431
 20
47.597410
 11
11.458431
 21
48.444250
  0
LINE
  8
1
  6
CONTINUOUS
 10
11.529142
 20
47.676699
 11
11.387720
 21
47.818121
  0
LINE
  8
1
  6
CONTINUOUS
 10
11.529142
 20
48.223539
 11
11.387720
 21
48.364961
  0
LINE
  8
2
  6
CONTINUOUS
 10
11.458431
 20
47.747410
 11
11.458431
 21
47.747410
  0
LINE
  8
2
  6
CONTINUOUS
 10
11.458431
 20
48.294250
 11
11.458431
 21
48.294250
  0
LINE
  8
1
  6
CONTINUOUS
 10
13.494976
 20
47.597410
 11
13.494976
 21
48.294009
  0
LINE
  8
1
  6
CONTINUOUS
 10
13.565687
 20
47.676699
 11
13.424266
 21
47.818121
  0
LINE
  8
1
  6
CONTINUOUS
 10
13.565687
 20
48.073298
 11
13.424266
 21
48.214720
  0
LINE
  8
2
  6
CONTINUOUS
 10
13.494976
 20
47.747410
 11
13.494976
 21
47.747410
  0
LINE
  8
2
  6
CONTINUOUS
 10
13.494976
 20
48.144009
 11
13.494976
 21
48.144009
  0
LINE
  8
1
  6
CONTINUOUS
 10
15.531522
 20
47.597410
 11
15.531522
 21
48.138900
  0
LINE
  8
1
  6
CONTINUOUS
 10
15.602232
 20
47.676699
 11
15.460811
 21
47.818121
  0
LINE
  8
1
  6
CONTINUOUS
 10
15.602232
 20
47.918190
 11
15.460811
 21
48.059611
  0
LINE
  8
2
  6
CONTINUOUS
 10
15.531522
 20
47.747410
 11
15.531522
 21
47.747410
  0
LINE
  8
2
  6
CONTINUOUS
 10
15.531522
 20
47.988900
 11
15.531522
 21
47.988900
  0
LINE
  8
1
  6
CONTINUOUS
 10
17.568067
 20
47.597410
 11
17.568067
 21
48.026047
  0
LINE
  8
1
  6
CONTINUOUS
 10
17.638778
 20
47.676699
 11
17.497357
 21
47.818121
  0
LINE
  8
1
  6
CONTINUOUS
 10
17.638778
 20
47.805336
 11
17.497357
 21
47.946757
  0
LINE
  8
2
  6
CONTINUOUS
 10
17.568067
 20
47.747410
 11
17.568067
 21
47.747410
  0
LINE
  8
2
  6
CONTINUOUS
 10
17.568067
 20
47.876047
 11
17.568067
 21
47.876047
  0
LINE
  8
1
  6
CONTINUOUS
 10
19.604613
 20
47.597410
 11
19.604613
 21
47.997410
  0
LINE
  8
1
  6
CONTINUOUS
 10
19.675323
 20
47.676699
 11
19.533902
 21
47.818121
  0
LINE
  8
1
  6
CONTINUOUS
 10
19.675323
 20
47.776699
 11
19.533902
 21
47.918121
  0
LINE
  8
2
  6
CONTINUOUS
 10
19.604613
 20
47.747410
 11
19.604613
 21
47.747410
  0
LINE
  8
2
  6
CONTINUOUS
 10
19.604613
 20
47.847410
 11
19.604613
 21
47.847410
  0
LINE
  8
1
  6
CONTINUOUS
 10
21.641158
 20
47.597410
 11
21.641158
 21
47.997410
  0
LINE
  8
1
  6
CONTINUOUS
 10
21.711869
 20
47.676699
 11
21.570448
 21
47.818121
  0
LINE
  8
1
  6
CONTINUOUS
 10
21.711869
 20
47.776699
 11
21.570448
 21
47.918121
  0
LINE
  8
2
  6
CONTINUOUS
 10
21.641158
 20
47.747410
 11
21.641158
 21
47.747410
  0
LINE
  8
2
  6
CONTINUOUS
 10
21.641158
 20
47.847410
 11
21.641158
 21
47.847410
  0
LINE
  8
1
  6
CONTINUOUS
 10
23.677704
 20
47.597410
 11
23.677704
 21
47.997410
  0
LINE
  8
1
  6
CONTINUOUS
 10
23.748414
 20
47.676699
 11
23.606993
 21
47.818121
  0
LINE
  8
1
  6
CONTINUOUS
 10
23.748414
 20
47.776699
 11
23.606993
 21
47.918121
  0
LINE
  8
2
  6
CONTINUOUS
 10
23.677704
 20
47.747410
 11
23.677704
 21
47.747410
  0
LINE
  8
2
  6
CONTINUOUS
 10
23.677704
 20
47.847410
 11
23.677704
 21
47.847410
  0
LINE
  8
1
  6
CONTINUOUS
 10
25.714249
 20
47.597410
 11
25.714249
 21
48.135239
  0
LINE
  8
1
  6
CONTINUOUS
 10
25.784960
 20
47.676699
 11
25.643538
 21
47.818121
  0
LINE
  8
1
  6
CONTINUOUS
 10
25.784960
 20
47.914528
 11
25.643538
 21
48.055950
  0
LINE
  8
2
  6
CONTINUOUS
 10
25.714249
 20
47.747410
 11
25.714249
 21
47.747410
  0
LINE
  8
2
  6
CONTINUOUS
 10
25.714249
 20
47.985239
 11
25.714249
 21
47.985239
  0
LINE
  8
1
  6
CONTINUOUS
 10
27.750795
 20
47.597410
 11
27.750795
 21
48.483225
  0
LINE
  8
1
  6
CONTINUOUS
 10
27.821505
 20
47.676699
 11
27.680084
 21
47.818121
  0
LINE
  8
1
  6
CONTINUOUS
 10
27.821505
 20
48.262515
 11
27.680084
 21
48.403936
  0
LINE
  8
2
  6
CONTINUOUS
 10
27.750795
 20
47.747410
 11
27.750795
 21
47.747410
  0
LINE
  8
2
  6
CONTINUOUS
 10
27.750795
 20
48.333225
 11
27.750795
 21
48.333225
  0
LINE
  8
1
  6
CONTINUOUS
 10
29.787340
 20
47.597410
 11
29.787340
 21
48.557410
  0
LINE
  8
1
  6
CONTINUOUS
 10
29.858051
 20
47.676699
 11
29.716629
 21
47.818121
  0
LINE
  8
1
  6
CONTINUOUS
 10
29.858051
 20
48.336699
 11
29.716629
 21
48.478121
  0
LINE
  8
2
  6
CONTINUOUS
 10
29.787340
 20
47.747410
 11
29.787340
 21
47.747410
  0
LINE
  8
2
  6
CONTINUOUS
 10
29.787340
 20
48.407410
 11
29.787340
 21
48.407410
  0
LINE
  8
1
  6
CONTINUOUS
 10
8.985340
 20
35.597410
 11
8.985340
 21
36.557410
  0
LINE
  8
1
  6
CONTINUOUS
 10
8.385340
 20
35.747410
 11
9.135340
 21
35.747410
  0
LINE
  8
1
  6
CONTINUOUS
 10
8.385340
 20
36.407410
 11
9.135340
 21
36.407410
  0
LINE
  8
1
  6
CONTINUOUS
 10
9.056051
 20
35.676699
 11
8.914629
 21
35.818121
  0
LINE
  8
1
  6
CONTINUOUS
 10
9.056051
 20
36.336699
 11
8.914629
 21
36.478121
  0
LINE
  8
2
  6
CONTINUOUS
 10
8.185340
 20
35.747410
 11
8.185340
 21
35.747410
  0
LINE
  8
2
  6
CONTINUOUS
 10
8.185340
 20
36.407410
 11
8.185340
 21
36.407410
  0
LINE
  8
1
  6
CONTINUOUS
 10
9.385340
 20
35.597410
 11
9.385340
 21
36.837410
  0
LINE
  8
1
  6
CONTINUOUS
 10
8.385340
 20
35.747410
 11
9.535340
 21
35.747410
  0
LINE
  8
1
  6
CONTINUOUS
 10
8.385340
 20
36.687410
 11
9.535340
 21
36.687410
  0
LINE
  8
1
  6
CONTINUOUS
 10
9.456051
 20
35.676699
 11
9.314629
 21
35.818121
  0
LINE
  8
1
  6
CONTINUOUS
 10
9.456051
 20
36.616699
 11
9.314629
 21
36.758121
  0
LINE
  8
2
  6
CONTINUOUS
 10
8.185340
 20
35.747410
 11
8.185340
 21
35.747410
  0
LINE
  8
2
  6
CONTINUOUS
 10
8.185340
 20
36.687410
 11
8.185340
 21
36.687410
  0
LINE
  8
1
  6
CONTINUOUS
 10
6.435340
 20
34.947410
 11
7.535340
 21
34.947410
  0
LINE
  8
1
  6
CONTINUOUS
 10
6.585340
 20
35.547410
 11
6.585340
 21
34.797410
  0
LINE
  8
1
  6
CONTINUOUS
 10
7.385340
 20
35.547410
 11
7.385340
 21
34.797410
  0
LINE
  8
1
  6
CONTINUOUS
 10
6.514629
 20
34.876699
 11
6.656051
 21
35.018121
  0
LINE
  8
1
  6
CONTINUOUS
 10
7.314629
 20
34.876699
 11
7.456051
 21
35.018121
  0
LINE
  8
2
  6
CONTINUOUS
 10
6.585340
 20
35.747410
 11
6.585340
 21
35.747410
  0
LINE
  8
2
  6
CONTINUOUS
 10
7.385340
 20
35.747410
 11
7.385340
 21
35.747410
  0
LINE
  8
1
  6
CONTINUOUS
 10
7.235340
 20
34.947410
 11
8.335340
 21
34.947410
  0
LINE
  8
1
  6
CONTINUOUS
 10
7.385340
 20
35.547410
 11
7.385340
 21
34.797410
  0
LINE
  8
1
  6
CONTINUOUS
 10
8.185340
 20
35.547410
 11
8.185340
 21
34.797410
  0
LINE
  8
1
  6
CONTINUOUS
 10
7.314629
 20
34.876699
 11
7.456051
 21
35.018121
  0
LINE
  8
1
  6
CONTINUOUS
 10
8.114629
 20
34.876699
 11
8.256051
 21
35.018121
  0
LINE
  8
2
  6
CONTINUOUS
 10
7.385340
 20
35.747410
 11
7.385340
 21
35.747410
  0
LINE
  8
2
  6
CONTINUOUS
 10
8.185340
 20
35.747410
 11
8.185340
 21
35.747410
  0
LINE
  8
1
  6
CONTINUOUS
 10
15.585340
 20
35.597410
 11
15.585340
 21
36.543410
  0
LINE
  8
1
  6
CONTINUOUS
 10
14.985340
 20
35.747410
 11
15.735340
 21
35.747410
  0
LINE
  8
1
  6
CONTINUOUS
 10
14.985340
 20
36.393410
 11
15.735340
 21
36.393410
  0
LINE
  8
1
  6
CONTINUOUS
 10
15.656051
 20
35.676699
 11
15.514629
 21
35.818121
  0
LINE
  8
1
  6
CONTINUOUS
 10
15.656051
 20
36.322699
 11
15.514629
 21
36.464121
  0
LINE
  8
2
  6
CONTINUOUS
 10
14.785340
 20
35.747410
 11
14.785340
 21
35.747410
  0
LINE
  8
2
  6
CONTINUOUS
 10
14.785340
 20
36.393410
 11
14.785340
 21
36.393410
  0
LINE
  8
1
  6
CONTINUOUS
 10
15.985340
 20
35.597410
 11
15.985340
 21
36.815410
  0
LINE
  8
1
  6
CONTINUOUS
 10
14.985340
 20
35.747410
 11
16.135340
 21
35.747410
  0
LINE
  8
1
  6
CONTINUOUS
 10
14.985340
 20
36.665410
 11
16.135340
 21
36.665410
  0
LINE
  8
1
  6
CONTINUOUS
 10
16.056051
 20
35.676699
 11
15.914629
 21
35.818121
  0
LINE
  8
1
  6
CONTINUOUS
 10
16.056051
 20
36.594699
 11
15.914629
 21
36.736121
  0
LINE
  8
2
  6
CONTINUOUS
 10
14.785340
 20
35.747410
 11
14.785340
 21
35.747410
  0
LINE
  8
2
  6
CONTINUOUS
 10
14.785340
 20
36.665410
 11
14.785340
 21
36.665410
  0
LINE
  8
1
  6
CONTINUOUS
 10
13.035340
 20
34.947410
 11
14.135340
 21
34.947410
  0
LINE
  8
1
  6
CONTINUOUS
 10
13.185340
 20
35.547410
 11
13.185340
 21
34.797410
  0
LINE
  8
1
  6
CONTINUOUS
 10
13.985340
 20
35.547410
 11
13.985340
 21
34.797410
  0
LINE
  8
1
  6
CONTINUOUS
 10
13.114629
 20
34.876699
 11
13.256051
 21
35.018121
  0
LINE
  8
1
  6
CONTINUOUS
 10
13.914629
 20
34.876699
 11
14.056051
 21
35.018121
  0
LINE
  8
2
  6
CONTINUOUS
 10
13.185340
 20
35.747410
 11
13.185340
 21
35.747410
  0
LINE
  8
2
  6
CONTINUOUS
 10
13.985340
 20
35.747410
 11
13.985340
 21
35.747410
  0
LINE
  8
1
  6
CONTINUOUS
 10
13.835340
 20
34.947410
 11
14.935340
 21
34.947410
  0
LINE
  8
1
  6
CONTINUOUS
 10
13.985340
 20
35.547410
 11
13.985340
 21
34.797410
  0
LINE
  8
1
  6
CONTINUOUS
 10
14.785340
 20
35.547410
 11
14.785340
 21
34.797410
  0
LINE
  8
1
  6
CONTINUOUS
 10
13.914629
 20
34.876699
 11
14.056051
 21
35.018121
  0
LINE
  8
1
  6
CONTINUOUS
 10
14.714629
 20
34.876699
 11
14.856051
 21
35.018121
  0
LINE
  8
2
  6
CONTINUOUS
 10
13.985340
 20
35.747410
 11
13.985340
 21
35.747410
  0
LINE
  8
2
  6
CONTINUOUS
 10
14.785340
 20
35.747410
 11
14.785340
 21
35.747410
  0
LINE
  8
1
  6
CONTINUOUS
 10
22.185340
 20
35.597410
 11
22.185340
 21
36.443410
  0
LINE
  8
1
  6
CONTINUOUS
 10
21.585340
 20
35.747410
 11
22.335340
 21
35.747410
  0
LINE
  8
1
  6
CONTINUOUS
 10
21.585340
 20
36.293410
 11
22.335340
 21
36.293410
  0
LINE
  8
1
  6
CONTINUOUS
 10
22.256051
 20
35.676699
 11
22.114629
 21
35.818121
  0
LINE
  8
1
  6
CONTINUOUS
 10
22.256051
 20
36.222699
 11
22.114629
 21
36.364121
  0
LINE
  8
2
  6
CONTINUOUS
 10
21.385340
 20
35.747410
 11
21.385340
 21
35.747410
  0
LINE
  8
2
  6
CONTINUOUS
 10
21.385340
 20
36.293410
 11
21.385340
 21
36.293410
  0
LINE
  8
1
  6
CONTINUOUS
 10
22.585340
 20
35.597410
 11
22.585340
 21
36.667410
  0
LINE
  8
1
  6
CONTINUOUS
 10
21.585340
 20
35.747410
 11
22.735340
 21
35.747410
  0
LINE
  8
1
  6
CONTINUOUS
 10
21.585340
 20
36.517410
 11
22.735340
 21
36.517410
  0
LINE
  8
1
  6
CONTINUOUS
 10
22.656051
 20
35.676699
 11
22.514629
 21
35.818121
  0
LINE
  8
1
  6
CONTINUOUS
 10
22.656051
 20
36.446699
 11
22.514629
 21
36.588121
  0
LINE
  8
2
  6
CONTINUOUS
 10
21.385340
 20
35.747410
 11
21.385340
 21
35.747410
  0
LINE
  8
2
  6
CONTINUOUS
 10
21.385340
 20
36.517410
 11
21.385340
 21
36.517410
  0
LINE
  8
1
  6
CONTINUOUS
 10
19.635340
 20
34.947410
 11
20.735340
 21
34.947410
  0
LINE
  8
1
  6
CONTINUOUS
 10
19.785340
 20
35.547410
 11
19.785340
 21
34.797410
  0
LINE
  8
1
  6
CONTINUOUS
 10
20.585340
 20
35.547410
 11
20.585340
 21
34.797410
  0
LINE
  8
1
  6
CONTINUOUS
 10
19.714629
 20
34.876699
 11
19.856051
 21
35.018121
  0
LINE
  8
1
  6
CONTINUOUS
 10
20.514629
 20
34.876699
 11
20.656051
 21
35.018121
  0
LINE
  8
2
  6
CONTINUOUS
 10
19.785340
 20
35.747410
 11
19.785340
 21
35.747410
  0
LINE
  8
2
  6
CONTINUOUS
 10
20.585340
 20
35.747410
 11
20.585340
 21
35.747410
  0
LINE
  8
1
  6
CONTINUOUS
 10
20.435340
 20
34.947410
 11
21.535340
 21
34.947410
  0
LINE
  8
1
  6
CONTINUOUS
 10
20.585340
 20
35.547410
 11
20.585340
 21
34.797410
  0
LINE
  8
1
  6
CONTINUOUS
 10
21.385340
 20
35.547410
 11
21.385340
 21
34.797410
  0
LINE
  8
1
  6
CONTINUOUS
 10
20.514629
 20
34.876699
 11
20.656051
 21
35.018121
  0
LINE
  8
1
  6
CONTINUOUS
 10
21.314629
 20
34.876699
 11
21.456051
 21
35.018121
  0
LINE
  8
2
  6
CONTINUOUS
 10
20.585340
 20
35.747410
 11
20.585340
 21
35.747410
  0
LINE
  8
2
  6
CONTINUOUS
 10
21.385340
 20
35.747410
 11
21.385340
 21
35.747410
  0
LINE
  8
1
  6
CONTINUOUS
 10
28.785340
 20
35.597410
 11
28.785340
 21
36.293410
  0
LINE
  8
1
  6
CONTINUOUS
 10
28.185340
 20
35.747410
 11
28.935340
 21
35.747410
  0
LINE
  8
1
  6
CONTINUOUS
 10
28.185340
 20
36.143410
 11
28.935340
 21
36.143410
  0
LINE
  8
1
  6
CONTINUOUS
 10
28.856051
 20
35.676699
 11
28.714629
 21
35.818121
  0
LINE
  8
1
  6
CONTINUOUS
 10
28.856051
 20
36.072699
 11
28.714629
 21
36.214121
  0
LINE
  8
2
  6
CONTINUOUS
 10
27.985340
 20
35.747410
 11
27.985340
 21
35.747410
  0
LINE
  8
2
  6
CONTINUOUS
 10
27.985340
 20
36.143410
 11
27.985340
 21
36.143410
  0
LINE
  8
1
  6
CONTINUOUS
 10
29.185340
 20
35.597410
 11
29.185340
 21
36.441410
  0
LINE
  8
1
  6
CONTINUOUS
 10
28.185340
 20
35.747410
 11
29.335340
 21
35.747410
  0
LINE
  8
1
  6
CONTINUOUS
 10
28.185340
 20
36.291410
 11
29.335340
 21
36.291410
  0
LINE
  8
1
  6
CONTINUOUS
 10
29.256051
 20
35.676699
 11
29.114629
 21
35.818121
  0
LINE
  8
1
  6
CONTINUOUS
 10
29.256051
 20
36.220699
 11
29.114629
 21
36.362121
  0
LINE
  8
2
  6
CONTINUOUS
 10
27.985340
 20
35.747410
 11
27.985340
 21
35.747410
  0
LINE
  8
2
  6
CONTINUOUS
 10
27.985340
 20
36.291410
 11
27.985340
 21
36.291410
  0
LINE
  8
1
  6
CONTINUOUS
 10
26.235340
 20
34.947410
 11
27.335340
 21
34.947410
  0
LINE
  8
1
  6
CONTINUOUS
 10
26.385340
 20
35.547410
 11
26.385340
 21
34.797410
  0
LINE
  8
1
  6
CONTINUOUS
 10
27.185340
 20
35.547410
 11
27.185340
 21
34.797410
  0
LINE
  8
1
  6
CONTINUOUS
 10
26.314629
 20
34.876699
 11
26.456051
 21
35.018121
  0
LINE
  8
1
  6
CONTINUOUS
 10
27.114629
 20
34.876699
 11
27.256051
 21
35.018121
  0
LINE
  8
2
  6
CONTINUOUS
 10
26.385340
 20
35.747410
 11
26.385340
 21
35.747410
  0
LINE
  8
2
  6
CONTINUOUS
 10
27.185340
 20
35.747410
 11
27.185340
 21
35.747410
  0
LINE
  8
1
  6
CONTINUOUS
 10
27.035340
 20
34.947410
 11
28.135340
 21
34.947410
  0
LINE
  8
1
  6
CONTINUOUS
 10
27.185340
 20
35.547410
 11
27.185340
 21
34.797410
  0
LINE
  8
1
  6
CONTINUOUS
 10
27.985340
 20
35.547410
 11
27.985340
 21
34.797410
  0
LINE
  8
1
  6
CONTINUOUS
 10
27.114629
 20
34.876699
 11
27.256051
 21
35.018121
  0
LINE
  8
1
  6
CONTINUOUS
 10
27.914629
 20
34.876699
 11
28.056051
 21
35.018121
  0
LINE
  8
2
  6
CONTINUOUS
 10
27.185340
 20
35.747410
 11
27.185340
 21
35.747410
  0
LINE
  8
2
  6
CONTINUOUS
 10
27.985340
 20
35.747410
 11
27.985340
 21
35.747410
  0
LINE
  8
1
  6
CONTINUOUS
 10
35.385340
 20
35.597410
 11
35.385340
 21
36.139410
  0
LINE
  8
1
  6
CONTINUOUS
 10
34.785340
 20
35.747410
 11
35.535340
 21
35.747410
  0
LINE
  8
1
  6
CONTINUOUS
 10
34.785340
 20
35.989410
 11
35.535340
 21
35.989410
  0
LINE
  8
1
  6
CONTINUOUS
 10
35.456051
 20
35.676699
 11
35.314629
 21
35.818121
  0
LINE
  8
1
  6
CONTINUOUS
 10
35.456051
 20
35.918699
 11
35.314629
 21
36.060121
  0
LINE
  8
2
  6
CONTINUOUS
 10
34.585340
 20
35.747410
 11
34.585340
 21
35.747410
  0
LINE
  8
2
  6
CONTINUOUS
 10
34.585340
 20
35.989410
 11
34.585340
 21
35.989410
  0
LINE
  8
1
  6
CONTINUOUS
 10
35.785340
 20
35.597410
 11
35.785340
 21
36.209410
  0
LINE
  8
1
  6
CONTINUOUS
 10
34.785340
 20
35.747410
 11
35.935340
 21
35.747410
  0
LINE
  8
1
  6
CONTINUOUS
 10
34.785340
 20
36.059410
 11
35.935340
 21
36.059410
  0
LINE
  8
1
  6
CONTINUOUS
 10
35.856051
 20
35.676699
 11
35.714629
 21
35.818121
  0
LINE
  8
1
  6
CONTINUOUS
 10
35.856051
 20
35.988699
 11
35.714629
 21
36.130121
  0
LINE
  8
2
  6
CONTINUOUS
 10
34.585340
 20
35.747410
 11
34.585340
 21
35.747410
  0
LINE
  8
2
  6
CONTINUOUS
 10
34.585340
 20
36.059410
 11
34.585340
 21
36.059410
  0
LINE
  8
1
  6
CONTINUOUS
 10
32.835340
 20
34.947410
 11
33.935340
 21
34.947410
  0
LINE
  8
1
  6
CONTINUOUS
 10
32.985340
 20
35.547410
 11
32.985340
 21
34.797410
  0
LINE
  8
1
  6
CONTINUOUS
 10
33.785340
 20
35.547410
 11
33.785340
 21
34.797410
  0
LINE
  8
1
  6
CONTINUOUS
 10
32.914629
 20
34.876699
 11
33.056051
 21
35.018121
  0
LINE
  8
1
  6
CONTINUOUS
 10
33.714629
 20
34.876699
 11
33.856051
 21
35.018121
  0
LINE
  8
2
  6
CONTINUOUS
 10
32.985340
 20
35.747410
 11
32.985340
 21
35.747410
  0
LINE
  8
2
  6
CONTINUOUS
 10
33.785340
 20
35.747410
 11
33.785340
 21
35.747410
  0
LINE
  8
1
  6
CONTINUOUS
 10
33.635340
 20
34.947410
 11
34.735340
 21
34.947410
  0
LINE
  8
1
  6
CONTINUOUS
 10
33.785340
 20
35.547410
 11
33.785340
 21
34.797410
  0
LINE
  8
1
  6
CONTINUOUS
 10
34.585340
 20
35.547410
 11
34.585340
 21
34.797410
  0
LINE
  8
1
  6
CONTINUOUS
 10
33.714629
 20
34.876699
 11
33.856051
 21
35.018121
  0
LINE
  8
1
  6
CONTINUOUS
 10
34.514629
 20
34.876699
 11
34.656051
 21
35.018121
  0
LINE
  8
2
  6
CONTINUOUS
 10
33.785340
 20
35.747410
 11
33.785340
 21
35.747410
  0
LINE
  8
2
  6
CONTINUOUS
 10
34.585340
 20
35.747410
 11
34.585340
 21
35.747410
  0
LINE
  8
1
  6
CONTINUOUS
 10
41.985340
 20
35.597410
 11
41.985340
 21
36.025410
  0
LINE
  8
1
  6
CONTINUOUS
 10
41.385340
 20
35.747410
 11
42.135340
 21
35.747410
  0
LINE
  8
1
  6
CONTINUOUS
 10
41.385340
 20
35.875410
 11
42.135340
 21
35.875410
  0
LINE
  8
1
  6
CONTINUOUS
 10
42.056051
 20
35.676699
 11
41.914629
 21
35.818121
  0
LINE
  8
1
  6
CONTINUOUS
 10
42.056051
 20
35.804699
 11
41.914629
 21
35.946121
  0
LINE
  8
2
  6
CONTINUOUS
 10
41.185340
 20
35.747410
 11
41.185340
 21
35.747410
  0
LINE
  8
2
  6
CONTINUOUS
 10
41.185340
 20
35.875410
 11
41.185340
 21
35.875410
  0
LINE
  8
1
  6
CONTINUOUS
 10
42.385340
 20
35.597410
 11
42.385340
 21
36.039410
  0
LINE
  8
1
  6
CONTINUOUS
 10
41.385340
 20
35.747410
 11
42.535340
 21
35.747410
  0
LINE
  8
1
  6
CONTINUOUS
 10
41.385340
 20
35.889410
 11
42.535340
 21
35.889410
  0
LINE
  8
1
  6
CONTINUOUS
 10
42.456051
 20
35.676699
 11
42.314629
 21
35.818121
  0
LINE
  8
1
  6
CONTINUOUS
 10
42.456051
 20
35.818699
 11
42.314629
 21
35.960121
  0
LINE
  8
2
  6
CONTINUOUS
 10
41.185340
 20
35.747410
 11
41.185340
 21
35.747410
  0
LINE
  8
2
  6
CONTINUOUS
 10
41.185340
 20
35.889410
 11
41.185340
 21
35.889410
  0
LINE
  8
1
  6
CONTINUOUS
 10
39.435340
 20
34.947410
 11
40.535340
 21
34.947410
  0
LINE
  8
1
  6
CONTINUOUS
 10
39.585340
 20
35.547410
 11
39.585340
 21
34.797410
  0
LINE
  8
1
  6
CONTINUOUS
 10
40.385340
 20
35.547410
 11
40.385340
 21
34.797410
  0
LINE
  8
1
  6
CONTINUOUS
 10
39.514629
 20
34.876699
 11
39.656051
 21
35.018121
  0
LINE
  8
1
  6
CONTINUOUS
 10
40.314629
 20
34.876699
 11
40.456051
 21
35.018121
  0
LINE
  8
2
  6
CONTINUOUS
 10
39.585340
 20
35.747410
 11
39.585340
 21
35.747410
  0
LINE
  8
2
  6
CONTINUOUS
 10
40.385340
 20
35.747410
 11
40.385340
 21
35.747410
  0
LINE
  8
1
  6
CONTINUOUS
 10
40.235340
 20
34.947410
 11
41.335340
 21
34.947410
  0
LINE
  8
1
  6
CONTINUOUS
 10
40.385340
 20
35.547410
 11
40.385340
 21
34.797410
  0
LINE
  8
1
  6
CONTINUOUS
 10
41.185340
 20
35.547410
 11
41.185340
 21
34.797410
  0
LINE
  8
1
  6
CONTINUOUS
 10
40.314629
 20
34.876699
 11
40.456051
 21
35.018121
  0
LINE
  8
1
  6
CONTINUOUS
 10
41.114629
 20
34.876699
 11
41.256051
 21
35.018121
  0
LINE
  8
2
  6
CONTINUOUS
 10
40.385340
 20
35.747410
 11
40.385340
 21
35.747410
  0
LINE
  8
2
  6
CONTINUOUS
 10
41.185340
 20
35.747410
 11
41.185340
 21
35.747410
  0
LINE
  8
1
  6
CONTINUOUS
 10
48.585340
 20
35.597410
 11
48.585340
 21
35.997410
  0
LINE
  8
1
  6
CONTINUOUS
 10
47.985340
 20
35.747410
 11
48.735340
 21
35.747410
  0
LINE
  8
1
  6
CONTINUOUS
 10
47.985340
 20
35.847410
 11
48.735340
 21
35.847410
  0
LINE
  8
1
  6
CONTINUOUS
 10
48.656051
 20
35.676699
 11
48.514629
 21
35.818121
  0
LINE
  8
1
  6
CONTINUOUS
 10
48.656051
 20
35.776699
 11
48.514629
 21
35.918121
  0
LINE
  8
2
  6
CONTINUOUS
 10
47.785340
 20
35.747410
 11
47.785340
 21
35.747410
  0
LINE
  8
2
  6
CONTINUOUS
 10
47.785340
 20
35.847410
 11
47.785340
 21
35.847410
  0
LINE
  8
1
  6
CONTINUOUS
 10
46.035340
 20
34.947410
 11
47.135340
 21
34.947410
  0
LINE
  8
1
  6
CONTINUOUS
 10
46.185340
 20
35.547410
 11
46.185340
 21
34.797410
  0
LINE
  8
1
  6
CONTINUOUS
 10
46.985340
 20
35.547410
 11
46.985340
 21
34.797410
  0
LINE
  8
1
  6
CONTINUOUS
 10
46.114629
 20
34.876699
 11
46.256051
 21
35.018121
  0
LINE
  8
1
  6
CONTINUOUS
 10
46.914629
 20
34.876699
 11
47.056051
 21
35.018121
  0
LINE
  8
2
  6
CONTINUOUS
 10
46.185340
 20
35.747410
 11
46.185340
 21
35.747410
  0
LINE
  8
2
  6
CONTINUOUS
 10
46.985340
 20
35.747410
 11
46.985340
 21
35.747410
  0
LINE
  8
1
  6
CONTINUOUS
 10
46.835340
 20
34.947410
 11
47.935340
 21
34.947410
  0
LINE
  8
1
  6
CONTINUOUS
 10
46.985340
 20
35.547410
 11
46.985340
 21
34.797410
  0
LINE
  8
1
  6
CONTINUOUS
 10
47.785340
 20
35.547410
 11
47.785340
 21
34.797410
  0
LINE
  8
1
  6
CONTINUOUS
 10
46.914629
 20
34.876699
 11
47.056051
 21
35.018121
  0
LINE
  8
1
  6
CONTINUOUS
 10
47.714629
 20
34.876699
 11
47.856051
 21
35.018121
  0
LINE
  8
2
  6
CONTINUOUS
 10
46.985340
 20
35.747410
 11
46.985340
 21
35.747410
  0
LINE
  8
2
  6
CONTINUOUS
 10
47.785340
 20
35.747410
 11
47.785340
 21
35.747410
  0
LINE
  8
1
  6
CONTINUOUS
 10
55.185340
 20
35.597410
 11
55.185340
 21
35.997410
  0
LINE
  8
1
  6
CONTINUOUS
 10
54.585340
 20
35.747410
 11
55.335340
 21
35.747410
  0
LINE
  8
1
  6
CONTINUOUS
 10
54.585340
 20
35.847410
 11
55.335340
 21
35.847410
  0
LINE
  8
1
  6
CONTINUOUS
 10
55.256051
 20
35.676699
 11
55.114629
 21
35.818121
  0
LINE
  8
1
  6
CONTINUOUS
 10
55.256051
 20
35.776699
 11
55.114629
 21
35.918121
  0
LINE
  8
2
  6
CONTINUOUS
 10
54.385340
 20
35.747410
 11
54.385340
 21
35.747410
  0
LINE
  8
2
  6
CONTINUOUS
 10
54.385340
 20
35.847410
 11
54.385340
 21
35.847410
  0
LINE
  8
1
  6
CONTINUOUS
 10
52.635340
 20
34.947410
 11
53.735340
 21
34.947410
  0
LINE
  8
1
  6
CONTINUOUS
 10
52.785340
 20
35.547410
 11
52.785340
 21
34.797410
  0
LINE
  8
1
  6
CONTINUOUS
 10
53.585340
 20
35.547410
 11
53.585340
 21
34.797410
  0
LINE
  8
1
  6
CONTINUOUS
 10
52.714629
 20
34.876699
 11
52.856051
 21
35.018121
  0
LINE
  8
1
  6
CONTINUOUS
 10
53.514629
 20
34.876699
 11
53.656051
 21
35.018121
  0
LINE
  8
2
  6
CONTINUOUS
 10
52.785340
 20
35.747410
 11
52.785340
 21
35.747410
  0
LINE
  8
2
  6
CONTINUOUS
 10
53.585340
 20
35.747410
 11
53.585340
 21
35.747410
  0
LINE
  8
1
  6
CONTINUOUS
 10
53.435340
 20
34.947410
 11
54.535340
 21
34.947410
  0
LINE
  8
1
  6
CONTINUOUS
 10
53.585340
 20
35.547410
 11
53.585340
 21
34.797410
  0
LINE
  8
1
  6
CONTINUOUS
 10
54.385340
 20
35.547410
 11
54.385340
 21
34.797410
  0
LINE
  8
1
  6
CONTINUOUS
 10
53.514629
 20
34.876699
 11
53.656051
 21
35.018121
  0
LINE
  8
1
  6
CONTINUOUS
 10
54.314629
 20
34.876699
 11
54.456051
 21
35.018121
  0
LINE
  8
2
  6
CONTINUOUS
 10
53.585340
 20
35.747410
 11
53.585340
 21
35.747410
  0
LINE
  8
2
  6
CONTINUOUS
 10
54.385340
 20
35.747410
 11
54.385340
 21
35.747410
  0
LINE
  8
1
  6
CONTINUOUS
 10
61.785340
 20
35.597410
 11
61.785340
 21
35.997410
  0
LINE
  8
1
  6
CONTINUOUS
 10
61.185340
 20
35.747410
 11
61.935340
 21
35.747410
  0
LINE
  8
1
  6
CONTINUOUS
 10
61.185340
 20
35.847410
 11
61.935340
 21
35.847410
  0
LINE
  8
1
  6
CONTINUOUS
 10
61.856051
 20
35.676699
 11
61.714629
 21
35.818121
  0
LINE
  8
1
  6
CONTINUOUS
 10
61.856051
 20
35.776699
 11
61.714629
 21
35.918121
  0
LINE
  8
2
  6
CONTINUOUS
 10
60.985340
 20
35.747410
 11
60.985340
 21
35.747410
  0
LINE
  8
2
  6
CONTINUOUS
 10
60.985340
 20
35.847410
 11
60.985340
 21
35.847410
  0
LINE
  8
1
  6
CONTINUOUS
 10
59.235340
 20
34.947410
 11
60.335340
 21
34.947410
  0
LINE
  8
1
  6
CONTINUOUS
 10
59.385340
 20
35.547410
 11
59.385340
 21
34.797410
  0
LINE
  8
1
  6
CONTINUOUS
 10
60.185340
 20
35.547410
 11
60.185340
 21
34.797410
  0
LINE
  8
1
  6
CONTINUOUS
 10
59.314629
 20
34.876699
 11
59.456051
 21
35.018121
  0
LINE
  8
1
  6
CONTINUOUS
 10
60.114629
 20
34.876699
 11
60.256051
 21
35.018121
  0
LINE
  8
2
  6
CONTINUOUS
 10
59.385340
 20
35.747410
 11
59.385340
 21
35.747410
  0
LINE
  8
2
  6
CONTINUOUS
 10
60.185340
 20
35.747410
 11
60.185340
 21
35.747410
  0
LINE
  8
1
  6
CONTINUOUS
 10
60.035340
 20
34.947410
 11
61.135340
 21
34.947410
  0
LINE
  8
1
  6
CONTINUOUS
 10
60.185340
 20
35.547410
 11
60.185340
 21
34.797410
  0
LINE
  8
1
  6
CONTINUOUS
 10
60.985340
 20
35.547410
 11
60.985340
 21
34.797410
  0
LINE
  8
1
  6
CONTINUOUS
 10
60.114629
 20
34.876699
 11
60.256051
 21
35.018121
  0
LINE
  8
1
  6
CONTINUOUS
 10
60.914629
 20
34.876699
 11
61.056051
 21
35.018121
  0
LINE
  8
2
  6
CONTINUOUS
 10
60.185340
 20
35.747410
 11
60.185340
 21
35.747410
  0
LINE
  8
2
  6
CONTINUOUS
 10
60.985340
 20
35.747410
 11
60.985340
 21
35.747410
  0
LINE
  8
1
  6
CONTINUOUS
 10
68.385340
 20
35.597410
 11
68.385340
 21
36.135410
  0
LINE
  8
1
  6
CONTINUOUS
 10
67.785340
 20
35.747410
 11
68.535340
 21
35.747410
  0
LINE
  8
1
  6
CONTINUOUS
 10
67.785340
 20
35.985410
 11
68.535340
 21
35.985410
  0
LINE
  8
1
  6
CONTINUOUS
 10
68.456051
 20
35.676699
 11
68.314629
 21
35.818121
  0
LINE
  8
1
  6
CONTINUOUS
 10
68.456051
 20
35.914699
 11
68.314629
 21
36.056121
  0
LINE
  8
2
  6
CONTINUOUS
 10
67.585340
 20
35.747410
 11
67.585340
 21
35.747410
  0
LINE
  8
2
  6
CONTINUOUS
 10
67.585340
 20
35.985410
 11
67.585340
 21
35.985410
  0
LINE
  8
1
  6
CONTINUOUS
 10
68.785340
 20
35.597410
 11
68.785340
 21
36.203410
  0
LINE
  8
1
  6
CONTINUOUS
 10
67.785340
 20
35.747410
 11
68.935340
 21
35.747410
  0
LINE
  8
1
  6
CONTINUOUS
 10
67.785340
 20
36.053410
 11
68.935340
 21
36.053410
  0
LINE
  8
1
  6
CONTINUOUS
 10
68.856051
 20
35.676699
 11
68.714629
 21
35.818121
  0
LINE
  8
1
  6
CONTINUOUS
 10
68.856051
 20
35.982699
 11
68.714629
 21
36.124121
  0
LINE
  8
2
  6
CONTINUOUS
 10
67.585340
 20
35.747410
 11
67.585340
 21
35.747410
  0
LINE
  8
2
  6
CONTINUOUS
 10
67.585340
 20
36.053410
 11
67.585340
 21
36.053410
  0
LINE
  8
1
  6
CONTINUOUS
 10
65.835340
 20
34.947410
 11
66.935340
 21
34.947410
  0
LINE
  8
1
  6
CONTINUOUS
 10
65.985340
 20
35.547410
 11
65.985340
 21
34.797410
  0
LINE
  8
1
  6
CONTINUOUS
 10
66.785340
 20
35.547410
 11
66.785340
 21
34.797410
  0
LINE
  8
1
  6
CONTINUOUS
 10
65.914629
 20
34.876699
 11
66.056051
 21
35.018121
  0
LINE
  8
1
  6
CONTINUOUS
 10
66.714629
 20
34.876699
 11
66.856051
 21
35.018121
  0
LINE
  8
2
  6
CONTINUOUS
 10
65.985340
 20
35.747410
 11
65.985340
 21
35.747410
  0
LINE
  8
2
  6
CONTINUOUS
 10
66.785340
 20
35.747410
 11
66.785340
 21
35.747410
  0
LINE
  8
1
  6
CONTINUOUS
 10
66.635340
 20
34.947410
 11
67.735340
 21
34.947410
  0
LINE
  8
1
  6
CONTINUOUS
 10
66.785340
 20
35.547410
 11
66.785340
 21
34.797410
  0
LINE
  8
1
  6
CONTINUOUS
 10
67.585340
 20
35.547410
 11
67.585340
 21
34.797410
  0
LINE
  8
1
  6
CONTINUOUS
 10
66.714629
 20
34.876699
 11
66.856051
 21
35.018121
  0
LINE
  8
1
  6
CONTINUOUS
 10
67.514629
 20
34.876699
 11
67.656051
 21
35.018121
  0
LINE
  8
2
  6
CONTINUOUS
 10
66.785340
 20
35.747410
 11
66.785340
 21
35.747410
  0
LINE
  8
2
  6
CONTINUOUS
 10
67.585340
 20
35.747410
 11
67.585340
 21
35.747410
  0
LINE
  8
1
  6
CONTINUOUS
 10
74.985340
 20
35.597410
 11
74.985340
 21
36.483410
  0
LINE
  8
1
  6
CONTINUOUS
 10
74.385340
 20
35.747410
 11
75.135340
 21
35.747410
  0
LINE
  8
1
  6
CONTINUOUS
 10
74.385340
 20
36.333410
 11
75.135340
 21
36.333410
  0
LINE
  8
1
  6
CONTINUOUS
 10
75.056051
 20
35.676699
 11
74.914629
 21
35.818121
  0
LINE
  8
1
  6
CONTINUOUS
 10
75.056051
 20
36.262699
 11
74.914629
 21
36.404121
  0
LINE
  8
2
  6
CONTINUOUS
 10
74.185340
 20
35.747410
 11
74.185340
 21
35.747410
  0
LINE
  8
2
  6
CONTINUOUS
 10
74.185340
 20
36.333410
 11
74.185340
 21
36.333410
  0
LINE
  8
1
  6
CONTINUOUS
 10
75.385340
 20
35.597410
 11
75.385340
 21
36.725410
  0
LINE
  8
1
  6
CONTINUOUS
 10
74.385340
 20
35.747410
 11
75.535340
 21
35.747410
  0
LINE
  8
1
  6
CONTINUOUS
 10
74.385340
 20
36.575410
 11
75.535340
 21
36.575410
  0
LINE
  8
1
  6
CONTINUOUS
 10
75.456051
 20
35.676699
 11
75.314629
 21
35.818121
  0
LINE
  8
1
  6
CONTINUOUS
 10
75.456051
 20
36.504699
 11
75.314629
 21
36.646121
  0
LINE
  8
2
  6
CONTINUOUS
 10
74.185340
 20
35.747410
 11
74.185340
 21
35.747410
  0
LINE
  8
2
  6
CONTINUOUS
 10
74.185340
 20
36.575410
 11
74.185340
 21
36.575410
  0
LINE
  8
1
  6
CONTINUOUS
 10
72.435340
 20
34.947410
 11
73.535340
 21
34.947410
  0
LINE
  8
1
  6
CONTINUOUS
 10
72.585340
 20
35.547410
 11
72.585340
 21
34.797410
  0
LINE
  8
1
  6
CONTINUOUS
 10
73.385340
 20
35.547410
 11
73.385340
 21
34.797410
  0
LINE
  8
1
  6
CONTINUOUS
 10
72.514629
 20
34.876699
 11
72.656051
 21
35.018121
  0
LINE
  8
1
  6
CONTINUOUS
 10
73.314629
 20
34.876699
 11
73.456051
 21
35.018121
  0
LINE
  8
2
  6
CONTINUOUS
 10
72.585340
 20
35.747410
 11
72.585340
 21
35.747410
  0
LINE
  8
2
  6
CONTINUOUS
 10
73.385340
 20
35.747410
 11
73.385340
 21
35.747410
  0
LINE
  8
1
  6
CONTINUOUS
 10
73.235340
 20
34.947410
 11
74.335340
 21
34.947410
  0
LINE
  8
1
  6
CONTINUOUS
 10
73.385340
 20
35.547410
 11
73.385340
 21
34.797410
  0
LINE
  8
1
  6
CONTINUOUS
 10
74.185340
 20
35.547410
 11
74.185340
 21
34.797410
  0
LINE
  8
1
  6
CONTINUOUS
 10
73.314629
 20
34.876699
 11
73.456051
 21
35.018121
  0
LINE
  8
1
  6
CONTINUOUS
 10
74.114629
 20
34.876699
 11
74.256051
 21
35.018121
  0
LINE
  8
2
  6
CONTINUOUS
 10
73.385340
 20
35.747410
 11
73.385340
 21
35.747410
  0
LINE
  8
2
  6
CONTINUOUS
 10
74.185340
 20
35.747410
 11
74.185340
 21
35.747410
  0
LINE
  8
1
  6
CONTINUOUS
 10
8.985340
 20
29.997410
 11
8.985340
 21
30.957410
  0
LINE
  8
1
  6
CONTINUOUS
 10
8.385340
 20
30.147410
 11
9.135340
 21
30.147410
  0
LINE
  8
1
  6
CONTINUOUS
 10
8.385340
 20
30.807410
 11
9.135340
 21
30.807410
  0
LINE
  8
1
  6
CONTINUOUS
 10
9.056051
 20
30.076699
 11
8.914629
 21
30.218121
  0
LINE
  8
1
  6
CONTINUOUS
 10
9.056051
 20
30.736699
 11
8.914629
 21
30.878121
  0
LINE
  8
2
  6
CONTINUOUS
 10
8.185340
 20
30.147410
 11
8.185340
 21
30.147410
  0
LINE
  8
2
  6
CONTINUOUS
 10
8.185340
 20
30.807410
 11
8.185340
 21
30.807410
  0
LINE
  8
1
  6
CONTINUOUS
 10
9.385340
 20
29.997410
 11
9.385340
 21
31.237410
  0
LINE
  8
1
  6
CONTINUOUS
 10
8.385340
 20
30.147410
 11
9.535340
 21
30.147410
  0
LINE
  8
1
  6
CONTINUOUS
 10
8.385340
 20
31.087410
 11
9.535340
 21
31.087410
  0
LINE
  8
1
  6
CONTINUOUS
 10
9.456051
 20
30.076699
 11
9.314629
 21
30.218121
  0
LINE
  8
1
  6
CONTINUOUS
 10
9.456051
 20
31.016699
 11
9.314629
 21
31.158121
  0
LINE
  8
2
  6
CONTINUOUS
 10
8.185340
 20
30.147410
 11
8.185340
 21
30.147410
  0
LINE
  8
2
  6
CONTINUOUS
 10
8.185340
 20
31.087410
 11
8.185340
 21
31.087410
  0
LINE
  8
1
  6
CONTINUOUS
 10
6.435340
 20
29.347410
 11
7.535340
 21
29.347410
  0
LINE
  8
1
  6
CONTINUOUS
 10
6.585340
 20
29.947410
 11
6.585340
 21
29.197410
  0
LINE
  8
1
  6
CONTINUOUS
 10
7.385340
 20
29.947410
 11
7.385340
 21
29.197410
  0
LINE
  8
1
  6
CONTINUOUS
 10
6.514629
 20
29.276699
 11
6.656051
 21
29.418121
  0
LINE
  8
1
  6
CONTINUOUS
 10
7.314629
 20
29.276699
 11
7.456051
 21
29.418121
  0
LINE
  8
2
  6
CONTINUOUS
 10
6.585340
 20
30.147410
 11
6.585340
 21
30.147410
  0
LINE
  8
2
  6
CONTINUOUS
 10
7.385340
 20
30.147410
 11
7.385340
 21
30.147410
  0
LINE
  8
1
  6
CONTINUOUS
 10
7.235340
 20
29.347410
 11
8.335340
 21
29.347410
  0
LINE
  8
1
  6
CONTINUOUS
 10
7.385340
 20
29.947410
 11
7.385340
 21
29.197410
  0
LINE
  8
1
  6
CONTINUOUS
 10
8.185340
 20
29.947410
 11
8.185340
 21
29.197410
  0
LINE
  8
1
  6
CONTINUOUS
 10
7.314629
 20
29.276699
 11
7.456051
 21
29.418121
  0
LINE
  8
1
  6
CONTINUOUS
 10
8.114629
 20
29.276699
 11
8.256051
 21
29.418121
  0
LINE
  8
2
  6
CONTINUOUS
 10
7.385340
 20
30.147410
 11
7.385340
 21
30.147410
  0
LINE
  8
2
  6
CONTINUOUS
 10
8.185340
 20
30.147410
 11
8.185340
 21
30.147410
  0
LINE
  8
2
  6
CONTINUOUS
 10
101.700000
 20
23.900000
 11
101.700000
 21
23.900000
  0
LINE
  8
2
  6
CONTINUOUS
 10
118.000000
 20
23.900000
 11
118.000000
 21
23.900000
  0
LINE
  8
2
  6
CONTINUOUS
 10
118.000000
 20
23.900000
 11
101.700000
 21
23.900000
  0
LINE
  8
2
  6
CONTINUOUS
 10
118.000000
 20
22.200000
 11
101.700000
 21
22.200000
  0
LINE
  8
2
  6
CONTINUOUS
 10
101.700000
 20
23.900000
 11
101.700000
 21
22.200000
  0
LINE
  8
2
  6
CONTINUOUS
 10
118.000000
 20
22.200000
 11
118.000000
 21
23.900000
  0
LINE
  8
2
  6
CONTINUOUS
 10
106.500000
 20
82.502500
 11
106.500000
 21
81.190000
  0
LINE
  8
2
  6
CONTINUOUS
 10
117.500000
 20
82.502500
 11
117.500000
 21
81.190000
  0
LINE
  8
2
  6
CONTINUOUS
 10
106.500000
 20
82.502500
 11
117.500000
 21
82.502500
  0
LINE
  8
2
  6
CONTINUOUS
 10
106.500000
 20
81.190000
 11
117.500000
 21
81.190000
  0
LINE
  8
2
  6
CONTINUOUS
 10
109.450000
 20
81.190000
 11
109.450000
 21
82.502500
  0
LINE
  8
2
  6
CONTINUOUS
 10
110.830000
 20
81.190000
 11
110.830000
 21
82.502500
  0
LINE
  8
2
  6
CONTINUOUS
 10
112.640000
 20
81.190000
 11
112.640000
 21
82.502500
  0
LINE
  8
2
  6
CONTINUOUS
 10
114.020000
 20
81.190000
 11
114.020000
 21
82.502500
  0
LINE
  8
2
  6
CONTINUOUS
 10
114.020000
 20
82.065000
 11
117.500000
 21
82.065000
  0
LINE
  8
2
  6
CONTINUOUS
 10
115.630000
 20
81.190000
 11
115.630000
 21
82.065000
  0
LINE
  8
2
  6
CONTINUOUS
 10
117.500000
 20
80.752500
 11
107.650000
 21
80.752500
  0
LINE
  8
2
  6
CONTINUOUS
 10
106.500000
 20
80.752500
 11
106.500000
 21
81.190000
  0
LINE
  8
2
  6
CONTINUOUS
 10
117.500000
 20
80.752500
 11
117.500000
 21
81.190000
  0
LINE
  8
2
  6
CONTINUOUS
 10
106.500000
 20
81.190000
 11
117.500000
 21
81.190000
  0
LINE
  8
2
  6
CONTINUOUS
 10
109.450000
 20
80.752500
 11
109.450000
 21
80.402500
  0
LINE
  8
2
  6
CONTINUOUS
 10
110.830000
 20
80.752500
 11
110.830000
 21
80.402500
  0
LINE
  8
2
  6
CONTINUOUS
 10
112.640000
 20
80.752500
 11
112.640000
 21
80.402500
  0
LINE
  8
2
  6
CONTINUOUS
 10
114.020000
 20
80.752500
 11
114.020000
 21
80.402500
  0
LINE
  8
2
  6
CONTINUOUS
 10
115.630000
 20
80.752500
 11
115.630000
 21
80.402500
  0
LINE
  8
2
  6
CONTINUOUS
 10
106.500000
 20
80.402500
 11
106.500000
 21
80.752500
  0
LINE
  8
2
  6
CONTINUOUS
 10
117.500000
 20
80.402500
 11
117.500000
 21
80.752500
  0
LINE
  8
2
  6
CONTINUOUS
 10
107.650000
 20
80.752500
 11
107.650000
 21
80.402500
  0
LINE
  8
2
  6
CONTINUOUS
 10
109.450000
 20
80.402500
 11
109.450000
 21
80.052500
  0
LINE
  8
2
  6
CONTINUOUS
 10
110.830000
 20
80.402500
 11
110.830000
 21
80.052500
  0
LINE
  8
2
  6
CONTINUOUS
 10
112.640000
 20
80.402500
 11
112.640000
 21
80.052500
  0
LINE
  8
2
  6
CONTINUOUS
 10
114.020000
 20
80.402500
 11
114.020000
 21
80.052500
  0
LINE
  8
2
  6
CONTINUOUS
 10
115.630000
 20
80.402500
 11
115.630000
 21
80.052500
  0
LINE
  8
2
  6
CONTINUOUS
 10
106.500000
 20
80.052500
 11
106.500000
 21
80.402500
  0
LINE
  8
2
  6
CONTINUOUS
 10
117.500000
 20
80.052500
 11
117.500000
 21
80.402500
  0
LINE
  8
2
  6
CONTINUOUS
 10
107.650000
 20
80.402500
 11
107.650000
 21
80.052500
  0
LINE
  8
2
  6
CONTINUOUS
 10
109.450000
 20
80.052500
 11
109.450000
 21
79.702500
  0
LINE
  8
2
  6
CONTINUOUS
 10
110.830000
 20
80.052500
 11
110.830000
 21
79.702500
  0
LINE
  8
2
  6
CONTINUOUS
 10
112.640000
 20
80.052500
 11
112.640000
 21
79.702500
  0
LINE
  8
2
  6
CONTINUOUS
 10
114.020000
 20
80.052500
 11
114.020000
 21
79.702500
  0
LINE
  8
2
  6
CONTINUOUS
 10
115.630000
 20
80.052500
 11
115.630000
 21
79.702500
  0
LINE
  8
2
  6
CONTINUOUS
 10
106.500000
 20
79.702500
 11
106.500000
 21
80.052500
  0
LINE
  8
2
  6
CONTINUOUS
 10
117.500000
 20
79.702500
 11
117.500000
 21
80.052500
  0
LINE
  8
2
  6
CONTINUOUS
 10
107.650000
 20
80.052500
 11
107.650000
 21
79.702500
  0
LINE
  8
2
  6
CONTINUOUS
 10
109.450000
 20
79.702500
 11
109.450000
 21
79.352500
  0
LINE
  8
2
  6
CONTINUOUS
 10
110.830000
 20
79.702500
 11
110.830000
 21
79.352500
  0
LINE
  8
2
  6
CONTINUOUS
 10
112.640000
 20
79.702500
 11
112.640000
 21
79.352500
  0
LINE
  8
2
  6
CONTINUOUS
 10
114.020000
 20
79.702500
 11
114.020000
 21
79.352500
  0
LINE
  8
2
  6
CONTINUOUS
 10
115.630000
 20
79.702500
 11
115.630000
 21
79.352500
  0
LINE
  8
2
  6
CONTINUOUS
 10
106.500000
 20
79.352500
 11
106.500000
 21
79.702500
  0
LINE
  8
2
  6
CONTINUOUS
 10
117.500000
 20
79.352500
 11
117.500000
 21
79.702500
  0
LINE
  8
2
  6
CONTINUOUS
 10
107.650000
 20
79.702500
 11
107.650000
 21
79.352500
  0
LINE
  8
2
  6
CONTINUOUS
 10
109.450000
 20
79.352500
 11
109.450000
 21
79.002500
  0
LINE
  8
2
  6
CONTINUOUS
 10
110.830000
 20
79.352500
 11
110.830000
 21
79.002500
  0
LINE
  8
2
  6
CONTINUOUS
 10
112.640000
 20
79.352500
 11
112.640000
 21
79.002500
  0
LINE
  8
2
  6
CONTINUOUS
 10
114.020000
 20
79.352500
 11
114.020000
 21
79.002500
  0
LINE
  8
2
  6
CONTINUOUS
 10
115.630000
 20
79.352500
 11
115.630000
 21
79.002500
  0
LINE
  8
2
  6
CONTINUOUS
 10
106.500000
 20
79.002500
 11
106.500000
 21
79.352500
  0
LINE
  8
2
  6
CONTINUOUS
 10
117.500000
 20
79.002500
 11
117.500000
 21
79.352500
  0
LINE
  8
2
  6
CONTINUOUS
 10
107.650000
 20
79.352500
 11
107.650000
 21
79.002500
  0
LINE
  8
2
  6
CONTINUOUS
 10
109.450000
 20
79.002500
 11
109.450000
 21
78.652500
  0
LINE
  8
2
  6
CONTINUOUS
 10
110.830000
 20
79.002500
 11
110.830000
 21
78.652500
  0
LINE
  8
2
  6
CONTINUOUS
 10
112.640000
 20
79.002500
 11
112.640000
 21
78.652500
  0
LINE
  8
2
  6
CONTINUOUS
 10
114.020000
 20
79.002500
 11
114.020000
 21
78.652500
  0
LINE
  8
2
  6
CONTINUOUS
 10
115.630000
 20
79.002500
 11
115.630000
 21
78.652500
  0
LINE
  8
2
  6
CONTINUOUS
 10
106.500000
 20
78.652500
 11
106.500000
 21
79.002500
  0
LINE
  8
2
  6
CONTINUOUS
 10
117.500000
 20
78.652500
 11
117.500000
 21
79.002500
  0
LINE
  8
2
  6
CONTINUOUS
 10
107.650000
 20
79.002500
 11
107.650000
 21
78.652500
  0
LINE
  8
2
  6
CONTINUOUS
 10
109.450000
 20
78.652500
 11
109.450000
 21
78.302501
  0
LINE
  8
2
  6
CONTINUOUS
 10
110.830000
 20
78.652500
 11
110.830000
 21
78.302501
  0
LINE
  8
2
  6
CONTINUOUS
 10
112.640000
 20
78.652500
 11
112.640000
 21
78.302501
  0
LINE
  8
2
  6
CONTINUOUS
 10
114.020000
 20
78.652500
 11
114.020000
 21
78.302501
  0
LINE
  8
2
  6
CONTINUOUS
 10
115.630000
 20
78.652500
 11
115.630000
 21
78.302501
  0
LINE
  8
2
  6
CONTINUOUS
 10
106.500000
 20
78.302501
 11
106.500000
 21
78.652500
  0
LINE
  8
2
  6
CONTINUOUS
 10
117.500000
 20
78.302501
 11
117.500000
 21
78.652500
  0
LINE
  8
2
  6
CONTINUOUS
 10
107.650000
 20
78.652500
 11
107.650000
 21
78.302501
  0
LINE
  8
2
  6
CONTINUOUS
 10
117.500000
 20
77.865001
 11
107.650000
 21
77.865001
  0
LINE
  8
2
  6
CONTINUOUS
 10
106.500000
 20
77.865001
 11
106.500000
 21
78.302501
  0
LINE
  8
2
  6
CONTINUOUS
 10
117.500000
 20
77.865001
 11
117.500000
 21
78.302501
  0
LINE
  8
2
  6
CONTINUOUS
 10
106.500000
 20
78.302501
 11
117.500000
 21
78.302501
  0
LINE
  8
2
  6
CONTINUOUS
 10
106.500000
 20
78.302501
 11
117.500000
 21
78.302501
  0
LINE
  8
2
  6
CONTINUOUS
 10
106.500000
 20
76.865001
 11
106.500000
 21
75.552501
  0
LINE
  8
2
  6
CONTINUOUS
 10
117.500000
 20
76.865001
 11
117.500000
 21
75.552501
  0
LINE
  8
2
  6
CONTINUOUS
 10
106.500000
 20
76.865001
 11
117.500000
 21
76.865001
  0
LINE
  8
2
  6
CONTINUOUS
 10
106.500000
 20
75.552501
 11
117.500000
 21
75.552501
  0
LINE
  8
2
  6
CONTINUOUS
 10
106.500000
 20
76.427501
 11
117.500000
 21
76.427501
  0
LINE
  8
2
  6
CONTINUOUS
 10
110.830000
 20
75.552501
 11
110.830000
 21
76.427501
  0
LINE
  8
2
  6
CONTINUOUS
 10
109.220000
 20
75.552501
 11
109.220000
 21
76.427501
  0
LINE
  8
2
  6
CONTINUOUS
 10
114.165000
 20
75.552501
 11
114.165000
 21
76.427501
  0
LINE
  8
2
  6
CONTINUOUS
 10
114.165000
 20
75.552501
 11
114.165000
 21
75.202500
  0
LINE
  8
2
  6
CONTINUOUS
 10
110.830000
 20
75.202500
 11
110.830000
 21
75.552501
  0
LINE
  8
2
  6
CONTINUOUS
 10
106.500000
 20
75.202500
 11
106.500000
 21
75.552501
  0
LINE
  8
2
  6
CONTINUOUS
 10
117.500000
 20
75.202500
 11
117.500000
 21
75.552501
  0
LINE
  8
2
  6
CONTINUOUS
 10
109.220000
 20
75.552501
 11
109.220000
 21
75.202501
  0
LINE
  8
2
  6
CONTINUOUS
 10
114.165000
 20
75.202500
 11
114.165000
 21
74.852500
  0
LINE
  8
2
  6
CONTINUOUS
 10
110.830000
 20
74.852500
 11
110.830000
 21
75.202500
  0
LINE
  8
2
  6
CONTINUOUS
 10
106.500000
 20
74.852500
 11
106.500000
 21
75.202500
  0
LINE
  8
2
  6
CONTINUOUS
 10
117.500000
 20
74.852500
 11
117.500000
 21
75.202500
  0
LINE
  8
2
  6
CONTINUOUS
 10
109.220000
 20
75.202500
 11
109.220000
 21
74.852500
  0
LINE
  8
2
  6
CONTINUOUS
 10
106.500000
 20
74.852500
 11
117.500000
 21
74.852500
  0
LINE
  8
2
  6
CONTINUOUS
 10
106.500000
 20
74.415000
 11
106.500000
 21
74.852500
  0
LINE
  8
2
  6
CONTINUOUS
 10
117.500000
 20
74.415000
 11
117.500000
 21
74.852500
  0
LINE
  8
2
  6
CONTINUOUS
 10
106.500000
 20
74.852500
 11
117.500000
 21
74.852500
  0
LINE
  8
2
  6
CONTINUOUS
 10
117.500000
 20
74.415000
 11
106.500000
 21
74.415000
  0
LINE
  8
2
  6
CONTINUOUS
 10
106.500000
 20
74.415000
 11
117.500000
 21
74.415000
  0
LINE
  8
1
  6
CONTINUOUS
 10
118.000002
 20
29.700001
 11
119.000002
 21
29.700001
  0
LINE
  8
1
  6
CONTINUOUS
 10
118.000002
 20
59.400002
 11
119.000002
 21
59.400002
  0
LINE
  8
1
  6
CONTINUOUS
 10
0.000000
 20
29.700001
 11
2.500000
 21
29.700001
  0
LINE
  8
1
  6
CONTINUOUS
 10
0.000000
 20
59.400002
 11
2.500000
 21
59.400002
  0
LINE
  8
1
  6
CONTINUOUS
 10
100.500002
 20
82.999998
 11
100.500002
 21
83.999998
  0
LINE
  8
1
  6
CONTINUOUS
 10
82.000002
 20
82.999998
 11
82.000002
 21
83.999998
  0
LINE
  8
1
  6
CONTINUOUS
 10
63.500002
 20
82.999998
 11
63.500002
 21
83.999998
  0
LINE
  8
1
  6
CONTINUOUS
 10
45.000002
 20
82.999998
 11
45.000002
 21
83.999998
  0
LINE
  8
1
  6
CONTINUOUS
 10
33.050001
 20
82.999998
 11
33.050001
 21
83.999998
  0
LINE
  8
1
  6
CONTINUOUS
 10
21.100000
 20
82.999998
 11
21.100000
 21
83.999998
  0
LINE
  8
1
  6
CONTINUOUS
 10
100.500002
 20
0.000000
 11
100.500002
 21
1.000000
  0
LINE
  8
1
  6
CONTINUOUS
 10
82.000002
 20
0.000000
 11
82.000002
 21
1.000000
  0
LINE
  8
1
  6
CONTINUOUS
 10
63.500002
 20
0.000000
 11
63.500002
 21
1.000000
  0
LINE
  8
1
  6
CONTINUOUS
 10
45.000002
 20
0.000000
 11
45.000002
 21
1.000000
  0
LINE
  8
1
  6
CONTINUOUS
 10
33.050001
 20
0.000000
 11
33.050001
 21
1.000000
  0
LINE
  8
1
  6
CONTINUOUS
 10
21.100000
 20
0.000000
 11
21.100000
 21
1.000000
  0
LINE
  8
1
  6
CONTINUOUS
 10
0.000000
 20
0.000000
 11
119.000002
 21
0.000000
  0
LINE
  8
1
  6
CONTINUOUS
 10
119.000002
 20
0.000000
 11
119.000002
 21
83.999998
  0
LINE
  8
1
  6
CONTINUOUS
 10
0.000000
 20
0.000000
 11
0.000000
 21
83.999998
  0
LINE
  8
8
  6
CONTINUOUS
 10
2.500000
 20
1.000000
 11
118.000002
 21
1.000000
  0
LINE
  8
8
  6
CONTINUOUS
 10
118.000002
 20
1.000000
 11
118.000002
 21
82.999998
  0
LINE
  8
1
  6
CONTINUOUS
 10
0.000000
 20
83.999998
 11
119.000002
 21
83.999998
  0
LINE
  8
8
  6
CONTINUOUS
 10
2.500000
 20
82.999998
 11
118.000002
 21
82.999998
  0
LINE
  8
8
  6
CONTINUOUS
 10
2.500000
 20
82.999998
 11
2.500000
 21
1.000000
  0
LINE
  8
2
  6
CONTINUOUS
 10
102.650002
 20
17.625000
 11
102.650002
 21
18.125000
  0
LINE
  8
1
  6
CONTINUOUS
 10
101.700002
 20
18.200000
 11
118.000002
 21
18.200000
  0
LINE
  8
1
  6
CONTINUOUS
 10
101.700002
 20
17.700000
 11
118.000002
 21
17.700000
  0
LINE
  8
1
  6
CONTINUOUS
 10
102.200002
 20
17.700000
 11
118.000002
 21
17.700000
  0
LINE
  8
2
  6
CONTINUOUS
 10
102.650002
 20
17.125000
 11
102.650002
 21
17.625000
  0
LINE
  8
1
  6
CONTINUOUS
 10
102.200002
 20
17.700000
 11
118.000002
 21
17.700000
  0
LINE
  8
1
  6
CONTINUOUS
 10
101.700002
 20
17.200000
 11
118.000002
 21
17.200000
  0
LINE
  8
2
  6
CONTINUOUS
 10
102.650002
 20
16.700000
 11
102.650002
 21
17.200000
  0
LINE
  8
1
  6
CONTINUOUS
 10
116.008223
 20
16.000000
 11
116.008223
 21
22.200000
  0
LINE
  8
1
  6
CONTINUOUS
 10
104.850002
 20
16.000000
 11
104.850002
 21
22.200000
  0
LINE
  8
6
  6
CONTINUOUS
 10
101.700002
 20
16.000000
 11
118.000002
 21
16.000000
  0
LINE
  8
1
  6
CONTINUOUS
 10
102.650002
 20
16.000000
 11
102.650002
 21
16.700000
  0
LINE
  8
1
  6
CONTINUOUS
 10
102.200002
 20
17.200000
 11
118.000002
 21
17.200000
  0
LINE
  8
1
  6
CONTINUOUS
 10
101.700002
 20
16.700000
 11
118.000002
 21
16.700000
  0
LINE
  8
2
  6
CONTINUOUS
 10
102.650002
 20
18.625000
 11
102.650002
 21
22.200000
  0
LINE
  8
6
  6
CONTINUOUS
 10
101.700002
 20
22.200000
 11
118.000002
 21
22.200000
  0
LINE
  8
1
  6
CONTINUOUS
 10
101.700002
 20
18.700000
 11
118.000002
 21
18.700000
  0
LINE
  8
1
  6
CONTINUOUS
 10
102.200002
 20
18.700000
 11
118.000002
 21
18.700000
  0
LINE
  8
2
  6
CONTINUOUS
 10
102.650002
 20
18.125000
 11
102.650002
 21
18.625000
  0
LINE
  8
1
  6
CONTINUOUS
 10
102.200002
 20
18.700000
 11
118.000002
 21
18.700000
  0
LINE
  8
1
  6
CONTINUOUS
 10
102.200002
 20
18.200000
 11
118.000002
 21
18.200000
  0
LINE
  8
1
  6
CONTINUOUS
 10
102.200002
 20
18.200000
 11
118.000002
 21
18.200000
  0
LINE
  8
6
  6
CONTINUOUS
 10
101.700002
 20
6.600000
 11
118.000002
 21
6.600000
  0
LINE
  8
6
  6
CONTINUOUS
 10
101.700002
 20
8.500000
 11
118.000002
 21
8.500000
  0
LINE
  8
6
  6
CONTINUOUS
 10
101.700002
 20
1.000000
 11
101.700002
 21
8.500000
  0
LINE
  8
6
  6
CONTINUOUS
 10
101.700002
 20
16.000000
 11
101.700002
 21
22.200000
  0
LINE
  8
6
  6
CONTINUOUS
 10
101.700002
 20
15.900000
 11
118.000002
 21
15.900000
  0
LINE
  8
6
  6
CONTINUOUS
 10
101.700002
 20
11.400000
 11
101.700002
 21
15.900000
  0
LINE
  8
1
  6
CONTINUOUS
 10
101.700002
 20
14.400000
 11
118.000002
 21
14.400000
  0
LINE
  8
6
  6
CONTINUOUS
 10
101.700002
 20
3.000000
 11
118.000002
 21
3.000000
  0
LINE
  8
6
  6
CONTINUOUS
 10
105.024321
 20
3.000000
 11
105.024321
 21
1.000000
  0
LINE
  8
1
  6
CONTINUOUS
 10
101.700002
 20
12.900000
 11
118.000002
 21
12.900000
  0
POLYLINE
  8
1
  6
CONTINUOUS
 66
     1
  0
VERTEX
  8
1
  6
CONTINUOUS
 10
103.635546
 20
9.498246
  0
VERTEX
  8
1
  6
CONTINUOUS
 10
101.971546
 20
9.498246
  0
VERTEX
  8
1
  6
CONTINUOUS
 10
101.971546
 20
11.162246
  0
VERTEX
  8
1
  6
CONTINUOUS
 10
103.635546
 20
11.162246
  0
VERTEX
  8
1
  6
CONTINUOUS
 10
103.635546
 20
9.498246
  0
SEQEND
  8
1
  6
CONTINUOUS
  0
POLYLINE
  8
13
  6
CONTINUOUS
 66
     1
  0
VERTEX
  8
13
  6
CONTINUOUS
 10
102.095046
 20
10.244446
  0
VERTEX
  8
13
  6
CONTINUOUS
 10
102.095046
 20
9.498246
  0
VERTEX
  8
13
  6
CONTINUOUS
 10
101.971546
 20
9.498246
  0
VERTEX
  8
13
  6
CONTINUOUS
 10
101.971546
 20
11.162246
  0
VERTEX
  8
13
  6
CONTINUOUS
 10
102.095046
 20
11.162246
  0
VERTEX
  8
13
  6
CONTINUOUS
 10
102.095046
 20
10.244446
  0
SEQEND
  8
13
  6
CONTINUOUS
  0
POLYLINE
  8
13
  6
CONTINUOUS
 66
     1
  0
VERTEX
  8
13
  6
CONTINUOUS
 10
102.522746
 20
10.230979
  0
VERTEX
  8
13
  6
CONTINUOUS
 10
102.522746
 20
9.498246
  0
VERTEX
  8
13
  6
CONTINUOUS
 10
102.095046
 20
9.498246
  0
VERTEX
  8
13
  6
CONTINUOUS
 10
102.095046
 20
10.244446
  0
VERTEX
  8
13
  6
CONTINUOUS
 10
102.143544
 20
10.248642
  0
VERTEX
  8
13
  6
CONTINUOUS
 10
102.211078
 20
10.252071
  0
VERTEX
  8
13
  6
CONTINUOUS
 10
102.259959
 20
10.252484
  0
VERTEX
  8
13
  6
CONTINUOUS
 10
102.290321
 20
10.252141
  0
VERTEX
  8
13
  6
CONTINUOUS
 10
102.334203
 20
10.250668
  0
VERTEX
  8
13
  6
CONTINUOUS
 10
102.394518
 20
10.246747
  0
VERTEX
  8
13
  6
CONTINUOUS
 10
102.446340
 20
10.241621
  0
VERTEX
  8
13
  6
CONTINUOUS
 10
102.490083
 20
10.235974
  0
VERTEX
  8
13
  6
CONTINUOUS
 10
102.522746
 20
10.230979
  0
SEQEND
  8
13
  6
CONTINUOUS
  0
POLYLINE
  8
13
  6
CONTINUOUS
 66
     1
  0
VERTEX
  8
13
  6
CONTINUOUS
 10
102.594246
 20
10.217654
  0
VERTEX
  8
13
  6
CONTINUOUS
 10
102.594246
 20
9.498246
  0
VERTEX
  8
13
  6
CONTINUOUS
 10
103.021946
 20
9.498246
  0
VERTEX
  8
13
  6
CONTINUOUS
 10
103.021946
 20
10.064184
  0
VERTEX
  8
13
  6
CONTINUOUS
 10
103.003898
 20
10.073542
  0
VERTEX
  8
13
  6
CONTINUOUS
 10
102.981716
 20
10.084501
  0
VERTEX
  8
13
  6
CONTINUOUS
 10
102.953307
 20
10.098271
  0
VERTEX
  8
13
  6
CONTINUOUS
 10
102.912865
 20
10.116383
  0
VERTEX
  8
13
  6
CONTINUOUS
 10
102.885024
 20
10.128001
  0
VERTEX
  8
13
  6
CONTINUOUS
 10
102.844071
 20
10.144755
  0
VERTEX
  8
13
  6
CONTINUOUS
 10
102.813490
 20
10.155923
  0
VERTEX
  8
13
  6
CONTINUOUS
 10
102.778388
 20
10.168156
  0
VERTEX
  8
13
  6
CONTINUOUS
 10
102.744083
 20
10.178793
  0
VERTEX
  8
13
  6
CONTINUOUS
 10
102.703465
 20
10.191172
  0
VERTEX
  8
13
  6
CONTINUOUS
 10
102.665141
 20
10.201162
  0
VERTEX
  8
13
  6
CONTINUOUS
 10
102.624819
 20
10.210970
  0
VERTEX
  8
13
  6
CONTINUOUS
 10
102.594246
 20
10.217654
  0
SEQEND
  8
13
  6
CONTINUOUS
  0
POLYLINE
  8
13
  6
CONTINUOUS
 66
     1
  0
VERTEX
  8
13
  6
CONTINUOUS
 10
103.093446
 20
10.024343
  0
VERTEX
  8
13
  6
CONTINUOUS
 10
103.093446
 20
9.498246
  0
VERTEX
  8
13
  6
CONTINUOUS
 10
103.521146
 20
9.498246
  0
VERTEX
  8
13
  6
CONTINUOUS
 10
103.521146
 20
9.661030
  0
VERTEX
  8
13
  6
CONTINUOUS
 10
103.507797
 20
9.676793
  0
VERTEX
  8
13
  6
CONTINUOUS
 10
103.495964
 20
9.690528
  0
VERTEX
  8
13
  6
CONTINUOUS
 10
103.473877
 20
9.715277
  0
VERTEX
  8
13
  6
CONTINUOUS
 10
103.454164
 20
9.736530
  0
VERTEX
  8
13
  6
CONTINUOUS
 10
103.434048
 20
9.757502
  0
VERTEX
  8
13
  6
CONTINUOUS
 10
103.410015
 20
9.781535
  0
VERTEX
  8
13
  6
CONTINUOUS
 10
103.399294
 20
9.791943
  0
VERTEX
  8
13
  6
CONTINUOUS
 10
103.388429
 20
9.802406
  0
VERTEX
  8
13
  6
CONTINUOUS
 10
103.359952
 20
9.828752
  0
VERTEX
  8
13
  6
CONTINUOUS
 10
103.325139
 20
9.859181
  0
VERTEX
  8
13
  6
CONTINUOUS
 10
103.286846
 20
9.890826
  0
VERTEX
  8
13
  6
CONTINUOUS
 10
103.251036
 20
9.918745
  0
VERTEX
  8
13
  6
CONTINUOUS
 10
103.200839
 20
9.955427
  0
VERTEX
  8
13
  6
CONTINUOUS
 10
103.134352
 20
9.999676
  0
VERTEX
  8
13
  6
CONTINUOUS
 10
103.093446
 20
10.024343
  0
SEQEND
  8
13
  6
CONTINUOUS
  0
POLYLINE
  8
13
  6
CONTINUOUS
 66
     1
  0
VERTEX
  8
13
  6
CONTINUOUS
 10
102.522746
 20
10.635283
  0
VERTEX
  8
13
  6
CONTINUOUS
 10
102.522746
 20
11.162246
  0
VERTEX
  8
13
  6
CONTINUOUS
 10
102.095046
 20
11.162246
  0
VERTEX
  8
13
  6
CONTINUOUS
 10
102.095046
 20
10.995122
  0
VERTEX
  8
13
  6
CONTINUOUS
 10
102.153689
 20
10.929235
  0
VERTEX
  8
13
  6
CONTINUOUS
 10
102.237359
 20
10.846559
  0
VERTEX
  8
13
  6
CONTINUOUS
 10
102.308389
 20
10.784730
  0
VERTEX
  8
13
  6
CONTINUOUS
 10
102.366624
 20
10.739274
  0
VERTEX
  8
13
  6
CONTINUOUS
 10
102.406322
 20
10.710064
  0
VERTEX
  8
13
  6
CONTINUOUS
 10
102.455827
 20
10.676682
  0
VERTEX
  8
13
  6
CONTINUOUS
 10
102.493954
 20
10.652515
  0
VERTEX
  8
13
  6
CONTINUOUS
 10
102.522746
 20
10.635283
  0
SEQEND
  8
13
  6
CONTINUOUS
  0
POLYLINE
  8
13
  6
CONTINUOUS
 66
     1
  0
VERTEX
  8
13
  6
CONTINUOUS
 10
103.021946
 20
10.443678
  0
VERTEX
  8
13
  6
CONTINUOUS
 10
103.021946
 20
11.162246
  0
VERTEX
  8
13
  6
CONTINUOUS
 10
102.594246
 20
11.162246
  0
VERTEX
  8
13
  6
CONTINUOUS
 10
102.594246
 20
10.595859
  0
VERTEX
  8
13
  6
CONTINUOUS
 10
102.663800
 20
10.561766
  0
VERTEX
  8
13
  6
CONTINUOUS
 10
102.744359
 20
10.527375
  0
VERTEX
  8
13
  6
CONTINUOUS
 10
102.812197
 20
10.501464
  0
VERTEX
  8
13
  6
CONTINUOUS
 10
102.889458
 20
10.476967
  0
VERTEX
  8
13
  6
CONTINUOUS
 10
102.950702
 20
10.460007
  0
VERTEX
  8
13
  6
CONTINUOUS
 10
103.021946
 20
10.443678
  0
SEQEND
  8
13
  6
CONTINUOUS
  0
POLYLINE
  8
13
  6
CONTINUOUS
 66
     1
  0
VERTEX
  8
13
  6
CONTINUOUS
 10
103.093446
 20
10.430307
  0
VERTEX
  8
13
  6
CONTINUOUS
 10
103.093446
 20
11.162246
  0
VERTEX
  8
13
  6
CONTINUOUS
 10
103.521146
 20
11.162246
  0
VERTEX
  8
13
  6
CONTINUOUS
 10
103.521146
 20
10.417580
  0
VERTEX
  8
13
  6
CONTINUOUS
 10
103.476372
 20
10.413637
  0
VERTEX
  8
13
  6
CONTINUOUS
 10
103.416577
 20
10.410480
  0
VERTEX
  8
13
  6
CONTINUOUS
 10
103.366788
 20
10.409453
  0
VERTEX
  8
13
  6
CONTINUOUS
 10
103.336830
 20
10.409453
  0
VERTEX
  8
13
  6
CONTINUOUS
 10
103.286182
 20
10.410821
  0
VERTEX
  8
13
  6
CONTINUOUS
 10
103.241261
 20
10.413321
  0
VERTEX
  8
13
  6
CONTINUOUS
 10
103.205545
 20
10.416539
  0
VERTEX
  8
13
  6
CONTINUOUS
 10
103.155349
 20
10.421044
  0
VERTEX
  8
13
  6
CONTINUOUS
 10
103.093446
 20
10.430307
  0
SEQEND
  8
13
  6
CONTINUOUS
  0
POLYLINE
  8
13
  6
CONTINUOUS
 66
     1
  0
VERTEX
  8
13
  6
CONTINUOUS
 10
102.522746
 20
9.498246
  0
VERTEX
  8
13
  6
CONTINUOUS
 10
102.594246
 20
9.498246
  0
VERTEX
  8
13
  6
CONTINUOUS
 10
102.594246
 20
11.162246
  0
VERTEX
  8
13
  6
CONTINUOUS
 10
102.522746
 20
11.162246
  0
VERTEX
  8
13
  6
CONTINUOUS
 10
102.522746
 20
9.498246
  0
VERTEX
  8
13
  6
CONTINUOUS
 10
102.594246
 20
9.498246
  0
SEQEND
  8
13
  6
CONTINUOUS
  0
POLYLINE
  8
13
  6
CONTINUOUS
 66
     1
  0
VERTEX
  8
13
  6
CONTINUOUS
 10
103.021946
 20
11.162246
  0
VERTEX
  8
13
  6
CONTINUOUS
 10
103.093446
 20
11.162246
  0
VERTEX
  8
13
  6
CONTINUOUS
 10
103.093446
 20
9.498246
  0
VERTEX
  8
13
  6
CONTINUOUS
 10
103.021946
 20
9.498246
  0
VERTEX
  8
13
  6
CONTINUOUS
 10
103.021946
 20
11.162246
  0
SEQEND
  8
13
  6
CONTINUOUS
  0
POLYLINE
  8
13
  6
CONTINUOUS
 66
     1
  0
VERTEX
  8
13
  6
CONTINUOUS
 10
103.521146
 20
9.498246
  0
VERTEX
  8
13
  6
CONTINUOUS
 10
103.635546
 20
9.498246
  0
VERTEX
  8
13
  6
CONTINUOUS
 10
103.635546
 20
11.162246
  0
VERTEX
  8
13
  6
CONTINUOUS
 10
103.521146
 20
11.162246
  0
VERTEX
  8
13
  6
CONTINUOUS
 10
103.521146
 20
9.498246
  0
SEQEND
  8
13
  6
CONTINUOUS
  0
LINE
  8
6
  6
CONTINUOUS
 10
107.924321
 20
3.000000
 11
107.924321
 21
2.000000
  0
LINE
  8
6
  6
CONTINUOUS
 10
101.700002
 20
2.000000
 11
114.124321
 21
2.000000
  0
LINE
  8
6
  6
CONTINUOUS
 10
114.124321
 20
3.000000
 11
114.124321
 21
1.000000
  0
LINE
  8
6
  6
CONTINUOUS
 10
101.700002
 20
8.600000
 11
118.000002
 21
8.600000
  0
LINE
  8
6
  6
CONTINUOUS
 10
101.700002
 20
8.600000
 11
101.700002
 21
11.300000
  0
LINE
  8
6
  6
CONTINUOUS
 10
101.700002
 20
11.300000
 11
118.000002
 21
11.300000
  0
LINE
  8
6
  6
CONTINUOUS
 10
101.700002
 20
11.400000
 11
118.000002
 21
11.400000
  0
LINE
  8
1
  6
CONTINUOUS
 10
101.700002
 20
19.200000
 11
118.000002
 21
19.200000
  0
LINE
  8
1
  6
CONTINUOUS
 10
102.200002
 20
19.200000
 11
118.000002
 21
19.200000
  0
LINE
  8
1
  6
CONTINUOUS
 10
102.200002
 20
19.200000
 11
118.000002
 21
19.200000
  0
LINE
  8
1
  6
CONTINUOUS
 10
101.700002
 20
19.700000
 11
118.000002
 21
19.700000
  0
LINE
  8
1
  6
CONTINUOUS
 10
102.200002
 20
19.700000
 11
118.000002
 21
19.700000
  0
LINE
  8
1
  6
CONTINUOUS
 10
102.200002
 20
19.700000
 11
118.000002
 21
19.700000
  0
LINE
  8
1
  6
CONTINUOUS
 10
101.700002
 20
20.200000
 11
118.000002
 21
20.200000
  0
LINE
  8
1
  6
CONTINUOUS
 10
102.200002
 20
20.200000
 11
118.000002
 21
20.200000
  0
LINE
  8
1
  6
CONTINUOUS
 10
102.200002
 20
20.200000
 11
118.000002
 21
20.200000
  0
LINE
  8
1
  6
CONTINUOUS
 10
101.700002
 20
20.700000
 11
118.000002
 21
20.700000
  0
LINE
  8
1
  6
CONTINUOUS
 10
102.200002
 20
20.700000
 11
118.000002
 21
20.700000
  0
LINE
  8
1
  6
CONTINUOUS
 10
102.200002
 20
20.700000
 11
118.000002
 21
20.700000
  0
LINE
  8
1
  6
CONTINUOUS
 10
101.700002
 20
21.200000
 11
118.000002
 21
21.200000
  0
LINE
  8
1
  6
CONTINUOUS
 10
102.200002
 20
21.200000
 11
118.000002
 21
21.200000
  0
LINE
  8
1
  6
CONTINUOUS
 10
102.200002
 20
21.200000
 11
118.000002
 21
21.200000
  0
LINE
  8
1
  6
CONTINUOUS
 10
101.700002
 20
21.700000
 11
118.000002
 21
21.700000
  0
LINE
  8
6
  6
CONTINUOUS
 10
110.708935
 20
11.300000
 11
110.708935
 21
8.600000
  0
TEXT
  8
2
  6
CONTINUOUS
 10
16.707030
 20
67.941420
 40
0.200000
  1
1075
  7
TQS_CALIBRI
  0
TEXT
  8
2
  6
CONTINUOUS
 10
28.157030
 20
67.941420
 40
0.200000
 50
90.000000
  1
30
  7
TQS_CALIBRI
  0
TEXT
  8
2
  6
CONTINUOUS
 10
15.507030
 20
67.491420
 40
0.200000
  1
4 P4 %%c 20 C=1105
  7
TQS_CALIBRI
  0
TEXT
  8
2
  6
CONTINUOUS
 10
18.907030
 20
69.141420
 40
0.200000
  1
865
  7
TQS_CALIBRI
  0
TEXT
  8
2
  6
CONTINUOUS
 10
28.157030
 20
69.141420
 40
0.200000
 50
90.000000
  1
30
  7
TQS_CALIBRI
  0
TEXT
  8
2
  6
CONTINUOUS
 10
17.707030
 20
68.691420
 40
0.200000
  1
2 P5 %%c 20 C=895
  7
TQS_CALIBRI
  0
TEXT
  8
2
  6
CONTINUOUS
 10
15.437030
 20
79.591420
 40
0.200000
  1
5 P1 %%c 20 C=1080
  7
TQS_CALIBRI
  0
TEXT
  8
2
  6
CONTINUOUS
 10
11.487030
 20
78.391420
 40
0.200000
  1
2 P2 %%c 20 C=675
  7
TQS_CALIBRI
  0
TEXT
  8
2
  6
CONTINUOUS
 10
6.907030
 20
78.811420
 40
0.200000
  1
85
  7
TQS_CALIBRI
  0
TEXT
  8
2
  6
CONTINUOUS
 10
25.177910
 20
78.841420
 40
0.200000
  1
234
  7
TQS_CALIBRI
  0
TEXT
  8
2
  6
CONTINUOUS
 10
28.117910
 20
77.931420
 40
0.200000
 50
90.000000
  1
61
  7
TQS_CALIBRI
  0
TEXT
  8
2
  6
CONTINUOUS
 10
23.977910
 20
78.391420
 40
0.200000
  1
7 P3 %%c 20 C=295
  7
TQS_CALIBRI
  0
TEXT
  8
2
  6
CONTINUOUS
 10
27.396920
 20
78.811420
 40
0.200000
  1
24
  7
TQS_CALIBRI
  0
TEXT
  8
2
  6
CONTINUOUS
 10
15.936680
 20
70.291420
 40
0.200000
  1
2x8 P7 %%c 8 C=1018
  7
TQS_CALIBRI
  0
TEXT
  8
2
  6
CONTINUOUS
 10
27.396130
 20
71.361420
 40
0.200000
  1
24
  7
TQS_CALIBRI
  0
TEXT
  8
3
  6
CONTINUOUS
 10
17.111680
 20
73.930260
 40
0.150000
  1
2X8 %%c 8
  7
TQS_CALIBRI
  0
TEXT
  8
2
  6
CONTINUOUS
 10
16.736680
 20
70.691420
 40
0.200000
  1
(costela)
  7
TQS_CALIBRI
  0
TEXT
  8
2
  6
CONTINUOUS
 10
25.310930
 20
75.109420
 40
0.150000
  1
215cm
  7
TQS_CALIBRI
  0
TEXT
  8
2
  6
CONTINUOUS
 10
16.357030
 20
72.941420
 40
0.170000
  1
VP11
  7
TQS_CALIBRI
  0
TEXT
  8
2
  6
CONTINUOUS
 10
30.378130
 20
74.041420
 40
0.200000
 50
90.000000
  1
73
  7
TQS_CALIBRI
  0
TEXT
  8
2
  6
CONTINUOUS
 10
31.261693
 20
75.885545
 40
0.200000
 50
355.875853
  1
49
  7
TQS_CALIBRI
  0
TEXT
  8
2
  6
CONTINUOUS
 10
17.569030
 20
75.692420
 40
0.170000
  1
 
  7
TQS_CALIBRI
  0
TEXT
  8
2
  6
CONTINUOUS
 10
17.229030
 20
75.947420
 40
0.170000
  1
(4R)
  7
TQS_CALIBRI
  0
TEXT
  8
2
  6
CONTINUOUS
 10
16.379030
 20
75.692420
 40
0.170000
  1
56 %%c 8 C/17.5
  7
TQS_CALIBRI
  0
TEXT
  8
2
  6
CONTINUOUS
 10
17.399030
 20
75.437420
 40
0.170000
  1
P6
  7
TQS_CALIBRI
  0
TEXT
  8
2
  6
CONTINUOUS
 10
30.238130
 20
71.041420
 40
0.200000
  1
2x56 P6 %%c 8 C=262
  7
TQS_CALIBRI
  0
TEXT
  8
7
  6
CONTINUOUS
 10
5.537030
 20
81.441420
 40
0.680000
  1
VP13 (com protensão)
  7
TQS_CALIBRI
  0
TEXT
  8
3
  6
CONTINUOUS
 10
19.137030
 20
81.441420
 40
0.300000
  1
 (04-3Pavto)
  7
TQS_CALIBRI
  0
TEXT
  8
3
  6
CONTINUOUS
 10
23.037030
 20
81.441420
 40
0.300000
  1
80/80
  7
TQS_CALIBRI
  0
TEXT
  8
5
  6
CONTINUOUS
 10
4.487030
 20
72.316420
 40
0.250000
  1
VP7
  7
TQS_CALIBRI
  0
TEXT
  8
5
  6
CONTINUOUS
 10
27.184830
 20
70.416420
 40
0.250000
  1
V23
  7
TQS_CALIBRI
  0
TEXT
  8
5
  6
CONTINUOUS
 10
30.748130
 20
80.541420
 40
0.340000
  1
Corte A
  7
TQS_CALIBRI
  0
TEXT
  8
2
  6
CONTINUOUS
 10
31.738130
 20
80.101420
 40
0.200000
  1
80
  7
TQS_CALIBRI
  0
TEXT
  8
2
  6
CONTINUOUS
 10
30.278130
 20
77.841420
 40
0.200000
 50
90.000000
  1
80
  7
TQS_CALIBRI
  0
TEXT
  8
2
  6
CONTINUOUS
 10
34.398130
 20
76.841420
 40
0.180000
  1
6 %%c 20
  7
TQS_CALIBRI
  0
TEXT
  8
2
  6
CONTINUOUS
 10
34.398130
 20
79.861420
 40
0.180000
  1
12 %%c 20
  7
TQS_CALIBRI
  0
TEXT
  8
2
  6
CONTINUOUS
 10
34.378130
 20
78.356420
 40
0.170000
  1
8x2 %%c 8
  7
TQS_CALIBRI
  0
TEXT
  8
5
  6
CONTINUOUS
 10
18.204880
 20
71.952020
 40
0.272000
 50
90.000000
  1
A
  7
TQS_CALIBRI
  0
TEXT
  8
5
  6
CONTINUOUS
 10
26.279330
 20
76.943820
 40
0.272000
 50
90.000000
  1
A
  7
TQS_CALIBRI
  0
TEXT
  8
2
  6
CONTINUOUS
 10
5.537030
 20
65.741420
 40
0.400000
  1
OBS.: olhar desenho de cabos protendidos.
  7
TQS_CALIBRI
  0
TEXT
  8
7
  6
CONTINUOUS
 10
7.385340
 20
58.147410
 40
0.140000
  1
ESC. 1:50
  7
TQS_CALIBRI
  0
TEXT
  8
7
  6
CONTINUOUS
 10
7.385340
 20
58.427410
 40
0.280000
  1
ELEVAÇÃO (VP13)
  7
TQS_CALIBRI
  0
TEXT
  8
2
  6
CONTINUOUS
 10
9.985340
 20
52.547410
 40
0.140000
  1
VP7 
  7
TQS_CALIBRI
  0
TEXT
  8
7
  6
CONTINUOUS
 10
7.385340
 20
50.447410
 40
0.280000
  1
Cabo C2
  7
TQS_CALIBRI
  0
TEXT
  8
2
  6
CONTINUOUS
 10
9.985340
 20
47.647410
 40
0.140000
  1
VP7 
  7
TQS_CALIBRI
  0
TEXT
  8
7
  6
CONTINUOUS
 10
7.385340
 20
44.347410
 40
0.280000
  1
Cabo C1
  7
TQS_CALIBRI
  0
TEXT
  8
2
  6
CONTINUOUS
 10
9.985340
 20
41.547410
 40
0.140000
  1
VP7 
  7
TQS_CALIBRI
  0
TEXT
  8
2
  6
CONTINUOUS
 10
7.315340
 20
57.287410
 40
0.140000
  1
1
  7
TQS_CALIBRI
  0
TEXT
  8
2
  6
CONTINUOUS
 10
7.923613
 20
56.707410
 40
0.200000
  1
101.8
  7
TQS_CALIBRI
  0
TEXT
  8
2
  6
CONTINUOUS
 10
9.351885
 20
57.287410
 40
0.140000
  1
2
  7
TQS_CALIBRI
  0
TEXT
  8
2
  6
CONTINUOUS
 10
9.960158
 20
56.707410
 40
0.200000
  1
101.8
  7
TQS_CALIBRI
  0
TEXT
  8
2
  6
CONTINUOUS
 10
11.388431
 20
57.287410
 40
0.140000
  1
3
  7
TQS_CALIBRI
  0
TEXT
  8
2
  6
CONTINUOUS
 10
11.996704
 20
56.707410
 40
0.200000
  1
101.8
  7
TQS_CALIBRI
  0
TEXT
  8
2
  6
CONTINUOUS
 10
13.424976
 20
57.287410
 40
0.140000
  1
4
  7
TQS_CALIBRI
  0
TEXT
  8
2
  6
CONTINUOUS
 10
14.033249
 20
56.707410
 40
0.200000
  1
101.8
  7
TQS_CALIBRI
  0
TEXT
  8
2
  6
CONTINUOUS
 10
15.461522
 20
57.287410
 40
0.140000
  1
5
  7
TQS_CALIBRI
  0
TEXT
  8
2
  6
CONTINUOUS
 10
16.069795
 20
56.707410
 40
0.200000
  1
101.8
  7
TQS_CALIBRI
  0
TEXT
  8
2
  6
CONTINUOUS
 10
17.498067
 20
57.287410
 40
0.140000
  1
6
  7
TQS_CALIBRI
  0
TEXT
  8
2
  6
CONTINUOUS
 10
18.106340
 20
56.707410
 40
0.200000
  1
101.8
  7
TQS_CALIBRI
  0
TEXT
  8
2
  6
CONTINUOUS
 10
19.534613
 20
57.287410
 40
0.140000
  1
7
  7
TQS_CALIBRI
  0
TEXT
  8
2
  6
CONTINUOUS
 10
20.142885
 20
56.707410
 40
0.200000
  1
101.8
  7
TQS_CALIBRI
  0
TEXT
  8
2
  6
CONTINUOUS
 10
21.571158
 20
57.287410
 40
0.140000
  1
8
  7
TQS_CALIBRI
  0
TEXT
  8
2
  6
CONTINUOUS
 10
22.179431
 20
56.707410
 40
0.200000
  1
101.8
  7
TQS_CALIBRI
  0
TEXT
  8
2
  6
CONTINUOUS
 10
23.607704
 20
57.287410
 40
0.140000
  1
9
  7
TQS_CALIBRI
  0
TEXT
  8
2
  6
CONTINUOUS
 10
24.215976
 20
56.707410
 40
0.200000
  1
101.8
  7
TQS_CALIBRI
  0
TEXT
  8
2
  6
CONTINUOUS
 10
25.574249
 20
57.287410
 40
0.140000
  1
10
  7
TQS_CALIBRI
  0
TEXT
  8
2
  6
CONTINUOUS
 10
26.252522
 20
56.707410
 40
0.200000
  1
101.8
  7
TQS_CALIBRI
  0
TEXT
  8
2
  6
CONTINUOUS
 10
27.610795
 20
57.287410
 40
0.140000
  1
11
  7
TQS_CALIBRI
  0
TEXT
  8
2
  6
CONTINUOUS
 10
28.289067
 20
56.707410
 40
0.200000
  1
101.8
  7
TQS_CALIBRI
  0
TEXT
  8
2
  6
CONTINUOUS
 10
29.647340
 20
57.287410
 40
0.140000
  1
12
  7
TQS_CALIBRI
  0
TEXT
  8
2
  6
CONTINUOUS
 10
35.581734
 20
55.686234
 40
0.230588
  1
QUANTIDADE DE CABOS, BAINHAS E ANCORAGENS P/ 1 VIGA
  7
TQS_CALIBRI
  0
TEXT
  8
2
  6
CONTINUOUS
 10
34.346440
 20
55.035645
 40
0.140000
  1
CABO
  7
TQS_CALIBRI
  0
TEXT
  8
2
  6
CONTINUOUS
 10
35.606440
 20
55.175645
 40
0.140000
  1
QUANTIDADE
  7
TQS_CALIBRI
  0
TEXT
  8
2
  6
CONTINUOUS
 10
35.746440
 20
54.895645
 40
0.140000
  1
POR VIGA
  7
TQS_CALIBRI
  0
TEXT
  8
2
  6
CONTINUOUS
 10
38.126440
 20
55.035645
 40
0.140000
  1
CORDOALHAS
  7
TQS_CALIBRI
  0
TEXT
  8
2
  6
CONTINUOUS
 10
41.066440
 20
55.210645
 40
0.140000
  1
COMPRIMENTOS (m)
  7
TQS_CALIBRI
  0
TEXT
  8
2
  6
CONTINUOUS
 10
40.926440
 20
54.860645
 40
0.140000
  1
BAINHA
  7
TQS_CALIBRI
  0
TEXT
  8
2
  6
CONTINUOUS
 10
42.746440
 20
54.860645
 40
0.140000
  1
CABO
  7
TQS_CALIBRI
  0
TEXT
  8
2
  6
CONTINUOUS
 10
44.146440
 20
55.175645
 40
0.140000
  1
FORCA DE
  7
TQS_CALIBRI
  0
TEXT
  8
2
  6
CONTINUOUS
 10
44.006440
 20
54.895645
 40
0.140000
  1
PROT. (tf)
  7
TQS_CALIBRI
  0
TEXT
  8
2
  6
CONTINUOUS
 10
45.826440
 20
55.175645
 40
0.140000
  1
ALONG. DO
  7
TQS_CALIBRI
  0
TEXT
  8
2
  6
CONTINUOUS
 10
45.826440
 20
54.895645
 40
0.140000
  1
CABO (mm)
  7
TQS_CALIBRI
  0
TEXT
  8
2
  6
CONTINUOUS
 10
47.646440
 20
55.175645
 40
0.140000
  1
PESO DO
  7
TQS_CALIBRI
  0
TEXT
  8
2
  6
CONTINUOUS
 10
47.506440
 20
54.895645
 40
0.140000
  1
CABO (kg)
  7
TQS_CALIBRI
  0
TEXT
  8
2
  6
CONTINUOUS
 10
34.486440
 20
54.475645
 40
0.140000
  1
C1
  7
TQS_CALIBRI
  0
TEXT
  8
2
  6
CONTINUOUS
 10
36.306440
 20
54.475645
 40
0.140000
  1
1
  7
TQS_CALIBRI
  0
TEXT
  8
2
  6
CONTINUOUS
 10
37.566440
 20
54.475645
 40
0.140000
  1
8 Ø 12,7 (CP190 RB)
  7
TQS_CALIBRI
  0
TEXT
  8
2
  6
CONTINUOUS
 10
41.346440
 20
54.475645
 40
0.140000
  1
-
  7
TQS_CALIBRI
  0
TEXT
  8
2
  6
CONTINUOUS
 10
42.746440
 20
54.475645
 40
0.140000
  1
12.03
  7
TQS_CALIBRI
  0
TEXT
  8
2
  6
CONTINUOUS
 10
44.426440
 20
54.475645
 40
0.140000
  1
119,2
  7
TQS_CALIBRI
  0
TEXT
  8
2
  6
CONTINUOUS
 10
46.246440
 20
54.475645
 40
0.140000
  1
71
  7
TQS_CALIBRI
  0
TEXT
  8
2
  6
CONTINUOUS
 10
47.786440
 20
54.475645
 40
0.140000
  1
85,7
  7
TQS_CALIBRI
  0
TEXT
  8
2
  6
CONTINUOUS
 10
34.486440
 20
54.055645
 40
0.140000
  1
C2
  7
TQS_CALIBRI
  0
TEXT
  8
2
  6
CONTINUOUS
 10
36.306440
 20
54.055645
 40
0.140000
  1
1
  7
TQS_CALIBRI
  0
TEXT
  8
2
  6
CONTINUOUS
 10
37.566440
 20
54.055645
 40
0.140000
  1
8 Ø 12,7 (CP190 RB)
  7
TQS_CALIBRI
  0
TEXT
  8
2
  6
CONTINUOUS
 10
41.346440
 20
54.055645
 40
0.140000
  1
-
  7
TQS_CALIBRI
  0
TEXT
  8
2
  6
CONTINUOUS
 10
42.746440
 20
54.055645
 40
0.140000
  1
11.96
  7
TQS_CALIBRI
  0
TEXT
  8
2
  6
CONTINUOUS
 10
44.426440
 20
54.055645
 40
0.140000
  1
119,2
  7
TQS_CALIBRI
  0
TEXT
  8
2
  6
CONTINUOUS
 10
46.246440
 20
54.055645
 40
0.140000
  1
72
  7
TQS_CALIBRI
  0
TEXT
  8
2
  6
CONTINUOUS
 10
47.786440
 20
54.055645
 40
0.140000
  1
85,2
  7
TQS_CALIBRI
  0
TEXT
  8
2
  6
CONTINUOUS
 10
34.122440
 20
53.215645
 40
0.140000
  1
Comprimento total dos cabos (m)
  7
TQS_CALIBRI
  0
TEXT
  8
2
  6
CONTINUOUS
 10
47.646440
 20
53.215645
 40
0.140000
  1
191,92
  7
TQS_CALIBRI
  0
TEXT
  8
2
  6
CONTINUOUS
 10
34.122440
 20
52.795645
 40
0.140000
  1
Peso total dos cabos (kg)
  7
TQS_CALIBRI
  0
TEXT
  8
2
  6
CONTINUOUS
 10
47.786440
 20
52.795645
 40
0.140000
  1
170,8
  7
TQS_CALIBRI
  0
TEXT
  8
2
  6
CONTINUOUS
 10
34.122440
 20
52.375645
 40
0.140000
  1
Comprimento total das bainhas (m)
  7
TQS_CALIBRI
  0
TEXT
  8
2
  6
CONTINUOUS
 10
48.066440
 20
52.375645
 40
0.140000
  1
-
  7
TQS_CALIBRI
  0
TEXT
  8
2
  6
CONTINUOUS
 10
34.122440
 20
51.955645
 40
0.140000
  1
Ancoragens ativas (unidades)
  7
TQS_CALIBRI
  0
TEXT
  8
2
  6
CONTINUOUS
 10
47.926440
 20
51.955645
 40
0.140000
  1
16
  7
TQS_CALIBRI
  0
TEXT
  8
2
  6
CONTINUOUS
 10
34.122440
 20
51.535645
 40
0.140000
  1
Ancoragens passivas (unidades)
  7
TQS_CALIBRI
  0
TEXT
  8
2
  6
CONTINUOUS
 10
47.926440
 20
51.535645
 40
0.140000
  1
16
  7
TQS_CALIBRI
  0
TEXT
  8
1
  6
CONTINUOUS
 10
7.956567
 20
36.652410
 40
0.070000
  1
C1
  7
TQS_CALIBRI
  0
TEXT
  8
1
  6
CONTINUOUS
 10
7.956567
 20
36.372410
 40
0.070000
  1
C2
  7
TQS_CALIBRI
  0
TEXT
  8
1
  6
CONTINUOUS
 10
14.556567
 20
36.630047
 40
0.070000
  1
C1
  7
TQS_CALIBRI
  0
TEXT
  8
1
  6
CONTINUOUS
 10
14.556567
 20
36.357501
 40
0.070000
  1
C2
  7
TQS_CALIBRI
  0
TEXT
  8
1
  6
CONTINUOUS
 10
21.156567
 20
36.482670
 40
0.070000
  1
C1
  7
TQS_CALIBRI
  0
TEXT
  8
1
  6
CONTINUOUS
 10
21.156567
 20
36.259250
 40
0.070000
  1
C2
  7
TQS_CALIBRI
  0
TEXT
  8
1
  6
CONTINUOUS
 10
27.756567
 20
36.257308
 40
0.070000
  1
C1
  7
TQS_CALIBRI
  0
TEXT
  8
1
  6
CONTINUOUS
 10
27.756567
 20
36.109009
 40
0.070000
  1
C2
  7
TQS_CALIBRI
  0
TEXT
  8
1
  6
CONTINUOUS
 10
34.356567
 20
36.024646
 40
0.070000
  1
C1
  7
TQS_CALIBRI
  0
TEXT
  8
1
  6
CONTINUOUS
 10
34.356567
 20
35.953900
 40
0.070000
  1
C2
  7
TQS_CALIBRI
  0
TEXT
  8
1
  6
CONTINUOUS
 10
40.956567
 20
35.855365
 40
0.070000
  1
C1
  7
TQS_CALIBRI
  0
TEXT
  8
1
  6
CONTINUOUS
 10
40.956567
 20
35.841047
 40
0.070000
  1
C2
  7
TQS_CALIBRI
  0
TEXT
  8
1
  6
CONTINUOUS
 10
47.556567
 20
35.812410
 40
0.070000
  1
C1
  7
TQS_CALIBRI
  0
TEXT
  8
1
  6
CONTINUOUS
 10
47.556567
 20
35.812410
 40
0.070000
  1
C2
  7
TQS_CALIBRI
  0
TEXT
  8
1
  6
CONTINUOUS
 10
54.156567
 20
35.812410
 40
0.070000
  1
C1
  7
TQS_CALIBRI
  0
TEXT
  8
1
  6
CONTINUOUS
 10
54.156567
 20
35.812410
 40
0.070000
  1
C2
  7
TQS_CALIBRI
  0
TEXT
  8
1
  6
CONTINUOUS
 10
60.756567
 20
35.812410
 40
0.070000
  1
C1
  7
TQS_CALIBRI
  0
TEXT
  8
1
  6
CONTINUOUS
 10
60.756567
 20
35.812410
 40
0.070000
  1
C2
  7
TQS_CALIBRI
  0
TEXT
  8
1
  6
CONTINUOUS
 10
67.356567
 20
36.019153
 40
0.070000
  1
C1
  7
TQS_CALIBRI
  0
TEXT
  8
1
  6
CONTINUOUS
 10
67.356567
 20
35.950239
 40
0.070000
  1
C2
  7
TQS_CALIBRI
  0
TEXT
  8
1
  6
CONTINUOUS
 10
73.956567
 20
36.541133
 40
0.070000
  1
C1
  7
TQS_CALIBRI
  0
TEXT
  8
1
  6
CONTINUOUS
 10
73.956567
 20
36.298225
 40
0.070000
  1
C2
  7
TQS_CALIBRI
  0
TEXT
  8
1
  6
CONTINUOUS
 10
7.956567
 20
31.052410
 40
0.070000
  1
C1
  7
TQS_CALIBRI
  0
TEXT
  8
1
  6
CONTINUOUS
 10
7.956567
 20
30.772410
 40
0.070000
  1
C2
  7
TQS_CALIBRI
  0
TEXT
  8
2
  6
CONTINUOUS
 10
4.567340
 20
38.127410
 40
0.280000
  1
SEÇÃO 1
  7
TQS_CALIBRI
  0
TEXT
  8
2
  6
CONTINUOUS
 10
4.567340
 20
37.847410
 40
0.140000
  1
ESC. 1:50
  7
TQS_CALIBRI
  0
TEXT
  8
2
  6
CONTINUOUS
 10
11.167340
 20
38.127410
 40
0.280000
  1
SEÇÃO 2
  7
TQS_CALIBRI
  0
TEXT
  8
2
  6
CONTINUOUS
 10
11.167340
 20
37.847410
 40
0.140000
  1
ESC. 1:50
  7
TQS_CALIBRI
  0
TEXT
  8
2
  6
CONTINUOUS
 10
17.767340
 20
38.127410
 40
0.280000
  1
SEÇÃO 3
  7
TQS_CALIBRI
  0
TEXT
  8
2
  6
CONTINUOUS
 10
17.767340
 20
37.847410
 40
0.140000
  1
ESC. 1:50
  7
TQS_CALIBRI
  0
TEXT
  8
2
  6
CONTINUOUS
 10
24.367340
 20
38.127410
 40
0.280000
  1
SEÇÃO 4
  7
TQS_CALIBRI
  0
TEXT
  8
2
  6
CONTINUOUS
 10
24.367340
 20
37.847410
 40
0.140000
  1
ESC. 1:50
  7
TQS_CALIBRI
  0
TEXT
  8
2
  6
CONTINUOUS
 10
30.967340
 20
38.127410
 40
0.280000
  1
SEÇÃO 5
  7
TQS_CALIBRI
  0
TEXT
  8
2
  6
CONTINUOUS
 10
30.967340
 20
37.847410
 40
0.140000
  1
ESC. 1:50
  7
TQS_CALIBRI
  0
TEXT
  8
2
  6
CONTINUOUS
 10
37.567340
 20
38.127410
 40
0.280000
  1
SEÇÃO 6
  7
TQS_CALIBRI
  0
TEXT
  8
2
  6
CONTINUOUS
 10
37.567340
 20
37.847410
 40
0.140000
  1
ESC. 1:50
  7
TQS_CALIBRI
  0
TEXT
  8
2
  6
CONTINUOUS
 10
44.167340
 20
38.127410
 40
0.280000
  1
SEÇÃO 7
  7
TQS_CALIBRI
  0
TEXT
  8
2
  6
CONTINUOUS
 10
44.167340
 20
37.847410
 40
0.140000
  1
ESC. 1:50
  7
TQS_CALIBRI
  0
TEXT
  8
2
  6
CONTINUOUS
 10
50.767340
 20
38.127410
 40
0.280000
  1
SEÇÃO 8
  7
TQS_CALIBRI
  0
TEXT
  8
2
  6
CONTINUOUS
 10
50.767340
 20
37.847410
 40
0.140000
  1
ESC. 1:50
  7
TQS_CALIBRI
  0
TEXT
  8
2
  6
CONTINUOUS
 10
57.367340
 20
38.127410
 40
0.280000
  1
SEÇÃO 9
  7
TQS_CALIBRI
  0
TEXT
  8
2
  6
CONTINUOUS
 10
57.367340
 20
37.847410
 40
0.140000
  1
ESC. 1:50
  7
TQS_CALIBRI
  0
TEXT
  8
2
  6
CONTINUOUS
 10
63.967340
 20
38.127410
 40
0.280000
  1
SEÇÃO 10
  7
TQS_CALIBRI
  0
TEXT
  8
2
  6
CONTINUOUS
 10
63.967340
 20
37.847410
 40
0.140000
  1
ESC. 1:50
  7
TQS_CALIBRI
  0
TEXT
  8
2
  6
CONTINUOUS
 10
70.567340
 20
38.127410
 40
0.280000
  1
SEÇÃO 11
  7
TQS_CALIBRI
  0
TEXT
  8
2
  6
CONTINUOUS
 10
70.567340
 20
37.847410
 40
0.140000
  1
ESC. 1:50
  7
TQS_CALIBRI
  0
TEXT
  8
2
  6
CONTINUOUS
 10
4.567340
 20
32.527410
 40
0.280000
  1
SEÇÃO 12
  7
TQS_CALIBRI
  0
TEXT
  8
2
  6
CONTINUOUS
 10
4.567340
 20
32.247410
 40
0.140000
  1
ESC. 1:50
  7
TQS_CALIBRI
  0
TEXT
  8
2
  6
CONTINUOUS
 10
7.325340
 20
41.937410
 40
0.200000
 50
90.000000
  1
47
  7
TQS_CALIBRI
  0
TEXT
  8
2
  6
CONTINUOUS
 10
9.361885
 20
41.726228
 40
0.200000
 50
90.000000
  1
45.9
  7
TQS_CALIBRI
  0
TEXT
  8
2
  6
CONTINUOUS
 10
11.398431
 20
40.780743
 40
0.200000
 50
90.000000
  1
38.5
  7
TQS_CALIBRI
  0
TEXT
  8
2
  6
CONTINUOUS
 10
13.434976
 20
40.780743
 40
0.200000
 50
90.000000
  1
27.2
  7
TQS_CALIBRI
  0
TEXT
  8
2
  6
CONTINUOUS
 10
15.471522
 20
40.780743
 40
0.200000
 50
90.000000
  1
15.6
  7
TQS_CALIBRI
  0
TEXT
  8
2
  6
CONTINUOUS
 10
17.508067
 20
40.980743
 40
0.200000
 50
90.000000
  1
7.1
  7
TQS_CALIBRI
  0
TEXT
  8
2
  6
CONTINUOUS
 10
19.544613
 20
41.380743
 40
0.200000
 50
90.000000
  1
5
  7
TQS_CALIBRI
  0
TEXT
  8
2
  6
CONTINUOUS
 10
21.581158
 20
41.380743
 40
0.200000
 50
90.000000
  1
5
  7
TQS_CALIBRI
  0
TEXT
  8
2
  6
CONTINUOUS
 10
23.617704
 20
41.380743
 40
0.200000
 50
90.000000
  1
5
  7
TQS_CALIBRI
  0
TEXT
  8
2
  6
CONTINUOUS
 10
25.654249
 20
40.780743
 40
0.200000
 50
90.000000
  1
15.3
  7
TQS_CALIBRI
  0
TEXT
  8
2
  6
CONTINUOUS
 10
27.690795
 20
41.681771
 40
0.200000
 50
90.000000
  1
41.4
  7
TQS_CALIBRI
  0
TEXT
  8
2
  6
CONTINUOUS
 10
29.727340
 20
41.937410
 40
0.200000
 50
90.000000
  1
47
  7
TQS_CALIBRI
  0
TEXT
  8
2
  6
CONTINUOUS
 10
7.325340
 20
47.897410
 40
0.200000
 50
90.000000
  1
33
  7
TQS_CALIBRI
  0
TEXT
  8
2
  6
CONTINUOUS
 10
9.361885
 20
46.880743
 40
0.200000
 50
90.000000
  1
32.3
  7
TQS_CALIBRI
  0
TEXT
  8
2
  6
CONTINUOUS
 10
11.398431
 20
46.880743
 40
0.200000
 50
90.000000
  1
27.3
  7
TQS_CALIBRI
  0
TEXT
  8
2
  6
CONTINUOUS
 10
13.434976
 20
46.880743
 40
0.200000
 50
90.000000
  1
19.8
  7
TQS_CALIBRI
  0
TEXT
  8
2
  6
CONTINUOUS
 10
15.471522
 20
46.880743
 40
0.200000
 50
90.000000
  1
12.1
  7
TQS_CALIBRI
  0
TEXT
  8
2
  6
CONTINUOUS
 10
17.508067
 20
47.080743
 40
0.200000
 50
90.000000
  1
6.4
  7
TQS_CALIBRI
  0
TEXT
  8
2
  6
CONTINUOUS
 10
19.544613
 20
47.480743
 40
0.200000
 50
90.000000
  1
5
  7
TQS_CALIBRI
  0
TEXT
  8
2
  6
CONTINUOUS
 10
21.581158
 20
47.480743
 40
0.200000
 50
90.000000
  1
5
  7
TQS_CALIBRI
  0
TEXT
  8
2
  6
CONTINUOUS
 10
23.617704
 20
47.480743
 40
0.200000
 50
90.000000
  1
5
  7
TQS_CALIBRI
  0
TEXT
  8
2
  6
CONTINUOUS
 10
25.654249
 20
46.880743
 40
0.200000
 50
90.000000
  1
11.9
  7
TQS_CALIBRI
  0
TEXT
  8
2
  6
CONTINUOUS
 10
27.690795
 20
46.880743
 40
0.200000
 50
90.000000
  1
29.3
  7
TQS_CALIBRI
  0
TEXT
  8
2
  6
CONTINUOUS
 10
29.727340
 20
47.897410
 40
0.200000
 50
90.000000
  1
33
  7
TQS_CALIBRI
  0
TEXT
  8
2
  6
CONTINUOUS
 10
8.925340
 20
35.897410
 40
0.200000
 50
90.000000
  1
33
  7
TQS_CALIBRI
  0
TEXT
  8
2
  6
CONTINUOUS
 10
9.325340
 20
36.037410
 40
0.200000
 50
90.000000
  1
47
  7
TQS_CALIBRI
  0
TEXT
  8
2
  6
CONTINUOUS
 10
6.805340
 20
35.007410
 40
0.200000
  1
40
  7
TQS_CALIBRI
  0
TEXT
  8
2
  6
CONTINUOUS
 10
7.605340
 20
35.007410
 40
0.200000
  1
40
  7
TQS_CALIBRI
  0
TEXT
  8
2
  6
CONTINUOUS
 10
15.525340
 20
34.880743
 40
0.200000
 50
90.000000
  1
32.3
  7
TQS_CALIBRI
  0
TEXT
  8
2
  6
CONTINUOUS
 10
15.925340
 20
35.826410
 40
0.200000
 50
90.000000
  1
45.9
  7
TQS_CALIBRI
  0
TEXT
  8
2
  6
CONTINUOUS
 10
13.405340
 20
35.007410
 40
0.200000
  1
40
  7
TQS_CALIBRI
  0
TEXT
  8
2
  6
CONTINUOUS
 10
14.205340
 20
35.007410
 40
0.200000
  1
40
  7
TQS_CALIBRI
  0
TEXT
  8
2
  6
CONTINUOUS
 10
22.125340
 20
34.880743
 40
0.200000
 50
90.000000
  1
27.3
  7
TQS_CALIBRI
  0
TEXT
  8
2
  6
CONTINUOUS
 10
22.525340
 20
34.880743
 40
0.200000
 50
90.000000
  1
38.5
  7
TQS_CALIBRI
  0
TEXT
  8
2
  6
CONTINUOUS
 10
20.005340
 20
35.007410
 40
0.200000
  1
40
  7
TQS_CALIBRI
  0
TEXT
  8
2
  6
CONTINUOUS
 10
20.805340
 20
35.007410
 40
0.200000
  1
40
  7
TQS_CALIBRI
  0
TEXT
  8
2
  6
CONTINUOUS
 10
28.725340
 20
34.880743
 40
0.200000
 50
90.000000
  1
19.8
  7
TQS_CALIBRI
  0
TEXT
  8
2
  6
CONTINUOUS
 10
29.125340
 20
34.880743
 40
0.200000
 50
90.000000
  1
27.2
  7
TQS_CALIBRI
  0
TEXT
  8
2
  6
CONTINUOUS
 10
26.605340
 20
35.007410
 40
0.200000
  1
40
  7
TQS_CALIBRI
  0
TEXT
  8
2
  6
CONTINUOUS
 10
27.405340
 20
35.007410
 40
0.200000
  1
40
  7
TQS_CALIBRI
  0
TEXT
  8
2
  6
CONTINUOUS
 10
35.325340
 20
34.880743
 40
0.200000
 50
90.000000
  1
12.1
  7
TQS_CALIBRI
  0
TEXT
  8
2
  6
CONTINUOUS
 10
35.725340
 20
34.880743
 40
0.200000
 50
90.000000
  1
15.6
  7
TQS_CALIBRI
  0
TEXT
  8
2
  6
CONTINUOUS
 10
33.205340
 20
35.007410
 40
0.200000
  1
40
  7
TQS_CALIBRI
  0
TEXT
  8
2
  6
CONTINUOUS
 10
34.005340
 20
35.007410
 40
0.200000
  1
40
  7
TQS_CALIBRI
  0
TEXT
  8
2
  6
CONTINUOUS
 10
41.925340
 20
35.080743
 40
0.200000
 50
90.000000
  1
6.4
  7
TQS_CALIBRI
  0
TEXT
  8
2
  6
CONTINUOUS
 10
42.325340
 20
35.080743
 40
0.200000
 50
90.000000
  1
7.1
  7
TQS_CALIBRI
  0
TEXT
  8
2
  6
CONTINUOUS
 10
39.805340
 20
35.007410
 40
0.200000
  1
40
  7
TQS_CALIBRI
  0
TEXT
  8
2
  6
CONTINUOUS
 10
40.605340
 20
35.007410
 40
0.200000
  1
40
  7
TQS_CALIBRI
  0
TEXT
  8
2
  6
CONTINUOUS
 10
48.525340
 20
35.480743
 40
0.200000
 50
90.000000
  1
5
  7
TQS_CALIBRI
  0
TEXT
  8
2
  6
CONTINUOUS
 10
46.405340
 20
35.007410
 40
0.200000
  1
40
  7
TQS_CALIBRI
  0
TEXT
  8
2
  6
CONTINUOUS
 10
47.205340
 20
35.007410
 40
0.200000
  1
40
  7
TQS_CALIBRI
  0
TEXT
  8
2
  6
CONTINUOUS
 10
55.125340
 20
35.480743
 40
0.200000
 50
90.000000
  1
5
  7
TQS_CALIBRI
  0
TEXT
  8
2
  6
CONTINUOUS
 10
53.005340
 20
35.007410
 40
0.200000
  1
40
  7
TQS_CALIBRI
  0
TEXT
  8
2
  6
CONTINUOUS
 10
53.805340
 20
35.007410
 40
0.200000
  1
40
  7
TQS_CALIBRI
  0
TEXT
  8
2
  6
CONTINUOUS
 10
61.725340
 20
35.480743
 40
0.200000
 50
90.000000
  1
5
  7
TQS_CALIBRI
  0
TEXT
  8
2
  6
CONTINUOUS
 10
59.605340
 20
35.007410
 40
0.200000
  1
40
  7
TQS_CALIBRI
  0
TEXT
  8
2
  6
CONTINUOUS
 10
60.405340
 20
35.007410
 40
0.200000
  1
40
  7
TQS_CALIBRI
  0
TEXT
  8
2
  6
CONTINUOUS
 10
68.325340
 20
34.880743
 40
0.200000
 50
90.000000
  1
11.9
  7
TQS_CALIBRI
  0
TEXT
  8
2
  6
CONTINUOUS
 10
68.725340
 20
34.880743
 40
0.200000
 50
90.000000
  1
15.3
  7
TQS_CALIBRI
  0
TEXT
  8
2
  6
CONTINUOUS
 10
66.205340
 20
35.007410
 40
0.200000
  1
40
  7
TQS_CALIBRI
  0
TEXT
  8
2
  6
CONTINUOUS
 10
67.005340
 20
35.007410
 40
0.200000
  1
40
  7
TQS_CALIBRI
  0
TEXT
  8
2
  6
CONTINUOUS
 10
74.925340
 20
34.880743
 40
0.200000
 50
90.000000
  1
29.3
  7
TQS_CALIBRI
  0
TEXT
  8
2
  6
CONTINUOUS
 10
75.325340
 20
35.781410
 40
0.200000
 50
90.000000
  1
41.4
  7
TQS_CALIBRI
  0
TEXT
  8
2
  6
CONTINUOUS
 10
72.805340
 20
35.007410
 40
0.200000
  1
40
  7
TQS_CALIBRI
  0
TEXT
  8
2
  6
CONTINUOUS
 10
73.605340
 20
35.007410
 40
0.200000
  1
40
  7
TQS_CALIBRI
  0
TEXT
  8
2
  6
CONTINUOUS
 10
8.925340
 20
30.297410
 40
0.200000
 50
90.000000
  1
33
  7
TQS_CALIBRI
  0
TEXT
  8
2
  6
CONTINUOUS
 10
9.325340
 20
30.437410
 40
0.200000
 50
90.000000
  1
47
  7
TQS_CALIBRI
  0
TEXT
  8
2
  6
CONTINUOUS
 10
6.805340
 20
29.407410
 40
0.200000
  1
40
  7
TQS_CALIBRI
  0
TEXT
  8
2
  6
CONTINUOUS
 10
7.605340
 20
29.407410
 40
0.200000
  1
40
  7
TQS_CALIBRI
  0
TEXT
  8
1
  6
CONTINUOUS
 10
101.932386
 20
23.396411
 40
0.350000
  1
NOTAS:
  7
TQS_CALIBRI
  0
TEXT
  8
2
  6
CONTINUOUS
 10
101.965840
 20
22.812661
 40
0.240000
  1
1) CONFERIR INFORMAÇÕES DA TABELA ACIMA (TABELA DE FERRERAGEM) NA OBRA
  7
TQS_CALIBRI
  0
TEXT
  8
2
  6
CONTINUOUS
 10
101.965840
 20
22.343353
 40
0.240000
  1
ANTES DA COMPRA DAS ARMADURAS.
  7
TQS_CALIBRI
  0
TEXT
  8
2
  6
CONTINUOUS
 10
114.389469
 20
82.158750
 40
0.250000
  1
COMPRIMENTO
  7
TQS_CALIBRI
  0
TEXT
  8
2
  6
CONTINUOUS
 10
115.959307
 20
81.721250
 40
0.250000
  1
TOTAL
  7
TQS_CALIBRI
  0
TEXT
  8
2
  6
CONTINUOUS
 10
114.486854
 20
81.721250
 40
0.250000
  1
UNIT
  7
TQS_CALIBRI
  0
TEXT
  8
2
  6
CONTINUOUS
 10
109.830000
 20
82.158750
 40
0.250000
  1
POS
  7
TQS_CALIBRI
  0
TEXT
  8
2
  6
CONTINUOUS
 10
111.440000
 20
82.158750
 40
0.250000
  1
BIT
  7
TQS_CALIBRI
  0
TEXT
  8
2
  6
CONTINUOUS
 10
112.736489
 20
82.158750
 40
0.250000
  1
QUANT
  7
TQS_CALIBRI
  0
TEXT
  8
2
  6
CONTINUOUS
 10
107.949580
 20
82.158750
 40
0.250000
  1
AÇO
  7
TQS_CALIBRI
  0
TEXT
  8
2
  6
CONTINUOUS
 10
111.440000
 20
81.283750
 40
0.200000
  1
mm
  7
TQS_CALIBRI
  0
TEXT
  8
2
  6
CONTINUOUS
 10
114.486854
 20
81.283750
 40
0.200000
  1
cm
  7
TQS_CALIBRI
  0
TEXT
  8
2
  6
CONTINUOUS
 10
116.096854
 20
81.283750
 40
0.200000
  1
cm
  7
TQS_CALIBRI
  0
TEXT
  8
2
  6
CONTINUOUS
 10
106.595798
 20
80.846250
 40
0.250000
  1
VP13 (com protensão)
  7
TQS_CALIBRI
  0
TEXT
  8
2
  6
CONTINUOUS
 10
107.789661
 20
80.477500
 40
0.200000
  1
     50A
  7
TQS_CALIBRI
  0
TEXT
  8
2
  6
CONTINUOUS
 10
110.030000
 20
80.477500
 40
0.200000
  1
  1
  7
TQS_CALIBRI
  0
TEXT
  8
2
  6
CONTINUOUS
 10
111.036543
 20
80.483544
 40
0.200000
  1
     20
  7
TQS_CALIBRI
  0
TEXT
  8
2
  6
CONTINUOUS
 10
112.820000
 20
80.477500
 40
0.200000
  1
    5
  7
TQS_CALIBRI
  0
TEXT
  8
2
  6
CONTINUOUS
 10
114.030000
 20
80.477500
 40
0.200000
  1
   1080
  7
TQS_CALIBRI
  0
TEXT
  8
2
  6
CONTINUOUS
 10
115.863622
 20
80.477500
 40
0.200000
  1
   5400
  7
TQS_CALIBRI
  0
TEXT
  8
2
  6
CONTINUOUS
 10
107.789661
 20
80.127500
 40
0.200000
  1
     50A
  7
TQS_CALIBRI
  0
TEXT
  8
2
  6
CONTINUOUS
 10
110.030000
 20
80.127500
 40
0.200000
  1
  2
  7
TQS_CALIBRI
  0
TEXT
  8
2
  6
CONTINUOUS
 10
111.036543
 20
80.133544
 40
0.200000
  1
     20
  7
TQS_CALIBRI
  0
TEXT
  8
2
  6
CONTINUOUS
 10
112.820000
 20
80.127500
 40
0.200000
  1
    2
  7
TQS_CALIBRI
  0
TEXT
  8
2
  6
CONTINUOUS
 10
114.030000
 20
80.127500
 40
0.200000
  1
    675
  7
TQS_CALIBRI
  0
TEXT
  8
2
  6
CONTINUOUS
 10
115.863622
 20
80.127500
 40
0.200000
  1
   1350
  7
TQS_CALIBRI
  0
TEXT
  8
2
  6
CONTINUOUS
 10
107.789661
 20
79.777500
 40
0.200000
  1
     50A
  7
TQS_CALIBRI
  0
TEXT
  8
2
  6
CONTINUOUS
 10
110.030000
 20
79.777500
 40
0.200000
  1
  3
  7
TQS_CALIBRI
  0
TEXT
  8
2
  6
CONTINUOUS
 10
111.036543
 20
79.783544
 40
0.200000
  1
     20
  7
TQS_CALIBRI
  0
TEXT
  8
2
  6
CONTINUOUS
 10
112.820000
 20
79.777500
 40
0.200000
  1
    7
  7
TQS_CALIBRI
  0
TEXT
  8
2
  6
CONTINUOUS
 10
114.030000
 20
79.777500
 40
0.200000
  1
    295
  7
TQS_CALIBRI
  0
TEXT
  8
2
  6
CONTINUOUS
 10
115.863622
 20
79.777500
 40
0.200000
  1
   2065
  7
TQS_CALIBRI
  0
TEXT
  8
2
  6
CONTINUOUS
 10
107.789661
 20
79.427500
 40
0.200000
  1
     50A
  7
TQS_CALIBRI
  0
TEXT
  8
2
  6
CONTINUOUS
 10
110.030000
 20
79.427500
 40
0.200000
  1
  4
  7
TQS_CALIBRI
  0
TEXT
  8
2
  6
CONTINUOUS
 10
111.036543
 20
79.433544
 40
0.200000
  1
     20
  7
TQS_CALIBRI
  0
TEXT
  8
2
  6
CONTINUOUS
 10
112.820000
 20
79.427500
 40
0.200000
  1
    4
  7
TQS_CALIBRI
  0
TEXT
  8
2
  6
CONTINUOUS
 10
114.030000
 20
79.427500
 40
0.200000
  1
   1105
  7
TQS_CALIBRI
  0
TEXT
  8
2
  6
CONTINUOUS
 10
115.863622
 20
79.427500
 40
0.200000
  1
   4420
  7
TQS_CALIBRI
  0
TEXT
  8
2
  6
CONTINUOUS
 10
107.789661
 20
79.077500
 40
0.200000
  1
     50A
  7
TQS_CALIBRI
  0
TEXT
  8
2
  6
CONTINUOUS
 10
110.030000
 20
79.077500
 40
0.200000
  1
  5
  7
TQS_CALIBRI
  0
TEXT
  8
2
  6
CONTINUOUS
 10
111.036543
 20
79.083544
 40
0.200000
  1
     20
  7
TQS_CALIBRI
  0
TEXT
  8
2
  6
CONTINUOUS
 10
112.820000
 20
79.077500
 40
0.200000
  1
    2
  7
TQS_CALIBRI
  0
TEXT
  8
2
  6
CONTINUOUS
 10
114.030000
 20
79.077500
 40
0.200000
  1
    895
  7
TQS_CALIBRI
  0
TEXT
  8
2
  6
CONTINUOUS
 10
115.863622
 20
79.077500
 40
0.200000
  1
   1790
  7
TQS_CALIBRI
  0
TEXT
  8
2
  6
CONTINUOUS
 10
107.789661
 20
78.727500
 40
0.200000
  1
     50A
  7
TQS_CALIBRI
  0
TEXT
  8
2
  6
CONTINUOUS
 10
110.030000
 20
78.727500
 40
0.200000
  1
  6
  7
TQS_CALIBRI
  0
TEXT
  8
2
  6
CONTINUOUS
 10
111.036543
 20
78.733544
 40
0.200000
  1
      8
  7
TQS_CALIBRI
  0
TEXT
  8
2
  6
CONTINUOUS
 10
112.820000
 20
78.727500
 40
0.200000
  1
  112
  7
TQS_CALIBRI
  0
TEXT
  8
2
  6
CONTINUOUS
 10
114.030000
 20
78.727500
 40
0.200000
  1
    262
  7
TQS_CALIBRI
  0
TEXT
  8
2
  6
CONTINUOUS
 10
115.863622
 20
78.727500
 40
0.200000
  1
  29344
  7
TQS_CALIBRI
  0
TEXT
  8
2
  6
CONTINUOUS
 10
107.789661
 20
78.377500
 40
0.200000
  1
     50A
  7
TQS_CALIBRI
  0
TEXT
  8
2
  6
CONTINUOUS
 10
110.030000
 20
78.377500
 40
0.200000
  1
  7
  7
TQS_CALIBRI
  0
TEXT
  8
2
  6
CONTINUOUS
 10
111.036543
 20
78.383544
 40
0.200000
  1
      8
  7
TQS_CALIBRI
  0
TEXT
  8
2
  6
CONTINUOUS
 10
112.820000
 20
78.377500
 40
0.200000
  1
   16
  7
TQS_CALIBRI
  0
TEXT
  8
2
  6
CONTINUOUS
 10
114.030000
 20
78.377500
 40
0.200000
  1
   1018
  7
TQS_CALIBRI
  0
TEXT
  8
2
  6
CONTINUOUS
 10
115.863622
 20
78.377500
 40
0.200000
  1
  16288
  7
TQS_CALIBRI
  0
TEXT
  8
2
  6
CONTINUOUS
 10
106.595798
 20
77.958751
 40
0.250000
  1
Cabo C1
  7
TQS_CALIBRI
  0
TEXT
  8
2
  6
CONTINUOUS
 10
111.808841
 20
76.087352
 40
0.250000
  1
COMPR
  7
TQS_CALIBRI
  0
TEXT
  8
2
  6
CONTINUOUS
 10
115.437840
 20
76.087352
 40
0.250000
  1
PESO
  7
TQS_CALIBRI
  0
TEXT
  8
2
  6
CONTINUOUS
 10
109.830000
 20
76.083751
 40
0.250000
  1
BIT
  7
TQS_CALIBRI
  0
TEXT
  8
2
  6
CONTINUOUS
 10
107.719580
 20
76.083751
 40
0.250000
  1
AÇO
  7
TQS_CALIBRI
  0
TEXT
  8
2
  6
CONTINUOUS
 10
109.680497
 20
76.521251
 40
0.250000
  1
RESUMO DE AÇO
  7
TQS_CALIBRI
  0
TEXT
  8
2
  6
CONTINUOUS
 10
110.150798
 20
75.609649
 40
0.200000
  1
mm
  7
TQS_CALIBRI
  0
TEXT
  8
2
  6
CONTINUOUS
 10
112.522841
 20
75.656251
 40
0.200000
  1
m
  7
TQS_CALIBRI
  0
TEXT
  8
2
  6
CONTINUOUS
 10
115.900630
 20
75.656251
 40
0.200000
  1
kgf
  7
TQS_CALIBRI
  0
TEXT
  8
2
  6
CONTINUOUS
 10
111.567658
 20
75.277501
 40
0.200000
  1
    456
  7
TQS_CALIBRI
  0
TEXT
  8
2
  6
CONTINUOUS
 10
115.415265
 20
75.277501
 40
0.200000
  1
     180
  7
TQS_CALIBRI
  0
TEXT
  8
2
  6
CONTINUOUS
 10
109.326542
 20
75.283544
 40
0.200000
  1
      8
  7
TQS_CALIBRI
  0
TEXT
  8
2
  6
CONTINUOUS
 10
107.159661
 20
75.277500
 40
0.200000
  1
     50A
  7
TQS_CALIBRI
  0
TEXT
  8
2
  6
CONTINUOUS
 10
111.567658
 20
74.927501
 40
0.200000
  1
    150
  7
TQS_CALIBRI
  0
TEXT
  8
2
  6
CONTINUOUS
 10
115.415265
 20
74.927501
 40
0.200000
  1
     371
  7
TQS_CALIBRI
  0
TEXT
  8
2
  6
CONTINUOUS
 10
109.326542
 20
74.933544
 40
0.200000
  1
     20
  7
TQS_CALIBRI
  0
TEXT
  8
2
  6
CONTINUOUS
 10
107.159661
 20
74.927500
 40
0.200000
  1
     50A
  7
TQS_CALIBRI
  0
TEXT
  8
2
  6
CONTINUOUS
 10
106.792829
 20
74.508750
 40
0.250000
  1
Peso Total        50A =
  7
TQS_CALIBRI
  0
TEXT
  8
2
  6
CONTINUOUS
 10
114.157004
 20
74.508750
 40
0.250000
  1
     551 kgf
  7
TQS_CALIBRI
  0
TEXT
  8
1
  6
CONTINUOUS
 10
102.073109
 20
8.835799
 40
0.455000
  1
ENGENHARIA
  7
TQS_CALIBRI
  0
TEXT
  8
1
  6
CONTINUOUS
 10
101.876737
 20
16.222571
 40
0.250000
  1
REV
  7
TQS_CALIBRI
  0
TEXT
  8
1
  6
CONTINUOUS
 10
103.356169
 20
16.222571
 40
0.250000
  1
DATA
  7
TQS_CALIBRI
  0
TEXT
  8
1
  6
CONTINUOUS
 10
105.030516
 20
16.222571
 40
0.250000
  1
ASSUNTO
  7
TQS_CALIBRI
  0
TEXT
  8
1
  6
CONTINUOUS
 10
101.832253
 20
14.047181
 40
0.250000
  1
PROPRIETÁRIO - 
  7
TQS_CALIBRI
  0
TEXT
  8
1
  6
CONTINUOUS
 10
108.042444
 20
2.579059
 40
0.250000
  1
ENGENHEIRO:
  7
TQS_CALIBRI
  0
TEXT
  8
1
  6
CONTINUOUS
 10
108.046365
 20
2.149652
 40
0.250000
  1
CREA REG.:
  7
TQS_CALIBRI
  0
TEXT
  8
1
  6
CONTINUOUS
 10
110.430567
 20
2.160333
 40
0.250000
  1
020930945-8
  7
TQS_CALIBRI
  0
TEXT
  8
1
  6
CONTINUOUS
 10
103.739739
 20
9.759850
 40
1.000000
  1
VGF
  7
TQS_CALIBRI
  0
TEXT
  8
1
  6
CONTINUOUS
 10
101.832253
 20
12.147181
 40
0.250000
  1
PROJETO              Eng. Civil - CREA:020930945-8
  7
TQS_CALIBRI
  0
TEXT
  8
1
  6
CONTINUOUS
 10
101.800510
 20
2.752624
 40
0.150000
  1
DATA:
  7
TQS_CALIBRI
  0
TEXT
  8
1
  6
CONTINUOUS
 10
101.788178
 20
1.752624
 40
0.150000
  1
FASE:
  7
TQS_CALIBRI
  0
TEXT
  8
1
  6
CONTINUOUS
 10
105.124829
 20
2.752624
 40
0.150000
  1
ESCALA:
  7
TQS_CALIBRI
  0
TEXT
  8
1
  6
CONTINUOUS
 10
105.112497
 20
1.752624
 40
0.150000
  1
PLANTA:
  7
TQS_CALIBRI
  0
TEXT
  8
1
  6
CONTINUOUS
 10
101.800510
 20
6.352624
 40
0.150000
  1
TÍTULO:
  7
TQS_CALIBRI
  0
TEXT
  8
1
  6
CONTINUOUS
 10
101.787482
 20
5.577767
 40
0.150000
  1
ELEMENTOS DA PRANCHA:
  7
TQS_CALIBRI
  0
TEXT
  8
1
  6
CONTINUOUS
 10
101.800510
 20
8.252624
 40
0.150000
  1
EMPREENDIMENTO/LOCAL:
  7
TQS_CALIBRI
  0
TEXT
  8
1
  6
CONTINUOUS
 10
106.761120
 20
11.025301
 40
0.150000
  1
CONTATOS:
  7
TQS_CALIBRI
  0
TEXT
  8
1
  6
CONTINUOUS
 10
114.224829
 20
2.752624
 40
0.150000
  1
PLANTA-REVISÃO:
  7
TQS_CALIBRI
  0
TEXT
  8
1
  6
CONTINUOUS
 10
102.041441
 20
16.843956
 40
0.200000
  1
00
  7
TQS_CALIBRI
  0
TEXT
  8
1
  6
CONTINUOUS
 10
102.041441
 20
17.343956
 40
0.200000
  1
01
  7
TQS_CALIBRI
  0
TEXT
  8
1
  6
CONTINUOUS
 10
102.041441
 20
17.843956
 40
0.200000
  1
02
  7
TQS_CALIBRI
  0
TEXT
  8
1
  6
CONTINUOUS
 10
102.041441
 20
18.343956
 40
0.200000
  1
03
  7
TQS_CALIBRI
  0
TEXT
  8
1
  6
CONTINUOUS
 10
102.041441
 20
18.843956
 40
0.200000
  1
04
  7
TQS_CALIBRI
  0
TEXT
  8
1
  6
CONTINUOUS
 10
102.041441
 20
19.343956
 40
0.200000
  1
05
  7
TQS_CALIBRI
  0
TEXT
  8
1
  6
CONTINUOUS
 10
102.041441
 20
19.843956
 40
0.200000
  1
06
  7
TQS_CALIBRI
  0
TEXT
  8
1
  6
CONTINUOUS
 10
102.041441
 20
20.343956
 40
0.200000
  1
07
  7
TQS_CALIBRI
  0
TEXT
  8
1
  6
CONTINUOUS
 10
102.041441
 20
20.843956
 40
0.200000
  1
08
  7
TQS_CALIBRI
  0
TEXT
  8
1
  6
CONTINUOUS
 10
102.041441
 20
21.343956
 40
0.200000
  1
09
  7
TQS_CALIBRI
  0
TEXT
  8
1
  6
CONTINUOUS
 10
102.041441
 20
21.843956
 40
0.200000
  1
10
  7
TQS_CALIBRI
  0
TEXT
  8
1
  6
CONTINUOUS
 10
116.437973
 20
16.222571
 40
0.250000
  1
AUTOR
  7
TQS_CALIBRI
  0
TEXT
  8
1
  6
CONTINUOUS
 10
106.749019
 20
10.335784
 40
0.195000
  1
Tel: 99928-2128
  7
TQS_CALIBRI
  0
TEXT
  8
1
  6
CONTINUOUS
 10
106.749019
 20
10.012284
 40
0.195000
  1
franciscogonca@hotmail.com 
  7
TQS_CALIBRI
  0
TEXT
  8
1
  6
CONTINUOUS
 10
106.749019
 20
9.680784
 40
0.195000
  1
Tel: 99981-6458
  7
TQS_CALIBRI
  0
TEXT
  8
1
  6
CONTINUOUS
 10
106.749019
 20
9.357284
 40
0.195000
  1
tiago@vgfengenharia.com.br 
  7
TQS_CALIBRI
  0
TEXT
  8
1
  6
CONTINUOUS
 10
106.749019
 20
9.025784
 40
0.195000
  1
Tel: 99912-8379
  7
TQS_CALIBRI
  0
TEXT
  8
1
  6
CONTINUOUS
 10
110.809443
 20
11.052624
 40
0.150000
  1
CLIENTE:
  7
TQS_CALIBRI
  0
TEXT
  8
1
  6
CONTINUOUS
 10
116.009770
 20
1.647683
 40
0.500000
  1
-R
  7
TQS_CALIBRI
  0
TEXT
  8
1
  6
CONTINUOUS
 10
101.832253
 20
12.547181
 40
0.250000
  1
RESPONSÁVEL -  Diego de Vasconcelos Gonçalves Ferreira
  7
TQS_CALIBRI
  0
TEXT
  8
1
  6
CONTINUOUS
 10
110.422141
 20
2.578345
 40
0.250000
  1
Diego Vasconcelos
  7
TQS_CALIBRI
  0
TEXT
  8
1
  6
CONTINUOUS
 10
106.749019
 20
10.667284
 40
0.195000
  1
diego@vgfengenharia.com.br 
  7
TQS_CALIBRI
  0
TEXT
  8
1
  6
CONTINUOUS
 10
104.982892
 20
16.853163
 40
0.200000
  1
Emissão inicial.
  7
TQS_CALIBRI
  0
TEXT
  8
1
  6
CONTINUOUS
 10
101.795719
 20
7.825700
 40
0.250000
  1
Assembléia Legislativa de Alagoas
  7
TQS_CALIBRI
  0
TEXT
  8
1
  6
CONTINUOUS
 10
104.517953
 20
14.045361
 40
0.250000
  1
ALA
  7
TQS_CALIBRI
  0
TEXT
  8
1
  6
CONTINUOUS
 10
101.789281
 20
2.263237
 40
0.250000
  1
21/02/2024
  7
TQS_CALIBRI
  0
TEXT
  8
1
  6
CONTINUOUS
 10
101.760893
 20
5.200495
 40
0.250000
  1
ESC. 1:50 / VP13 (com protensão)
  7
TQS_CALIBRI
  0
TEXT
  8
1
  6
CONTINUOUS
 10
102.992347
 20
16.854551
 40
0.200000
  1
21/02/24
  7
TQS_CALIBRI
  0
TEXT
  8
1
  6
CONTINUOUS
 10
101.787954
 20
7.415393
 40
0.200000
  1
RUA SÁ E ALBUQUERQUE, NÚMERO 807, JARAGUÁ - MACEIÓ-AL
  7
TQS_CALIBRI
  0
TEXT
  8
1
  6
CONTINUOUS
 10
105.113600
 20
2.263237
 40
0.250000
  1
1:50
  7
TQS_CALIBRI
  0
TEXT
  8
1
  6
CONTINUOUS
 10
105.114178
 20
1.251887
 40
0.250000
  1
CLA-EEM-EST-PE-0514-ARM-R00
  7
TQS_CALIBRI
  0
TEXT
  8
1
  6
CONTINUOUS
 10
116.547332
 20
16.842370
 40
0.200000
  1
DIEGO
  7
TQS_CALIBRI
  0
TEXT
  8
1
  6
CONTINUOUS
 10
114.396264
 20
1.644018
 40
0.500000
  1
0514
  7
TQS_CALIBRI
  0
TEXT
  8
1
  6
CONTINUOUS
 10
116.689770
 20
1.647683
 40
0.500000
  1
00
  7
TQS_CALIBRI
  0
TEXT
  8
1
  6
CONTINUOUS
 10
110.802729
 20
10.513659
 40
0.400000
  1
ALA
  7
TQS_CALIBRI
  0
TEXT
  8
1
  6
CONTINUOUS
 10
101.762319
 20
5.951739
 40
0.250000
  1
ARM. DAS VIGAS (04-3Pavto) - 14 - I
  7
TQS_CALIBRI
  0
ENDSEC
  0
EOF
