  0
SECTION
  2
HEADER
  9
$ACADVER
  1
AC1002
  9
$USERI1
 70
0
  9
$INSBASE
 10
0.000000
 20
0.000000
  9
$EXTMIN
 10
0.000000
 20
0.000000
  9
$EXTMAX
 10
7.761771
 20
4.436620
  9
$LIMMIN
 10
0.000000
 20
0.000000
  9
$LIMMAX
 10
12.000000
 20
9.000000
  9
$VIEWCTR
 10
78.887138
 20
59.361758
  9
$VIEWSIZE
 40
127.522840
  9
$TEXTSIZE
 40
0.100000
  9
$TRACEWID
 40
0.010000
  9
$LTSCALE
 40
1.000000
  0
ENDSEC
  0
SECTION
  2
TABLES
  0
TABLE
  2
LTYPE
 70
     3
  0
LTYPE
  2
CONTINUOUS
 70
    64
  3
Solid line
 72
    65
 73
     0
 40
0.000000
  0
LTYPE
  2
ESTILO_TQS_0001
 70
    64
  3
-  -  -  -  -  -
 72
    65
 73
     2
 40
1.000000
 49
0.700000
 49
-0.300000
  0
LTYPE
  2
ESTILO_TQS_0002
 70
    64
  3
. . . . . . . .
 72
    65
 73
     2
 40
0.400000
 49
0.100000
 49
-0.300000
  0
LTYPE
  2
ESTILO_TQS_0003
 70
    64
  3
- . - . - . - .
 72
    65
 73
     4
 40
0.910000
 49
0.500000
 49
-0.200000
 49
0.010000
 49
-0.200000
  0
LTYPE
  2
ESTILO_TQS_0004
 70
    64
  3
- .. - .. - ..
 72
    65
 73
     6
 40
1.120000
 49
0.500000
 49
-0.200000
 49
0.010000
 49
-0.200000
 49
0.010000
 49
-0.200000
  0
LTYPE
  2
CONTINUOUS
 70
    64
  3
- - - - - - - -
 72
    65
 73
     2
 40
0.400000
 49
0.300000
 49
-0.100000
  0
ENDTAB
  0
TABLE
  2
LAYER
 70
    89
  0
LAYER
  2
0
 70
     0
 62
     7
  6
CONTINUOUS
  0
LAYER
  2
1
 70
     0
 62
     1
  6
CONTINUOUS
  0
LAYER
  2
2
 70
     0
 62
     2
  6
CONTINUOUS
  0
LAYER
  2
3
 70
     0
 62
     3
  6
CONTINUOUS
  0
LAYER
  2
4
 70
     0
 62
     4
  6
CONTINUOUS
  0
LAYER
  2
5
 70
     0
 62
     5
  6
CONTINUOUS
  0
LAYER
  2
6
 70
     0
 62
     6
  6
CONTINUOUS
  0
LAYER
  2
7
 70
     0
 62
     7
  6
CONTINUOUS
  0
LAYER
  2
8
 70
     0
 62
     8
  6
CONTINUOUS
  0
LAYER
  2
9
 70
     0
 62
     9
  6
CONTINUOUS
  0
LAYER
  2
10
 70
     0
 62
    10
  6
CONTINUOUS
  0
LAYER
  2
11
 70
     0
 62
    11
  6
CONTINUOUS
  0
LAYER
  2
12
 70
     0
 62
    12
  6
CONTINUOUS
  0
LAYER
  2
13
 70
     0
 62
    13
  6
CONTINUOUS
  0
LAYER
  2
14
 70
     0
 62
    14
  6
CONTINUOUS
  0
LAYER
  2
15
 70
     0
 62
    15
  6
CONTINUOUS
  0
LAYER
  2
16
 70
     0
 62
     7
  6
CONTINUOUS
  0
LAYER
  2
17
 70
     0
 62
     2
  6
CONTINUOUS
  0
LAYER
  2
18
 70
     0
 62
     4
  6
CONTINUOUS
  0
LAYER
  2
19
 70
     0
 62
     5
  6
CONTINUOUS
  0
LAYER
  2
20
 70
     0
 62
     4
  6
CONTINUOUS
  0
LAYER
  2
21
 70
     0
 62
     2
  6
CONTINUOUS
  0
LAYER
  2
22
 70
     0
 62
     1
  6
CONTINUOUS
  0
LAYER
  2
23
 70
     0
 62
     7
  6
CONTINUOUS
  0
LAYER
  2
24
 70
     0
 62
     6
  6
CONTINUOUS
  0
LAYER
  2
25
 70
     0
 62
     1
  6
CONTINUOUS
  0
LAYER
  2
26
 70
     0
 62
     3
  6
CONTINUOUS
  0
LAYER
  2
27
 70
     0
 62
     4
  6
CONTINUOUS
  0
LAYER
  2
28
 70
     0
 62
     4
  6
CONTINUOUS
  0
LAYER
  2
30
 70
     0
 62
     4
  6
CONTINUOUS
  0
LAYER
  2
100
 70
     0
 62
     1
  6
CONTINUOUS
  0
LAYER
  2
101
 70
     0
 62
     9
  6
CONTINUOUS
  0
LAYER
  2
102
 70
     0
 62
     7
  6
CONTINUOUS
  0
LAYER
  2
103
 70
     0
 62
     2
  6
CONTINUOUS
  0
LAYER
  2
104
 70
     0
 62
    11
  6
CONTINUOUS
  0
LAYER
  2
105
 70
     0
 62
     3
  6
CONTINUOUS
  0
LAYER
  2
106
 70
     0
 62
     5
  6
CONTINUOUS
  0
LAYER
  2
107
 70
     0
 62
     3
  6
CONTINUOUS
  0
LAYER
  2
108
 70
     0
 62
     5
  6
CONTINUOUS
  0
LAYER
  2
109
 70
     0
 62
     3
  6
CONTINUOUS
  0
LAYER
  2
197
 70
     0
 62
     3
  6
CONTINUOUS
  0
LAYER
  2
198
 70
     0
 62
     2
  6
CONTINUOUS
  0
LAYER
  2
199
 70
     0
 62
     6
  6
CONTINUOUS
  0
LAYER
  2
200
 70
     0
 62
     7
  6
ESTILO_TQS_0002
  0
LAYER
  2
201
 70
     0
 62
     7
  6
ESTILO_TQS_0001
  0
LAYER
  2
202
 70
     0
 62
     7
  6
CONTINUOUS
  0
LAYER
  2
203
 70
     0
 62
     7
  6
ESTILO_TQS_0001
  0
LAYER
  2
204
 70
     0
 62
     7
  6
ESTILO_TQS_0003
  0
LAYER
  2
205
 70
     0
 62
     5
  6
ESTILO_TQS_0004
  0
LAYER
  2
206
 70
     0
 62
    15
  6
CONTINUOUS
  0
LAYER
  2
207
 70
     0
 62
     2
  6
CONTINUOUS
  0
LAYER
  2
208
 70
     0
 62
     5
  6
CONTINUOUS
  0
LAYER
  2
210
 70
     0
 62
    15
  6
ESTILO_TQS_0002
  0
LAYER
  2
211
 70
     0
 62
     7
  6
ESTILO_TQS_0001
  0
LAYER
  2
214
 70
     0
 62
    15
  6
CONTINUOUS
  0
LAYER
  2
215
 70
     0
 62
     2
  6
CONTINUOUS
  0
LAYER
  2
216
 70
     0
 62
     3
  6
CONTINUOUS
  0
LAYER
  2
217
 70
     0
 62
     3
  6
CONTINUOUS
  0
LAYER
  2
218
 70
     0
 62
     2
  6
CONTINUOUS
  0
LAYER
  2
219
 70
     0
 62
    15
  6
CONTINUOUS
  0
LAYER
  2
220
 70
     0
 62
    10
  6
CONTINUOUS
  0
LAYER
  2
221
 70
     0
 62
    11
  6
CONTINUOUS
  0
LAYER
  2
222
 70
     0
 62
    12
  6
CONTINUOUS
  0
LAYER
  2
223
 70
     0
 62
     6
  6
CONTINUOUS
  0
LAYER
  2
224
 70
     0
 62
     1
  6
CONTINUOUS
  0
LAYER
  2
225
 70
     0
 62
    15
  6
CONTINUOUS
  0
LAYER
  2
226
 70
     0
 62
     2
  6
CONTINUOUS
  0
LAYER
  2
227
 70
     0
 62
    10
  6
CONTINUOUS
  0
LAYER
  2
228
 70
     0
 62
    11
  6
CONTINUOUS
  0
LAYER
  2
229
 70
     0
 62
    12
  6
CONTINUOUS
  0
LAYER
  2
230
 70
     0
 62
     6
  6
CONTINUOUS
  0
LAYER
  2
231
 70
     0
 62
     3
  6
CONTINUOUS
  0
LAYER
  2
232
 70
     0
 62
    12
  6
CONTINUOUS
  0
LAYER
  2
233
 70
     0
 62
     4
  6
CONTINUOUS
  0
LAYER
  2
234
 70
     0
 62
    13
  6
CONTINUOUS
  0
LAYER
  2
235
 70
     0
 62
     5
  6
CONTINUOUS
  0
LAYER
  2
236
 70
     0
 62
     2
  6
CONTINUOUS
  0
LAYER
  2
237
 70
     0
 62
     6
  6
CONTINUOUS
  0
LAYER
  2
238
 70
     0
 62
    12
  6
CONTINUOUS
  0
LAYER
  2
239
 70
     0
 62
    11
  6
CONTINUOUS
  0
LAYER
  2
240
 70
     0
 62
    11
  6
CONTINUOUS
  0
LAYER
  2
241
 70
     0
 62
    12
  6
CONTINUOUS
  0
ENDTAB
  0
TABLE
  2
STYLE
 70
     1
  0
STYLE
  2
STANDARD
 70
    64
 40
0.000000
 41
1.000000
 50
0.000000
 71
     0
 42
0.200000
  3
ROMANS.SHX
  4

  0
STYLE
  2
TQS_CALIBRI
 70
     0
 40
0.000000
 41
1.000000
 50
0.000000
 71
     0
 42
0.200000
  3
calibri.ttf
  0
STYLE
  2
TQS_CALIBRI_U
 70
     0
 40
0.000000
 41
1.000000
 50
0.000000
 71
     0
 42
0.200000
  3
calibri.ttf
  0
STYLE
  2
TQS_CALIBRI_I
 70
     0
 40
0.000000
 41
1.000000
 50
0.000000
 71
     0
 42
0.200000
  3
calibri.ttf
  0
STYLE
  2
TQS_CALIBRI_I_U
 70
     0
 40
0.000000
 41
1.000000
 50
0.000000
 71
     0
 42
0.200000
  3
calibri.ttf
  0
STYLE
  2
TQS_CALIBRI_B
 70
     0
 40
0.000000
 41
1.000000
 50
0.000000
 71
     0
 42
0.200000
  3
calibri.ttf
  0
STYLE
  2
TQS_CALIBRI_B_U
 70
     0
 40
0.000000
 41
1.000000
 50
0.000000
 71
     0
 42
0.200000
  3
calibri.ttf
  0
STYLE
  2
TQS_CALIBRI_B_I
 70
     0
 40
0.000000
 41
1.000000
 50
0.000000
 71
     0
 42
0.200000
  3
calibri.ttf
  0
STYLE
  2
TQS_CALIBRI_B_I_U
 70
     0
 40
0.000000
 41
1.000000
 50
0.000000
 71
     0
 42
0.200000
  3
calibri.ttf
  0
ENDTAB
  0
TABLE
  2
VIEW
 70
     0
  0
ENDTAB
  0
ENDSEC
  0
SECTION
  2
BLOCKS
  0
BLOCK
  8
0
  2
_PLWTQS
 70
    64
 10
0.000000
 20
0.000000
  0
TEXT
  8
0
  6
CONTINUOUS
 10
0.000000
 20
0.000000
 40
0.200000
  1
$PLWDWGGlBMVwAAAAAAAChABAAAABMAwISWV6Am2UD57H74XzCEKxkd74IpdiODPU+RBgUpqMNZPA561hpEvdUEiI1w2t0It+eKxhJm9A3CsG476bArybeexEK9YfVG5blx7Rg2ii4YRqOuzQ7oOMxrxTmKFFpSb4qEZBQARekVlGX9U4k=
  7
TQS_CALIBRI
  0
TEXT
  8
0
  6
CONTINUOUS
 10
0.000000
 20
-0.250000
 40
0.200000
  1
$PLWDWGaLodIDvhPOLyP1GoLL4QS29sNBASYBuxqBFXiSK+BKPMnvh71KOK2gTFiGgFeG2YS9xu2ak6afPzdObbZM8T1KQBOUFlfUClNzdslQhkOczcVc6rutMjFZGKpo41x2k/pKFIOX376DxEdLHREil2wtsAIygK0lpNfVlIDLL4oM0=
  7
TQS_CALIBRI
  0
TEXT
  8
0
  6
CONTINUOUS
 10
0.000000
 20
-0.500000
 40
0.200000
  1
$PLWDWGpJp7sMUbu4gamcQnblGIlszxil6zo7YNDZErENfZWSozoMRisVyaz3cqnpt/RsANjoeAwPbcHcpRUEH+kWZa4l1aG+Kp41+uzGDUwaUYd80jM3iMnAzYzzs3vMkm0V98CkX506aF5VS5g3FZpHWYw5+jKTyR5zAwbXbHewfStgo=
  7
TQS_CALIBRI
  0
TEXT
  8
0
  6
CONTINUOUS
 10
0.000000
 20
-0.750000
 40
0.200000
  1
$PLWDWGrdawisI2DQgHyvqrk10+OfadtLa1PKme0ink2u4CWQTuWdtC1jgupN+Kj3q1aC/+ywzup0fjZwZT8xtgsPd5K6qJno8rofr260TjWQcP3KlwFSjeJvhNc+CObrKj5nTbWz/V29gFoHYjNf70hWfu40F503ZgOiiEArLdMpAUazI=
  7
TQS_CALIBRI
  0
TEXT
  8
0
  6
CONTINUOUS
 10
0.000000
 20
-1.000000
 40
0.200000
  1
$PLWDWG7QWMdqVzPMqGLtnPkzsSFqLPB3QoA9xdJ2joZh7T+n0xKcV+BUo7uMOh2jYrzxed6ejT1/fB2e4loOG5rAnJRkOU4r8KuBvk4lvLvKvX9kAnJM3t1qdQ5yBCtCgf8rdFSSdSJYymjB65UUJpL42iogb6YoT9iI/KPgymlIoAqYg=
  7
TQS_CALIBRI
  0
TEXT
  8
0
  6
CONTINUOUS
 10
0.000000
 20
-1.250000
 40
0.200000
  1
$PLWDWGw1mZQIBjtHvUjFG8MP+obUHQZDJTagA4TW0AyVhoOVWnkDFAnZr6L/Fk7N3YvR+gaEyXJsLgeLKTQvqeRDAHbQ1mrBxu9bPJuzeuLV5a9nrsXwez4jhvVtGdhf7hbRkFSNC7ckeXUfxRVq3kanAeA11Gh5CPWXjDsNG5cdQJ69k=
  7
TQS_CALIBRI
  0
TEXT
  8
0
  6
CONTINUOUS
 10
0.000000
 20
-1.500000
 40
0.200000
  1
$PLWDWGmZEltL5c+9RmaMb+eH4fjMWmvvO+Rq030sy2SngCjkDQLGZOqVxVxnqm369eWz+0UWGIq3LTBAOhixStrkt3qvX2qM6jPD6I59xPffNPGFfFNbKlUtqO9yxZNbqhS+XX8eiHikl8beZSW1SeU+Ah1/BJw/60tb5IRfkKLb7cO24=
  7
TQS_CALIBRI
  0
TEXT
  8
0
  6
CONTINUOUS
 10
0.000000
 20
-1.750000
 40
0.200000
  1
$PLWDWG7w75jVL6sAXTKFTmJMpiArdfU/06hCvatLrCTYcIzYDAurDeg+TS5imRw+/PTU+pmsHNUkysCTcAAAAArK0ekz1bmor+2I7npsWrJJrBzVJMrAk3AAAAAA==
  7
TQS_CALIBRI
  0
ENDBLK
  8
0
  0
ENDSEC
  0
SECTION
  2
ENTITIES
  0
SOLID
  8
13
  6
CONTINUOUS
 10
102.095046
 20
10.244446
 11
102.095046
 21
9.498246
 12
101.971546
 22
9.498246
 13
101.971546
 23
9.498246
  0
SOLID
  8
13
  6
CONTINUOUS
 10
102.095046
 20
10.244446
 11
101.971546
 21
9.498246
 12
101.971546
 22
11.162246
 13
101.971546
 23
11.162246
  0
SOLID
  8
13
  6
CONTINUOUS
 10
102.095046
 20
10.244446
 11
101.971546
 21
11.162246
 12
102.095046
 22
11.162246
 13
102.095046
 23
11.162246
  0
SOLID
  8
13
  6
CONTINUOUS
 10
102.095046
 20
10.244446
 11
102.095046
 21
11.162246
 12
102.095046
 22
10.244446
 13
102.095046
 23
10.244446
  0
SOLID
  8
13
  6
CONTINUOUS
 10
102.522746
 20
10.230979
 11
102.522746
 21
9.498246
 12
102.095046
 22
9.498246
 13
102.095046
 23
9.498246
  0
SOLID
  8
13
  6
CONTINUOUS
 10
102.522746
 20
10.230979
 11
102.095046
 21
9.498246
 12
102.095046
 22
10.244446
 13
102.095046
 23
10.244446
  0
SOLID
  8
13
  6
CONTINUOUS
 10
102.522746
 20
10.230979
 11
102.095046
 21
10.244446
 12
102.143544
 22
10.248642
 13
102.143544
 23
10.248642
  0
SOLID
  8
13
  6
CONTINUOUS
 10
102.522746
 20
10.230979
 11
102.143544
 21
10.248642
 12
102.211078
 22
10.252071
 13
102.211078
 23
10.252071
  0
SOLID
  8
13
  6
CONTINUOUS
 10
102.522746
 20
10.230979
 11
102.211078
 21
10.252071
 12
102.259959
 22
10.252484
 13
102.259959
 23
10.252484
  0
SOLID
  8
13
  6
CONTINUOUS
 10
102.522746
 20
10.230979
 11
102.259959
 21
10.252484
 12
102.290321
 22
10.252141
 13
102.290321
 23
10.252141
  0
SOLID
  8
13
  6
CONTINUOUS
 10
102.522746
 20
10.230979
 11
102.290321
 21
10.252141
 12
102.334203
 22
10.250668
 13
102.334203
 23
10.250668
  0
SOLID
  8
13
  6
CONTINUOUS
 10
102.522746
 20
10.230979
 11
102.334203
 21
10.250668
 12
102.394518
 22
10.246747
 13
102.394518
 23
10.246747
  0
SOLID
  8
13
  6
CONTINUOUS
 10
102.522746
 20
10.230979
 11
102.394518
 21
10.246747
 12
102.446340
 22
10.241621
 13
102.446340
 23
10.241621
  0
SOLID
  8
13
  6
CONTINUOUS
 10
102.522746
 20
10.230979
 11
102.446340
 21
10.241621
 12
102.490083
 22
10.235974
 13
102.490083
 23
10.235974
  0
SOLID
  8
13
  6
CONTINUOUS
 10
102.522746
 20
10.230979
 11
102.490083
 21
10.235974
 12
102.522746
 22
10.230979
 13
102.522746
 23
10.230979
  0
SOLID
  8
13
  6
CONTINUOUS
 10
102.594246
 20
10.217654
 11
102.594246
 21
9.498246
 12
103.021946
 22
9.498246
 13
103.021946
 23
9.498246
  0
SOLID
  8
13
  6
CONTINUOUS
 10
102.594246
 20
10.217654
 11
103.021946
 21
9.498246
 12
103.021946
 22
10.064184
 13
103.021946
 23
10.064184
  0
SOLID
  8
13
  6
CONTINUOUS
 10
102.594246
 20
10.217654
 11
103.021946
 21
10.064184
 12
103.003898
 22
10.073542
 13
103.003898
 23
10.073542
  0
SOLID
  8
13
  6
CONTINUOUS
 10
102.594246
 20
10.217654
 11
103.003898
 21
10.073542
 12
102.981716
 22
10.084501
 13
102.981716
 23
10.084501
  0
SOLID
  8
13
  6
CONTINUOUS
 10
102.594246
 20
10.217654
 11
102.981716
 21
10.084501
 12
102.953307
 22
10.098271
 13
102.953307
 23
10.098271
  0
SOLID
  8
13
  6
CONTINUOUS
 10
102.594246
 20
10.217654
 11
102.953307
 21
10.098271
 12
102.912865
 22
10.116383
 13
102.912865
 23
10.116383
  0
SOLID
  8
13
  6
CONTINUOUS
 10
102.594246
 20
10.217654
 11
102.912865
 21
10.116383
 12
102.885024
 22
10.128001
 13
102.885024
 23
10.128001
  0
SOLID
  8
13
  6
CONTINUOUS
 10
102.594246
 20
10.217654
 11
102.885024
 21
10.128001
 12
102.844071
 22
10.144755
 13
102.844071
 23
10.144755
  0
SOLID
  8
13
  6
CONTINUOUS
 10
102.594246
 20
10.217654
 11
102.844071
 21
10.144755
 12
102.813490
 22
10.155923
 13
102.813490
 23
10.155923
  0
SOLID
  8
13
  6
CONTINUOUS
 10
102.594246
 20
10.217654
 11
102.813490
 21
10.155923
 12
102.778388
 22
10.168156
 13
102.778388
 23
10.168156
  0
SOLID
  8
13
  6
CONTINUOUS
 10
102.594246
 20
10.217654
 11
102.778388
 21
10.168156
 12
102.744083
 22
10.178793
 13
102.744083
 23
10.178793
  0
SOLID
  8
13
  6
CONTINUOUS
 10
102.594246
 20
10.217654
 11
102.744083
 21
10.178793
 12
102.703465
 22
10.191172
 13
102.703465
 23
10.191172
  0
SOLID
  8
13
  6
CONTINUOUS
 10
102.594246
 20
10.217654
 11
102.703465
 21
10.191172
 12
102.665141
 22
10.201162
 13
102.665141
 23
10.201162
  0
SOLID
  8
13
  6
CONTINUOUS
 10
102.594246
 20
10.217654
 11
102.665141
 21
10.201162
 12
102.624819
 22
10.210970
 13
102.624819
 23
10.210970
  0
SOLID
  8
13
  6
CONTINUOUS
 10
102.594246
 20
10.217654
 11
102.624819
 21
10.210970
 12
102.594246
 22
10.217654
 13
102.594246
 23
10.217654
  0
SOLID
  8
13
  6
CONTINUOUS
 10
103.093446
 20
10.024343
 11
103.093446
 21
9.498246
 12
103.521146
 22
9.498246
 13
103.521146
 23
9.498246
  0
SOLID
  8
13
  6
CONTINUOUS
 10
103.093446
 20
10.024343
 11
103.521146
 21
9.498246
 12
103.521146
 22
9.661030
 13
103.521146
 23
9.661030
  0
SOLID
  8
13
  6
CONTINUOUS
 10
103.093446
 20
10.024343
 11
103.521146
 21
9.661030
 12
103.507797
 22
9.676793
 13
103.507797
 23
9.676793
  0
SOLID
  8
13
  6
CONTINUOUS
 10
103.093446
 20
10.024343
 11
103.507797
 21
9.676793
 12
103.495964
 22
9.690528
 13
103.495964
 23
9.690528
  0
SOLID
  8
13
  6
CONTINUOUS
 10
103.093446
 20
10.024343
 11
103.495964
 21
9.690528
 12
103.473877
 22
9.715277
 13
103.473877
 23
9.715277
  0
SOLID
  8
13
  6
CONTINUOUS
 10
103.093446
 20
10.024343
 11
103.473877
 21
9.715277
 12
103.454164
 22
9.736530
 13
103.454164
 23
9.736530
  0
SOLID
  8
13
  6
CONTINUOUS
 10
103.093446
 20
10.024343
 11
103.454164
 21
9.736530
 12
103.434048
 22
9.757502
 13
103.434048
 23
9.757502
  0
SOLID
  8
13
  6
CONTINUOUS
 10
103.093446
 20
10.024343
 11
103.434048
 21
9.757502
 12
103.410015
 22
9.781535
 13
103.410015
 23
9.781535
  0
SOLID
  8
13
  6
CONTINUOUS
 10
103.093446
 20
10.024343
 11
103.410015
 21
9.781535
 12
103.399294
 22
9.791943
 13
103.399294
 23
9.791943
  0
SOLID
  8
13
  6
CONTINUOUS
 10
103.093446
 20
10.024343
 11
103.399294
 21
9.791943
 12
103.388429
 22
9.802406
 13
103.388429
 23
9.802406
  0
SOLID
  8
13
  6
CONTINUOUS
 10
103.093446
 20
10.024343
 11
103.388429
 21
9.802406
 12
103.359952
 22
9.828752
 13
103.359952
 23
9.828752
  0
SOLID
  8
13
  6
CONTINUOUS
 10
103.093446
 20
10.024343
 11
103.359952
 21
9.828752
 12
103.325139
 22
9.859181
 13
103.325139
 23
9.859181
  0
SOLID
  8
13
  6
CONTINUOUS
 10
103.093446
 20
10.024343
 11
103.325139
 21
9.859181
 12
103.286846
 22
9.890826
 13
103.286846
 23
9.890826
  0
SOLID
  8
13
  6
CONTINUOUS
 10
103.093446
 20
10.024343
 11
103.286846
 21
9.890826
 12
103.251036
 22
9.918745
 13
103.251036
 23
9.918745
  0
SOLID
  8
13
  6
CONTINUOUS
 10
103.093446
 20
10.024343
 11
103.251036
 21
9.918745
 12
103.200839
 22
9.955427
 13
103.200839
 23
9.955427
  0
SOLID
  8
13
  6
CONTINUOUS
 10
103.093446
 20
10.024343
 11
103.200839
 21
9.955427
 12
103.134352
 22
9.999676
 13
103.134352
 23
9.999676
  0
SOLID
  8
13
  6
CONTINUOUS
 10
103.093446
 20
10.024343
 11
103.134352
 21
9.999676
 12
103.093446
 22
10.024343
 13
103.093446
 23
10.024343
  0
SOLID
  8
13
  6
CONTINUOUS
 10
102.522746
 20
10.635283
 11
102.522746
 21
11.162246
 12
102.095046
 22
11.162246
 13
102.095046
 23
11.162246
  0
SOLID
  8
13
  6
CONTINUOUS
 10
102.522746
 20
10.635283
 11
102.095046
 21
11.162246
 12
102.095046
 22
10.995122
 13
102.095046
 23
10.995122
  0
SOLID
  8
13
  6
CONTINUOUS
 10
102.522746
 20
10.635283
 11
102.095046
 21
10.995122
 12
102.153689
 22
10.929235
 13
102.153689
 23
10.929235
  0
SOLID
  8
13
  6
CONTINUOUS
 10
102.522746
 20
10.635283
 11
102.153689
 21
10.929235
 12
102.237359
 22
10.846559
 13
102.237359
 23
10.846559
  0
SOLID
  8
13
  6
CONTINUOUS
 10
102.522746
 20
10.635283
 11
102.237359
 21
10.846559
 12
102.308389
 22
10.784730
 13
102.308389
 23
10.784730
  0
SOLID
  8
13
  6
CONTINUOUS
 10
102.522746
 20
10.635283
 11
102.308389
 21
10.784730
 12
102.366624
 22
10.739274
 13
102.366624
 23
10.739274
  0
SOLID
  8
13
  6
CONTINUOUS
 10
102.522746
 20
10.635283
 11
102.366624
 21
10.739274
 12
102.406322
 22
10.710064
 13
102.406322
 23
10.710064
  0
SOLID
  8
13
  6
CONTINUOUS
 10
102.522746
 20
10.635283
 11
102.406322
 21
10.710064
 12
102.455827
 22
10.676682
 13
102.455827
 23
10.676682
  0
SOLID
  8
13
  6
CONTINUOUS
 10
102.522746
 20
10.635283
 11
102.455827
 21
10.676682
 12
102.493954
 22
10.652515
 13
102.493954
 23
10.652515
  0
SOLID
  8
13
  6
CONTINUOUS
 10
102.522746
 20
10.635283
 11
102.493954
 21
10.652515
 12
102.522746
 22
10.635283
 13
102.522746
 23
10.635283
  0
SOLID
  8
13
  6
CONTINUOUS
 10
103.021946
 20
10.443678
 11
103.021946
 21
11.162246
 12
102.594246
 22
11.162246
 13
102.594246
 23
11.162246
  0
SOLID
  8
13
  6
CONTINUOUS
 10
103.021946
 20
10.443678
 11
102.594246
 21
11.162246
 12
102.594246
 22
10.595859
 13
102.594246
 23
10.595859
  0
SOLID
  8
13
  6
CONTINUOUS
 10
103.021946
 20
10.443678
 11
102.594246
 21
10.595859
 12
102.663800
 22
10.561766
 13
102.663800
 23
10.561766
  0
SOLID
  8
13
  6
CONTINUOUS
 10
103.021946
 20
10.443678
 11
102.663800
 21
10.561766
 12
102.744359
 22
10.527375
 13
102.744359
 23
10.527375
  0
SOLID
  8
13
  6
CONTINUOUS
 10
103.021946
 20
10.443678
 11
102.744359
 21
10.527375
 12
102.812197
 22
10.501464
 13
102.812197
 23
10.501464
  0
SOLID
  8
13
  6
CONTINUOUS
 10
103.021946
 20
10.443678
 11
102.812197
 21
10.501464
 12
102.889458
 22
10.476967
 13
102.889458
 23
10.476967
  0
SOLID
  8
13
  6
CONTINUOUS
 10
103.021946
 20
10.443678
 11
102.889458
 21
10.476967
 12
102.950702
 22
10.460007
 13
102.950702
 23
10.460007
  0
SOLID
  8
13
  6
CONTINUOUS
 10
103.021946
 20
10.443678
 11
102.950702
 21
10.460007
 12
103.021946
 22
10.443678
 13
103.021946
 23
10.443678
  0
SOLID
  8
13
  6
CONTINUOUS
 10
103.093446
 20
10.430307
 11
103.093446
 21
11.162246
 12
103.521146
 22
11.162246
 13
103.521146
 23
11.162246
  0
SOLID
  8
13
  6
CONTINUOUS
 10
103.093446
 20
10.430307
 11
103.521146
 21
11.162246
 12
103.521146
 22
10.417580
 13
103.521146
 23
10.417580
  0
SOLID
  8
13
  6
CONTINUOUS
 10
103.093446
 20
10.430307
 11
103.521146
 21
10.417580
 12
103.476372
 22
10.413637
 13
103.476372
 23
10.413637
  0
SOLID
  8
13
  6
CONTINUOUS
 10
103.093446
 20
10.430307
 11
103.476372
 21
10.413637
 12
103.416577
 22
10.410480
 13
103.416577
 23
10.410480
  0
SOLID
  8
13
  6
CONTINUOUS
 10
103.093446
 20
10.430307
 11
103.416577
 21
10.410480
 12
103.366788
 22
10.409453
 13
103.366788
 23
10.409453
  0
SOLID
  8
13
  6
CONTINUOUS
 10
103.093446
 20
10.430307
 11
103.366788
 21
10.409453
 12
103.336830
 22
10.409453
 13
103.336830
 23
10.409453
  0
SOLID
  8
13
  6
CONTINUOUS
 10
103.093446
 20
10.430307
 11
103.336830
 21
10.409453
 12
103.286182
 22
10.410821
 13
103.286182
 23
10.410821
  0
SOLID
  8
13
  6
CONTINUOUS
 10
103.093446
 20
10.430307
 11
103.286182
 21
10.410821
 12
103.241261
 22
10.413321
 13
103.241261
 23
10.413321
  0
SOLID
  8
13
  6
CONTINUOUS
 10
103.093446
 20
10.430307
 11
103.241261
 21
10.413321
 12
103.205545
 22
10.416539
 13
103.205545
 23
10.416539
  0
SOLID
  8
13
  6
CONTINUOUS
 10
103.093446
 20
10.430307
 11
103.205545
 21
10.416539
 12
103.155349
 22
10.421044
 13
103.155349
 23
10.421044
  0
SOLID
  8
13
  6
CONTINUOUS
 10
103.093446
 20
10.430307
 11
103.155349
 21
10.421044
 12
103.093446
 22
10.430307
 13
103.093446
 23
10.430307
  0
SOLID
  8
13
  6
CONTINUOUS
 10
102.594246
 20
9.498246
 11
102.594246
 21
11.162246
 12
102.522746
 22
11.162246
 13
102.522746
 23
11.162246
  0
SOLID
  8
13
  6
CONTINUOUS
 10
102.594246
 20
9.498246
 11
102.522746
 21
11.162246
 12
102.522746
 22
9.498246
 13
102.522746
 23
9.498246
  0
SOLID
  8
13
  6
CONTINUOUS
 10
102.594246
 20
9.498246
 11
102.522746
 21
9.498246
 12
102.522746
 22
9.498246
 13
102.522746
 23
9.498246
  0
SOLID
  8
13
  6
CONTINUOUS
 10
103.021946
 20
11.162246
 11
103.093446
 21
11.162246
 12
103.093446
 22
9.498246
 13
103.093446
 23
9.498246
  0
SOLID
  8
13
  6
CONTINUOUS
 10
103.021946
 20
11.162246
 11
103.093446
 21
9.498246
 12
103.021946
 22
9.498246
 13
103.021946
 23
9.498246
  0
SOLID
  8
13
  6
CONTINUOUS
 10
103.021946
 20
11.162246
 11
103.021946
 21
9.498246
 12
103.021946
 22
11.162246
 13
103.021946
 23
11.162246
  0
SOLID
  8
13
  6
CONTINUOUS
 10
103.521146
 20
9.498246
 11
103.635546
 21
9.498246
 12
103.635546
 22
11.162246
 13
103.635546
 23
11.162246
  0
SOLID
  8
13
  6
CONTINUOUS
 10
103.521146
 20
9.498246
 11
103.635546
 21
11.162246
 12
103.521146
 22
11.162246
 13
103.521146
 23
11.162246
  0
SOLID
  8
13
  6
CONTINUOUS
 10
103.521146
 20
9.498246
 11
103.521146
 21
11.162246
 12
103.521146
 22
9.498246
 13
103.521146
 23
9.498246
  0
LINE
  8
1
  6
CONTINUOUS
 10
97.242560
 20
81.497140
 11
116.666288
 21
81.497140
  0
LINE
  8
1
  6
CONTINUOUS
 10
97.242560
 20
81.497140
 11
97.242560
 21
80.497140
  0
LINE
  8
1
  6
CONTINUOUS
 10
97.242560
 20
80.497140
 11
113.531840
 21
80.497140
  0
LINE
  8
1
  6
CONTINUOUS
 10
97.242560
 20
80.497140
 11
97.242560
 21
79.497140
  0
LINE
  8
1
  6
CONTINUOUS
 10
99.731676
 20
80.497140
 11
99.731676
 21
79.497140
  0
LINE
  8
1
  6
CONTINUOUS
 10
101.869389
 20
80.497140
 11
101.869389
 21
79.497140
  0
LINE
  8
1
  6
CONTINUOUS
 10
103.244756
 20
80.497140
 11
103.244756
 21
79.497140
  0
LINE
  8
1
  6
CONTINUOUS
 10
107.409269
 20
79.997140
 11
107.409269
 21
79.497140
  0
LINE
  8
1
  6
CONTINUOUS
 10
110.397392
 20
80.497140
 11
110.397392
 21
79.497140
  0
LINE
  8
1
  6
CONTINUOUS
 10
111.442207
 20
79.997140
 11
111.442208
 21
79.497140
  0
LINE
  8
1
  6
CONTINUOUS
 10
112.487024
 20
79.997140
 11
112.487024
 21
79.497140
  0
LINE
  8
1
  6
CONTINUOUS
 10
113.531840
 20
80.497140
 11
113.531840
 21
79.497140
  0
LINE
  8
1
  6
CONTINUOUS
 10
97.242560
 20
79.497140
 11
116.666288
 21
79.497140
  0
LINE
  8
1
  6
CONTINUOUS
 10
103.244756
 20
79.997140
 11
107.409269
 21
79.997140
  0
LINE
  8
1
  6
CONTINUOUS
 10
107.409269
 20
79.997140
 11
110.397392
 21
79.997140
  0
LINE
  8
1
  6
CONTINUOUS
 10
110.397392
 20
79.997140
 11
111.442208
 21
79.997140
  0
LINE
  8
1
  6
CONTINUOUS
 10
111.442208
 20
79.997140
 11
112.487024
 21
79.997140
  0
LINE
  8
1
  6
CONTINUOUS
 10
112.487024
 20
79.997140
 11
116.666288
 21
79.997140
  0
LINE
  8
1
  6
CONTINUOUS
 10
116.666288
 20
79.497140
 11
116.666288
 21
81.497140
  0
LINE
  8
1
  6
CONTINUOUS
 10
115.099064
 20
79.997140
 11
115.099064
 21
79.497140
  0
LINE
  8
1
  6
CONTINUOUS
 10
113.531840
 20
80.497140
 11
116.666288
 21
80.497140
  0
LINE
  8
1
  6
CONTINUOUS
 10
97.242560
 20
79.497140
 11
97.242560
 21
78.997139
  0
LINE
  8
1
  6
CONTINUOUS
 10
97.242560
 20
78.997139
 11
116.666288
 21
78.997139
  0
LINE
  8
1
  6
CONTINUOUS
 10
99.731676
 20
79.497140
 11
99.731676
 21
78.997139
  0
LINE
  8
1
  6
CONTINUOUS
 10
101.869389
 20
79.497140
 11
101.869389
 21
78.997139
  0
LINE
  8
1
  6
CONTINUOUS
 10
103.244756
 20
79.497140
 11
103.244756
 21
78.997139
  0
LINE
  8
1
  6
CONTINUOUS
 10
107.409269
 20
79.497140
 11
107.409269
 21
78.997139
  0
LINE
  8
1
  6
CONTINUOUS
 10
110.397392
 20
79.497140
 11
110.397392
 21
78.997139
  0
LINE
  8
1
  6
CONTINUOUS
 10
111.442208
 20
79.497140
 11
111.442208
 21
78.997139
  0
LINE
  8
1
  6
CONTINUOUS
 10
112.487024
 20
79.497140
 11
112.487024
 21
78.997139
  0
LINE
  8
1
  6
CONTINUOUS
 10
113.531840
 20
79.497140
 11
113.531840
 21
78.997139
  0
LINE
  8
1
  6
CONTINUOUS
 10
113.531840
 20
78.997139
 11
113.531840
 21
79.497140
  0
LINE
  8
1
  6
CONTINUOUS
 10
113.531840
 20
79.497140
 11
113.531840
 21
78.997139
  0
LINE
  8
1
  6
CONTINUOUS
 10
115.099064
 20
79.497140
 11
115.099064
 21
78.997139
  0
LINE
  8
1
  6
CONTINUOUS
 10
116.666288
 20
79.497140
 11
116.666288
 21
78.997139
  0
LINE
  8
1
  6
CONTINUOUS
 10
97.242560
 20
78.997139
 11
97.242560
 21
78.497139
  0
LINE
  8
1
  6
CONTINUOUS
 10
97.242560
 20
78.497139
 11
116.666288
 21
78.497139
  0
LINE
  8
1
  6
CONTINUOUS
 10
99.731676
 20
78.997139
 11
99.731676
 21
78.497139
  0
LINE
  8
1
  6
CONTINUOUS
 10
101.869389
 20
78.997139
 11
101.869389
 21
78.497139
  0
LINE
  8
1
  6
CONTINUOUS
 10
103.244756
 20
78.997139
 11
103.244756
 21
78.497139
  0
LINE
  8
1
  6
CONTINUOUS
 10
107.409269
 20
78.997139
 11
107.409269
 21
78.497139
  0
LINE
  8
1
  6
CONTINUOUS
 10
110.397392
 20
78.997139
 11
110.397392
 21
78.497139
  0
LINE
  8
1
  6
CONTINUOUS
 10
111.442208
 20
78.997139
 11
111.442208
 21
78.497139
  0
LINE
  8
1
  6
CONTINUOUS
 10
112.487024
 20
78.997139
 11
112.487024
 21
78.497139
  0
LINE
  8
1
  6
CONTINUOUS
 10
113.531840
 20
78.997139
 11
113.531840
 21
78.497139
  0
LINE
  8
1
  6
CONTINUOUS
 10
113.531840
 20
78.497139
 11
113.531840
 21
78.997139
  0
LINE
  8
1
  6
CONTINUOUS
 10
113.531840
 20
78.997139
 11
113.531840
 21
78.497139
  0
LINE
  8
1
  6
CONTINUOUS
 10
115.099064
 20
78.997139
 11
115.099064
 21
78.497139
  0
LINE
  8
1
  6
CONTINUOUS
 10
116.666288
 20
78.997139
 11
116.666288
 21
78.497139
  0
LINE
  8
1
  6
CONTINUOUS
 10
97.242560
 20
77.859786
 11
110.525652
 21
77.859786
  0
LINE
  8
1
  6
CONTINUOUS
 10
97.242560
 20
76.497139
 11
110.525652
 21
76.497139
  0
LINE
  8
1
  6
CONTINUOUS
 10
97.242560
 20
75.997138
 11
106.164269
 21
75.997138
  0
LINE
  8
1
  6
CONTINUOUS
 10
106.164269
 20
75.997138
 11
108.352392
 21
75.997138
  0
LINE
  8
1
  6
CONTINUOUS
 10
107.732372
 20
75.997138
 11
108.777188
 21
75.997138
  0
LINE
  8
1
  6
CONTINUOUS
 10
108.777188
 20
75.997138
 11
110.442024
 21
75.997138
  0
LINE
  8
1
  6
CONTINUOUS
 10
110.442024
 20
75.997138
 11
110.525652
 21
75.997138
  0
LINE
  8
1
  6
CONTINUOUS
 10
97.242560
 20
77.859786
 11
97.242560
 21
74.997138
  0
LINE
  8
1
  6
CONTINUOUS
 10
97.242560
 20
74.997139
 11
110.525652
 21
74.997139
  0
LINE
  8
1
  6
CONTINUOUS
 10
99.380272
 20
75.997138
 11
99.380272
 21
74.997138
  0
LINE
  8
1
  6
CONTINUOUS
 10
101.568396
 20
74.997138
 11
101.568396
 21
75.997138
  0
LINE
  8
1
  6
CONTINUOUS
 10
108.436020
 20
75.997138
 11
108.436020
 21
74.997139
  0
LINE
  8
1
  6
CONTINUOUS
 10
109.480837
 20
75.997138
 11
109.480837
 21
74.997139
  0
LINE
  8
1
  6
CONTINUOUS
 10
103.271208
 20
74.997139
 11
103.271208
 21
75.497139
  0
LINE
  8
1
  6
CONTINUOUS
 10
110.525652
 20
74.997139
 11
110.525652
 21
77.859786
  0
LINE
  8
1
  6
CONTINUOUS
 10
101.568396
 20
75.497139
 11
107.391205
 21
75.497139
  0
LINE
  8
1
  6
CONTINUOUS
 10
107.391205
 20
74.997139
 11
107.391205
 21
76.497139
  0
LINE
  8
1
  6
CONTINUOUS
 10
105.331207
 20
74.997139
 11
105.331207
 21
75.497139
  0
LINE
  8
1
  6
CONTINUOUS
 10
97.242560
 20
74.997138
 11
97.242560
 21
74.497138
  0
LINE
  8
1
  6
CONTINUOUS
 10
99.380272
 20
74.997138
 11
99.380272
 21
74.497138
  0
LINE
  8
1
  6
CONTINUOUS
 10
101.568396
 20
74.997138
 11
101.568396
 21
74.497138
  0
LINE
  8
1
  6
CONTINUOUS
 10
97.242560
 20
74.497138
 11
110.525652
 21
74.497138
  0
LINE
  8
1
  6
CONTINUOUS
 10
107.391205
 20
74.997138
 11
107.391205
 21
74.497138
  0
LINE
  8
1
  6
CONTINUOUS
 10
108.436020
 20
74.997138
 11
108.436020
 21
74.497138
  0
LINE
  8
1
  6
CONTINUOUS
 10
109.480837
 20
74.997138
 11
109.480837
 21
74.497138
  0
LINE
  8
1
  6
CONTINUOUS
 10
103.271208
 20
74.997138
 11
103.271208
 21
74.497138
  0
LINE
  8
1
  6
CONTINUOUS
 10
105.331207
 20
74.497138
 11
105.331207
 21
74.997138
  0
LINE
  8
1
  6
CONTINUOUS
 10
107.391205
 20
74.497138
 11
107.391205
 21
74.997138
  0
LINE
  8
1
  6
CONTINUOUS
 10
110.525652
 20
74.997138
 11
110.525652
 21
74.497138
  0
LINE
  8
1
  6
CONTINUOUS
 10
97.242560
 20
74.497137
 11
97.242560
 21
73.997137
  0
LINE
  8
1
  6
CONTINUOUS
 10
99.380272
 20
74.497137
 11
99.380272
 21
73.997137
  0
LINE
  8
1
  6
CONTINUOUS
 10
101.568396
 20
74.497137
 11
101.568396
 21
73.997137
  0
LINE
  8
1
  6
CONTINUOUS
 10
97.242560
 20
73.997137
 11
110.525652
 21
73.997137
  0
LINE
  8
1
  6
CONTINUOUS
 10
107.391205
 20
74.497138
 11
107.391205
 21
73.997137
  0
LINE
  8
1
  6
CONTINUOUS
 10
108.436020
 20
74.497138
 11
108.436020
 21
73.997137
  0
LINE
  8
1
  6
CONTINUOUS
 10
109.480837
 20
74.497138
 11
109.480837
 21
73.997137
  0
LINE
  8
1
  6
CONTINUOUS
 10
103.271208
 20
74.497137
 11
103.271208
 21
73.997137
  0
LINE
  8
1
  6
CONTINUOUS
 10
105.331207
 20
73.997137
 11
105.331207
 21
74.497137
  0
LINE
  8
1
  6
CONTINUOUS
 10
107.391205
 20
73.997137
 11
107.391205
 21
74.497137
  0
LINE
  8
1
  6
CONTINUOUS
 10
110.525652
 20
74.497138
 11
110.525652
 21
73.997137
  0
LINE
  8
2
  6
CONTINUOUS
 10
101.700000
 20
23.900000
 11
101.700000
 21
23.900000
  0
LINE
  8
2
  6
CONTINUOUS
 10
118.000000
 20
23.900000
 11
118.000000
 21
23.900000
  0
LINE
  8
2
  6
CONTINUOUS
 10
118.000000
 20
23.900000
 11
101.700000
 21
23.900000
  0
LINE
  8
2
  6
CONTINUOUS
 10
118.000000
 20
22.200000
 11
101.700000
 21
22.200000
  0
LINE
  8
2
  6
CONTINUOUS
 10
101.700000
 20
23.900000
 11
101.700000
 21
22.200000
  0
LINE
  8
2
  6
CONTINUOUS
 10
118.000000
 20
22.200000
 11
118.000000
 21
23.900000
  0
POLYLINE
  8
1
  6
CONTINUOUS
 66
     1
  0
VERTEX
  8
1
  6
CONTINUOUS
 10
70.725816
 20
7.496199
  0
VERTEX
  8
1
  6
CONTINUOUS
 10
70.725816
 20
4.652330
  0
SEQEND
  8
1
  6
CONTINUOUS
  0
POLYLINE
  8
1
  6
CONTINUOUS
 66
     1
  0
VERTEX
  8
1
  6
CONTINUOUS
 10
73.125816
 20
4.652330
  0
VERTEX
  8
1
  6
CONTINUOUS
 10
73.125816
 20
7.496199
  0
SEQEND
  8
1
  6
CONTINUOUS
  0
POLYLINE
  8
1
  6
CONTINUOUS
 66
     1
  0
VERTEX
  8
1
  6
CONTINUOUS
 10
70.725816
 20
16.466200
  0
VERTEX
  8
1
  6
CONTINUOUS
 10
70.725816
 20
12.296199
  0
SEQEND
  8
1
  6
CONTINUOUS
  0
POLYLINE
  8
1
  6
CONTINUOUS
 66
     1
  0
VERTEX
  8
1
  6
CONTINUOUS
 10
73.125816
 20
12.296199
  0
VERTEX
  8
1
  6
CONTINUOUS
 10
73.125816
 20
16.466200
  0
SEQEND
  8
1
  6
CONTINUOUS
  0
POLYLINE
  8
1
  6
CONTINUOUS
 66
     1
  0
VERTEX
  8
1
  6
CONTINUOUS
 10
70.725816
 20
19.836816
  0
VERTEX
  8
1
  6
CONTINUOUS
 10
70.725816
 20
16.466200
  0
SEQEND
  8
1
  6
CONTINUOUS
  0
POLYLINE
  8
1
  6
CONTINUOUS
 66
     1
  0
VERTEX
  8
1
  6
CONTINUOUS
 10
73.125816
 20
16.466200
  0
VERTEX
  8
1
  6
CONTINUOUS
 10
73.125816
 20
19.036816
  0
SEQEND
  8
1
  6
CONTINUOUS
  0
POLYLINE
  8
1
  6
CONTINUOUS
 66
     1
  0
VERTEX
  8
1
  6
CONTINUOUS
 10
70.725816
 20
26.446200
  0
VERTEX
  8
1
  6
CONTINUOUS
 10
70.725816
 20
19.836816
  0
SEQEND
  8
1
  6
CONTINUOUS
  0
POLYLINE
  8
1
  6
CONTINUOUS
 66
     1
  0
VERTEX
  8
1
  6
CONTINUOUS
 10
73.125816
 20
20.636816
  0
VERTEX
  8
1
  6
CONTINUOUS
 10
73.125816
 20
26.446200
  0
SEQEND
  8
1
  6
CONTINUOUS
  0
POLYLINE
  8
1
  6
CONTINUOUS
 66
     1
  0
VERTEX
  8
1
  6
CONTINUOUS
 10
70.725816
 20
28.877433
  0
VERTEX
  8
1
  6
CONTINUOUS
 10
70.725816
 20
26.446200
  0
SEQEND
  8
1
  6
CONTINUOUS
  0
POLYLINE
  8
1
  6
CONTINUOUS
 66
     1
  0
VERTEX
  8
1
  6
CONTINUOUS
 10
73.125816
 20
26.446200
  0
VERTEX
  8
1
  6
CONTINUOUS
 10
73.125816
 20
28.077433
  0
SEQEND
  8
1
  6
CONTINUOUS
  0
POLYLINE
  8
1
  6
CONTINUOUS
 66
     1
  0
VERTEX
  8
1
  6
CONTINUOUS
 10
70.725816
 20
32.056199
  0
VERTEX
  8
1
  6
CONTINUOUS
 10
70.725816
 20
28.877433
  0
SEQEND
  8
1
  6
CONTINUOUS
  0
POLYLINE
  8
1
  6
CONTINUOUS
 66
     1
  0
VERTEX
  8
1
  6
CONTINUOUS
 10
73.125816
 20
29.677433
  0
VERTEX
  8
1
  6
CONTINUOUS
 10
73.125816
 20
34.456199
  0
SEQEND
  8
1
  6
CONTINUOUS
  0
POLYLINE
  8
1
  6
CONTINUOUS
 66
     1
  0
VERTEX
  8
1
  6
CONTINUOUS
 10
70.725816
 20
40.056200
  0
VERTEX
  8
1
  6
CONTINUOUS
 10
70.725816
 20
36.856199
  0
SEQEND
  8
1
  6
CONTINUOUS
  0
POLYLINE
  8
1
  6
CONTINUOUS
 66
     1
  0
VERTEX
  8
1
  6
CONTINUOUS
 10
73.125816
 20
34.456199
  0
VERTEX
  8
1
  6
CONTINUOUS
 10
73.125816
 20
40.056200
  0
SEQEND
  8
1
  6
CONTINUOUS
  0
POLYLINE
  8
1
  6
CONTINUOUS
 66
     1
  0
VERTEX
  8
1
  6
CONTINUOUS
 10
70.725816
 20
12.296199
  0
VERTEX
  8
1
  6
CONTINUOUS
 10
70.725816
 20
7.496199
  0
SEQEND
  8
1
  6
CONTINUOUS
  0
POLYLINE
  8
1
  6
CONTINUOUS
 66
     1
  0
VERTEX
  8
1
  6
CONTINUOUS
 10
73.125816
 20
12.296199
  0
VERTEX
  8
1
  6
CONTINUOUS
 10
73.125816
 20
7.496199
  0
SEQEND
  8
1
  6
CONTINUOUS
  0
POLYLINE
  8
1
  6
CONTINUOUS
 66
     1
  0
VERTEX
  8
1
  6
CONTINUOUS
 10
70.725816
 20
36.856199
  0
VERTEX
  8
1
  6
CONTINUOUS
 10
70.725816
 20
32.056199
  0
SEQEND
  8
1
  6
CONTINUOUS
  0
POLYLINE
  8
1
  6
CONTINUOUS
 66
     1
  0
VERTEX
  8
1
  6
CONTINUOUS
 10
10.285759
 20
40.456200
  0
VERTEX
  8
1
  6
CONTINUOUS
 10
5.285759
 20
40.456200
  0
SEQEND
  8
1
  6
CONTINUOUS
  0
POLYLINE
  8
1
  6
ESTILO_TQS_0001
 66
     1
  0
VERTEX
  8
1
  6
ESTILO_TQS_0001
 10
5.285759
 20
40.056200
  0
VERTEX
  8
1
  6
ESTILO_TQS_0001
 10
10.285759
 20
40.056200
  0
SEQEND
  8
1
  6
ESTILO_TQS_0001
  0
POLYLINE
  8
1
  6
CONTINUOUS
 66
     1
  0
VERTEX
  8
1
  6
CONTINUOUS
 10
15.888393
 20
40.456200
  0
VERTEX
  8
1
  6
CONTINUOUS
 10
11.085759
 20
40.456200
  0
SEQEND
  8
1
  6
CONTINUOUS
  0
POLYLINE
  8
1
  6
ESTILO_TQS_0001
 66
     1
  0
VERTEX
  8
1
  6
ESTILO_TQS_0001
 10
11.085759
 20
40.056200
  0
VERTEX
  8
1
  6
ESTILO_TQS_0001
 10
15.688393
 20
40.056200
  0
SEQEND
  8
1
  6
ESTILO_TQS_0001
  0
POLYLINE
  8
1
  6
CONTINUOUS
 66
     1
  0
VERTEX
  8
1
  6
CONTINUOUS
 10
20.485759
 20
40.456200
  0
VERTEX
  8
1
  6
CONTINUOUS
 10
15.888393
 20
40.456200
  0
SEQEND
  8
1
  6
CONTINUOUS
  0
POLYLINE
  8
1
  6
CONTINUOUS
 66
     1
  0
VERTEX
  8
1
  6
CONTINUOUS
 10
16.088393
 20
40.056200
  0
VERTEX
  8
1
  6
CONTINUOUS
 10
19.685759
 20
40.056200
  0
SEQEND
  8
1
  6
CONTINUOUS
  0
POLYLINE
  8
1
  6
CONTINUOUS
 66
     1
  0
VERTEX
  8
1
  6
CONTINUOUS
 10
26.085759
 20
40.456200
  0
VERTEX
  8
1
  6
CONTINUOUS
 10
20.485759
 20
40.456200
  0
SEQEND
  8
1
  6
CONTINUOUS
  0
POLYLINE
  8
1
  6
CONTINUOUS
 66
     1
  0
VERTEX
  8
1
  6
CONTINUOUS
 10
21.285759
 20
40.056200
  0
VERTEX
  8
1
  6
CONTINUOUS
 10
26.085759
 20
40.056200
  0
SEQEND
  8
1
  6
CONTINUOUS
  0
POLYLINE
  8
1
  6
CONTINUOUS
 66
     1
  0
VERTEX
  8
1
  6
CONTINUOUS
 10
32.735759
 20
40.456200
  0
VERTEX
  8
1
  6
CONTINUOUS
 10
26.885759
 20
40.456200
  0
SEQEND
  8
1
  6
CONTINUOUS
  0
POLYLINE
  8
1
  6
CONTINUOUS
 66
     1
  0
VERTEX
  8
1
  6
CONTINUOUS
 10
26.885759
 20
40.056200
  0
VERTEX
  8
1
  6
CONTINUOUS
 10
31.735759
 20
40.056200
  0
SEQEND
  8
1
  6
CONTINUOUS
  0
POLYLINE
  8
1
  6
CONTINUOUS
 66
     1
  0
VERTEX
  8
1
  6
CONTINUOUS
 10
42.085759
 20
40.456200
  0
VERTEX
  8
1
  6
CONTINUOUS
 10
32.735759
 20
40.456200
  0
SEQEND
  8
1
  6
CONTINUOUS
  0
POLYLINE
  8
1
  6
CONTINUOUS
 66
     1
  0
VERTEX
  8
1
  6
CONTINUOUS
 10
33.735759
 20
40.056200
  0
VERTEX
  8
1
  6
CONTINUOUS
 10
42.085759
 20
40.056200
  0
SEQEND
  8
1
  6
CONTINUOUS
  0
POLYLINE
  8
1
  6
CONTINUOUS
 66
     1
  0
VERTEX
  8
1
  6
CONTINUOUS
 10
45.085023
 20
40.456200
  0
VERTEX
  8
1
  6
CONTINUOUS
 10
42.885759
 20
40.456200
  0
SEQEND
  8
1
  6
CONTINUOUS
  0
POLYLINE
  8
1
  6
CONTINUOUS
 66
     1
  0
VERTEX
  8
1
  6
CONTINUOUS
 10
42.885759
 20
40.056200
  0
VERTEX
  8
1
  6
CONTINUOUS
 10
44.085023
 20
40.056200
  0
SEQEND
  8
1
  6
CONTINUOUS
  0
POLYLINE
  8
1
  6
CONTINUOUS
 66
     1
  0
VERTEX
  8
1
  6
CONTINUOUS
 10
54.165023
 20
40.456200
  0
VERTEX
  8
1
  6
CONTINUOUS
 10
45.085023
 20
40.456200
  0
SEQEND
  8
1
  6
CONTINUOUS
  0
POLYLINE
  8
1
  6
CONTINUOUS
 66
     1
  0
VERTEX
  8
1
  6
CONTINUOUS
 10
46.085023
 20
40.056200
  0
VERTEX
  8
1
  6
CONTINUOUS
 10
52.565023
 20
40.056200
  0
SEQEND
  8
1
  6
CONTINUOUS
  0
POLYLINE
  8
1
  6
CONTINUOUS
 66
     1
  0
VERTEX
  8
1
  6
CONTINUOUS
 10
58.085759
 20
40.456200
  0
VERTEX
  8
1
  6
CONTINUOUS
 10
54.165023
 20
40.456200
  0
SEQEND
  8
1
  6
CONTINUOUS
  0
POLYLINE
  8
1
  6
CONTINUOUS
 66
     1
  0
VERTEX
  8
1
  6
CONTINUOUS
 10
55.765023
 20
40.056200
  0
VERTEX
  8
1
  6
CONTINUOUS
 10
58.085759
 20
40.056200
  0
SEQEND
  8
1
  6
CONTINUOUS
  0
POLYLINE
  8
1
  6
CONTINUOUS
 66
     1
  0
VERTEX
  8
1
  6
CONTINUOUS
 10
63.245023
 20
40.456200
  0
VERTEX
  8
1
  6
CONTINUOUS
 10
58.885759
 20
40.456200
  0
SEQEND
  8
1
  6
CONTINUOUS
  0
POLYLINE
  8
1
  6
CONTINUOUS
 66
     1
  0
VERTEX
  8
1
  6
CONTINUOUS
 10
58.885759
 20
40.056200
  0
VERTEX
  8
1
  6
CONTINUOUS
 10
61.645023
 20
40.056200
  0
SEQEND
  8
1
  6
CONTINUOUS
  0
POLYLINE
  8
1
  6
CONTINUOUS
 66
     1
  0
VERTEX
  8
1
  6
CONTINUOUS
 10
71.925816
 20
40.456200
  0
VERTEX
  8
1
  6
CONTINUOUS
 10
63.245023
 20
40.456200
  0
SEQEND
  8
1
  6
CONTINUOUS
  0
POLYLINE
  8
1
  6
CONTINUOUS
 66
     1
  0
VERTEX
  8
1
  6
CONTINUOUS
 10
64.845023
 20
40.056200
  0
VERTEX
  8
1
  6
CONTINUOUS
 10
70.725816
 20
40.056200
  0
SEQEND
  8
1
  6
CONTINUOUS
  0
POLYLINE
  8
1
  6
CONTINUOUS
 66
     1
  0
VERTEX
  8
1
  6
CONTINUOUS
 10
77.327760
 20
40.456200
  0
VERTEX
  8
1
  6
CONTINUOUS
 10
71.925816
 20
40.456200
  0
SEQEND
  8
1
  6
CONTINUOUS
  0
POLYLINE
  8
1
  6
CONTINUOUS
 66
     1
  0
VERTEX
  8
1
  6
CONTINUOUS
 10
73.125816
 20
40.056200
  0
VERTEX
  8
1
  6
CONTINUOUS
 10
77.327760
 20
40.056200
  0
SEQEND
  8
1
  6
CONTINUOUS
  0
POLYLINE
  8
1
  6
CONTINUOUS
 66
     1
  0
VERTEX
  8
1
  6
CONTINUOUS
 10
80.446385
 20
40.456200
  0
VERTEX
  8
1
  6
CONTINUOUS
 10
78.127760
 20
40.456200
  0
SEQEND
  8
1
  6
CONTINUOUS
  0
POLYLINE
  8
1
  6
CONTINUOUS
 66
     1
  0
VERTEX
  8
1
  6
CONTINUOUS
 10
78.127760
 20
40.056200
  0
VERTEX
  8
1
  6
CONTINUOUS
 10
79.446385
 20
40.056200
  0
SEQEND
  8
1
  6
CONTINUOUS
  0
POLYLINE
  8
1
  6
CONTINUOUS
 66
     1
  0
VERTEX
  8
1
  6
CONTINUOUS
 10
85.617760
 20
40.456200
  0
VERTEX
  8
1
  6
CONTINUOUS
 10
80.446385
 20
40.456200
  0
SEQEND
  8
1
  6
CONTINUOUS
  0
POLYLINE
  8
1
  6
CONTINUOUS
 66
     1
  0
VERTEX
  8
1
  6
CONTINUOUS
 10
81.446385
 20
40.056200
  0
VERTEX
  8
1
  6
CONTINUOUS
 10
85.617760
 20
40.056200
  0
SEQEND
  8
1
  6
CONTINUOUS
  0
POLYLINE
  8
1
  6
CONTINUOUS
 66
     1
  0
VERTEX
  8
1
  6
CONTINUOUS
 10
5.285759
 20
40.456200
  0
VERTEX
  8
1
  6
CONTINUOUS
 10
5.285759
 20
40.056200
  0
SEQEND
  8
1
  6
CONTINUOUS
  0
POLYLINE
  8
1
  6
ESTILO_TQS_0001
 66
     1
  0
VERTEX
  8
1
  6
ESTILO_TQS_0001
 10
10.285759
 20
4.652330
  0
VERTEX
  8
1
  6
ESTILO_TQS_0001
 10
5.285759
 20
4.652330
  0
SEQEND
  8
1
  6
ESTILO_TQS_0001
  0
POLYLINE
  8
1
  6
CONTINUOUS
 66
     1
  0
VERTEX
  8
1
  6
CONTINUOUS
 10
5.285759
 20
4.252330
  0
VERTEX
  8
1
  6
CONTINUOUS
 10
10.285759
 20
4.252330
  0
SEQEND
  8
1
  6
CONTINUOUS
  0
POLYLINE
  8
1
  6
ESTILO_TQS_0001
 66
     1
  0
VERTEX
  8
1
  6
ESTILO_TQS_0001
 10
15.688393
 20
4.652330
  0
VERTEX
  8
1
  6
ESTILO_TQS_0001
 10
11.085759
 20
4.652330
  0
SEQEND
  8
1
  6
ESTILO_TQS_0001
  0
POLYLINE
  8
1
  6
CONTINUOUS
 66
     1
  0
VERTEX
  8
1
  6
CONTINUOUS
 10
11.085759
 20
4.252330
  0
VERTEX
  8
1
  6
CONTINUOUS
 10
15.888393
 20
4.252330
  0
SEQEND
  8
1
  6
CONTINUOUS
  0
POLYLINE
  8
1
  6
CONTINUOUS
 66
     1
  0
VERTEX
  8
1
  6
CONTINUOUS
 10
19.685759
 20
4.652330
  0
VERTEX
  8
1
  6
CONTINUOUS
 10
16.088393
 20
4.652330
  0
SEQEND
  8
1
  6
CONTINUOUS
  0
POLYLINE
  8
1
  6
CONTINUOUS
 66
     1
  0
VERTEX
  8
1
  6
CONTINUOUS
 10
15.888393
 20
4.252330
  0
VERTEX
  8
1
  6
CONTINUOUS
 10
20.485759
 20
4.252330
  0
SEQEND
  8
1
  6
CONTINUOUS
  0
POLYLINE
  8
1
  6
CONTINUOUS
 66
     1
  0
VERTEX
  8
1
  6
CONTINUOUS
 10
26.085759
 20
4.652330
  0
VERTEX
  8
1
  6
CONTINUOUS
 10
21.285759
 20
4.652330
  0
SEQEND
  8
1
  6
CONTINUOUS
  0
POLYLINE
  8
1
  6
CONTINUOUS
 66
     1
  0
VERTEX
  8
1
  6
CONTINUOUS
 10
20.485759
 20
4.252330
  0
VERTEX
  8
1
  6
CONTINUOUS
 10
26.085759
 20
4.252330
  0
SEQEND
  8
1
  6
CONTINUOUS
  0
POLYLINE
  8
1
  6
CONTINUOUS
 66
     1
  0
VERTEX
  8
1
  6
CONTINUOUS
 10
31.735759
 20
4.652330
  0
VERTEX
  8
1
  6
CONTINUOUS
 10
26.885759
 20
4.652330
  0
SEQEND
  8
1
  6
CONTINUOUS
  0
POLYLINE
  8
1
  6
CONTINUOUS
 66
     1
  0
VERTEX
  8
1
  6
CONTINUOUS
 10
26.885759
 20
4.252330
  0
VERTEX
  8
1
  6
CONTINUOUS
 10
32.735759
 20
4.252330
  0
SEQEND
  8
1
  6
CONTINUOUS
  0
POLYLINE
  8
1
  6
CONTINUOUS
 66
     1
  0
VERTEX
  8
1
  6
CONTINUOUS
 10
42.085759
 20
4.652330
  0
VERTEX
  8
1
  6
CONTINUOUS
 10
33.735759
 20
4.652330
  0
SEQEND
  8
1
  6
CONTINUOUS
  0
POLYLINE
  8
1
  6
CONTINUOUS
 66
     1
  0
VERTEX
  8
1
  6
CONTINUOUS
 10
32.735759
 20
4.252330
  0
VERTEX
  8
1
  6
CONTINUOUS
 10
42.085759
 20
4.252330
  0
SEQEND
  8
1
  6
CONTINUOUS
  0
POLYLINE
  8
1
  6
CONTINUOUS
 66
     1
  0
VERTEX
  8
1
  6
CONTINUOUS
 10
44.085023
 20
4.652330
  0
VERTEX
  8
1
  6
CONTINUOUS
 10
42.885759
 20
4.652330
  0
SEQEND
  8
1
  6
CONTINUOUS
  0
POLYLINE
  8
1
  6
CONTINUOUS
 66
     1
  0
VERTEX
  8
1
  6
CONTINUOUS
 10
42.885759
 20
4.252330
  0
VERTEX
  8
1
  6
CONTINUOUS
 10
45.085023
 20
4.252330
  0
SEQEND
  8
1
  6
CONTINUOUS
  0
POLYLINE
  8
1
  6
CONTINUOUS
 66
     1
  0
VERTEX
  8
1
  6
CONTINUOUS
 10
52.565023
 20
4.652330
  0
VERTEX
  8
1
  6
CONTINUOUS
 10
46.085023
 20
4.652330
  0
SEQEND
  8
1
  6
CONTINUOUS
  0
POLYLINE
  8
1
  6
CONTINUOUS
 66
     1
  0
VERTEX
  8
1
  6
CONTINUOUS
 10
45.085023
 20
4.252330
  0
VERTEX
  8
1
  6
CONTINUOUS
 10
54.165023
 20
4.252330
  0
SEQEND
  8
1
  6
CONTINUOUS
  0
POLYLINE
  8
1
  6
CONTINUOUS
 66
     1
  0
VERTEX
  8
1
  6
CONTINUOUS
 10
58.085759
 20
4.652330
  0
VERTEX
  8
1
  6
CONTINUOUS
 10
55.765023
 20
4.652330
  0
SEQEND
  8
1
  6
CONTINUOUS
  0
POLYLINE
  8
1
  6
CONTINUOUS
 66
     1
  0
VERTEX
  8
1
  6
CONTINUOUS
 10
54.165023
 20
4.252330
  0
VERTEX
  8
1
  6
CONTINUOUS
 10
58.085759
 20
4.252330
  0
SEQEND
  8
1
  6
CONTINUOUS
  0
POLYLINE
  8
1
  6
CONTINUOUS
 66
     1
  0
VERTEX
  8
1
  6
CONTINUOUS
 10
61.645023
 20
4.652330
  0
VERTEX
  8
1
  6
CONTINUOUS
 10
58.885759
 20
4.652330
  0
SEQEND
  8
1
  6
CONTINUOUS
  0
POLYLINE
  8
1
  6
CONTINUOUS
 66
     1
  0
VERTEX
  8
1
  6
CONTINUOUS
 10
58.885759
 20
4.252330
  0
VERTEX
  8
1
  6
CONTINUOUS
 10
63.245023
 20
4.252330
  0
SEQEND
  8
1
  6
CONTINUOUS
  0
POLYLINE
  8
1
  6
CONTINUOUS
 66
     1
  0
VERTEX
  8
1
  6
CONTINUOUS
 10
70.725816
 20
4.652330
  0
VERTEX
  8
1
  6
CONTINUOUS
 10
64.845023
 20
4.652330
  0
SEQEND
  8
1
  6
CONTINUOUS
  0
POLYLINE
  8
1
  6
CONTINUOUS
 66
     1
  0
VERTEX
  8
1
  6
CONTINUOUS
 10
63.245023
 20
4.252330
  0
VERTEX
  8
1
  6
CONTINUOUS
 10
71.925816
 20
4.252330
  0
SEQEND
  8
1
  6
CONTINUOUS
  0
POLYLINE
  8
1
  6
CONTINUOUS
 66
     1
  0
VERTEX
  8
1
  6
CONTINUOUS
 10
74.085759
 20
4.652330
  0
VERTEX
  8
1
  6
CONTINUOUS
 10
73.125816
 20
4.652330
  0
SEQEND
  8
1
  6
CONTINUOUS
  0
POLYLINE
  8
1
  6
CONTINUOUS
 66
     1
  0
VERTEX
  8
1
  6
CONTINUOUS
 10
71.925816
 20
4.252330
  0
VERTEX
  8
1
  6
CONTINUOUS
 10
74.085759
 20
4.252330
  0
SEQEND
  8
1
  6
CONTINUOUS
  0
POLYLINE
  8
1
  6
CONTINUOUS
 66
     1
  0
VERTEX
  8
1
  6
CONTINUOUS
 10
79.446385
 20
4.652330
  0
VERTEX
  8
1
  6
CONTINUOUS
 10
74.885759
 20
4.652330
  0
SEQEND
  8
1
  6
CONTINUOUS
  0
POLYLINE
  8
1
  6
CONTINUOUS
 66
     1
  0
VERTEX
  8
1
  6
CONTINUOUS
 10
74.885759
 20
4.252330
  0
VERTEX
  8
1
  6
CONTINUOUS
 10
80.446385
 20
4.252330
  0
SEQEND
  8
1
  6
CONTINUOUS
  0
POLYLINE
  8
1
  6
CONTINUOUS
 66
     1
  0
VERTEX
  8
1
  6
CONTINUOUS
 10
91.243325
 20
4.652330
  0
VERTEX
  8
1
  6
CONTINUOUS
 10
81.446385
 20
4.652330
  0
SEQEND
  8
1
  6
CONTINUOUS
  0
POLYLINE
  8
1
  6
CONTINUOUS
 66
     1
  0
VERTEX
  8
1
  6
CONTINUOUS
 10
80.446385
 20
4.252330
  0
VERTEX
  8
1
  6
CONTINUOUS
 10
91.209469
 20
4.252330
  0
SEQEND
  8
1
  6
CONTINUOUS
  0
POLYLINE
  8
1
  6
CONTINUOUS
 66
     1
  0
VERTEX
  8
1
  6
CONTINUOUS
 10
5.285759
 20
4.652330
  0
VERTEX
  8
1
  6
CONTINUOUS
 10
5.285759
 20
4.252330
  0
SEQEND
  8
1
  6
CONTINUOUS
  0
POLYLINE
  8
1
  6
ESTILO_TQS_0001
 66
     1
  0
VERTEX
  8
1
  6
ESTILO_TQS_0001
 10
12.688393
 20
12.296199
  0
VERTEX
  8
1
  6
ESTILO_TQS_0001
 10
10.685759
 20
12.296199
  0
SEQEND
  8
1
  6
ESTILO_TQS_0001
  0
POLYLINE
  8
1
  6
ESTILO_TQS_0001
 66
     1
  0
VERTEX
  8
1
  6
ESTILO_TQS_0001
 10
10.685759
 20
7.496199
  0
VERTEX
  8
1
  6
ESTILO_TQS_0001
 10
12.688393
 20
7.496199
  0
SEQEND
  8
1
  6
ESTILO_TQS_0001
  0
POLYLINE
  8
1
  6
ESTILO_TQS_0001
 66
     1
  0
VERTEX
  8
1
  6
ESTILO_TQS_0001
 10
15.688393
 20
12.296199
  0
VERTEX
  8
1
  6
ESTILO_TQS_0001
 10
12.688393
 20
12.296199
  0
SEQEND
  8
1
  6
ESTILO_TQS_0001
  0
POLYLINE
  8
1
  6
ESTILO_TQS_0001
 66
     1
  0
VERTEX
  8
1
  6
ESTILO_TQS_0001
 10
12.688393
 20
7.496199
  0
VERTEX
  8
1
  6
ESTILO_TQS_0001
 10
15.688393
 20
7.496199
  0
SEQEND
  8
1
  6
ESTILO_TQS_0001
  0
POLYLINE
  8
1
  6
CONTINUOUS
 66
     1
  0
VERTEX
  8
1
  6
CONTINUOUS
 10
19.685759
 20
12.296199
  0
VERTEX
  8
1
  6
CONTINUOUS
 10
16.088393
 20
12.296199
  0
SEQEND
  8
1
  6
CONTINUOUS
  0
POLYLINE
  8
1
  6
CONTINUOUS
 66
     1
  0
VERTEX
  8
1
  6
CONTINUOUS
 10
16.088393
 20
7.496199
  0
VERTEX
  8
1
  6
CONTINUOUS
 10
19.685759
 20
7.496199
  0
SEQEND
  8
1
  6
CONTINUOUS
  0
POLYLINE
  8
1
  6
CONTINUOUS
 66
     1
  0
VERTEX
  8
1
  6
CONTINUOUS
 10
31.735759
 20
12.296199
  0
VERTEX
  8
1
  6
CONTINUOUS
 10
21.285759
 20
12.296199
  0
SEQEND
  8
1
  6
CONTINUOUS
  0
POLYLINE
  8
1
  6
CONTINUOUS
 66
     1
  0
VERTEX
  8
1
  6
CONTINUOUS
 10
21.285759
 20
7.496199
  0
VERTEX
  8
1
  6
CONTINUOUS
 10
31.735759
 20
7.496199
  0
SEQEND
  8
1
  6
CONTINUOUS
  0
POLYLINE
  8
1
  6
CONTINUOUS
 66
     1
  0
VERTEX
  8
1
  6
CONTINUOUS
 10
32.785759
 20
12.296199
  0
VERTEX
  8
1
  6
CONTINUOUS
 10
33.735759
 20
12.296199
  0
SEQEND
  8
1
  6
CONTINUOUS
  0
POLYLINE
  8
1
  6
CONTINUOUS
 66
     1
  0
VERTEX
  8
1
  6
CONTINUOUS
 10
33.735759
 20
7.496199
  0
VERTEX
  8
1
  6
CONTINUOUS
 10
32.785759
 20
7.496199
  0
SEQEND
  8
1
  6
CONTINUOUS
  0
POLYLINE
  8
1
  6
CONTINUOUS
 66
     1
  0
VERTEX
  8
1
  6
CONTINUOUS
 10
44.085023
 20
12.296199
  0
VERTEX
  8
1
  6
CONTINUOUS
 10
32.785759
 20
12.296199
  0
SEQEND
  8
1
  6
CONTINUOUS
  0
POLYLINE
  8
1
  6
CONTINUOUS
 66
     1
  0
VERTEX
  8
1
  6
CONTINUOUS
 10
32.785759
 20
7.496199
  0
VERTEX
  8
1
  6
CONTINUOUS
 10
44.085023
 20
7.496199
  0
SEQEND
  8
1
  6
CONTINUOUS
  0
POLYLINE
  8
1
  6
CONTINUOUS
 66
     1
  0
VERTEX
  8
1
  6
CONTINUOUS
 10
52.565023
 20
12.296199
  0
VERTEX
  8
1
  6
CONTINUOUS
 10
46.085023
 20
12.296199
  0
SEQEND
  8
1
  6
CONTINUOUS
  0
POLYLINE
  8
1
  6
CONTINUOUS
 66
     1
  0
VERTEX
  8
1
  6
CONTINUOUS
 10
46.085023
 20
7.496199
  0
VERTEX
  8
1
  6
CONTINUOUS
 10
52.565023
 20
7.496199
  0
SEQEND
  8
1
  6
CONTINUOUS
  0
POLYLINE
  8
1
  6
CONTINUOUS
 66
     1
  0
VERTEX
  8
1
  6
CONTINUOUS
 10
61.645023
 20
12.296199
  0
VERTEX
  8
1
  6
CONTINUOUS
 10
55.765023
 20
12.296199
  0
SEQEND
  8
1
  6
CONTINUOUS
  0
POLYLINE
  8
1
  6
CONTINUOUS
 66
     1
  0
VERTEX
  8
1
  6
CONTINUOUS
 10
55.765023
 20
7.496199
  0
VERTEX
  8
1
  6
CONTINUOUS
 10
61.645023
 20
7.496199
  0
SEQEND
  8
1
  6
CONTINUOUS
  0
POLYLINE
  8
1
  6
CONTINUOUS
 66
     1
  0
VERTEX
  8
1
  6
CONTINUOUS
 10
70.725816
 20
12.296199
  0
VERTEX
  8
1
  6
CONTINUOUS
 10
64.845023
 20
12.296199
  0
SEQEND
  8
1
  6
CONTINUOUS
  0
POLYLINE
  8
1
  6
CONTINUOUS
 66
     1
  0
VERTEX
  8
1
  6
CONTINUOUS
 10
64.845023
 20
7.496199
  0
VERTEX
  8
1
  6
CONTINUOUS
 10
70.725816
 20
7.496199
  0
SEQEND
  8
1
  6
CONTINUOUS
  0
POLYLINE
  8
1
  6
CONTINUOUS
 66
     1
  0
VERTEX
  8
1
  6
CONTINUOUS
 10
79.446385
 20
12.296199
  0
VERTEX
  8
1
  6
CONTINUOUS
 10
73.125816
 20
12.296199
  0
SEQEND
  8
1
  6
CONTINUOUS
  0
POLYLINE
  8
1
  6
CONTINUOUS
 66
     1
  0
VERTEX
  8
1
  6
CONTINUOUS
 10
73.125816
 20
7.496199
  0
VERTEX
  8
1
  6
CONTINUOUS
 10
79.446385
 20
7.496199
  0
SEQEND
  8
1
  6
CONTINUOUS
  0
POLYLINE
  8
1
  6
CONTINUOUS
 66
     1
  0
VERTEX
  8
1
  6
CONTINUOUS
 10
91.890455
 20
12.296199
  0
VERTEX
  8
1
  6
CONTINUOUS
 10
81.446385
 20
12.296199
  0
SEQEND
  8
1
  6
CONTINUOUS
  0
POLYLINE
  8
1
  6
CONTINUOUS
 66
     1
  0
VERTEX
  8
1
  6
CONTINUOUS
 10
81.446385
 20
7.496199
  0
VERTEX
  8
1
  6
CONTINUOUS
 10
91.484083
 20
7.496199
  0
SEQEND
  8
1
  6
CONTINUOUS
  0
POLYLINE
  8
1
  6
CONTINUOUS
 66
     1
  0
VERTEX
  8
1
  6
CONTINUOUS
 10
46.085023
 20
12.296199
  0
VERTEX
  8
1
  6
CONTINUOUS
 10
44.085023
 20
12.296199
  0
SEQEND
  8
1
  6
CONTINUOUS
  0
POLYLINE
  8
1
  6
CONTINUOUS
 66
     1
  0
VERTEX
  8
1
  6
CONTINUOUS
 10
46.085023
 20
7.496199
  0
VERTEX
  8
1
  6
CONTINUOUS
 10
44.085023
 20
7.496199
  0
SEQEND
  8
1
  6
CONTINUOUS
  0
POLYLINE
  8
1
  6
CONTINUOUS
 66
     1
  0
VERTEX
  8
1
  6
CONTINUOUS
 10
73.125816
 20
12.296199
  0
VERTEX
  8
1
  6
CONTINUOUS
 10
70.725816
 20
12.296199
  0
SEQEND
  8
1
  6
CONTINUOUS
  0
POLYLINE
  8
1
  6
CONTINUOUS
 66
     1
  0
VERTEX
  8
1
  6
CONTINUOUS
 10
73.125816
 20
7.496199
  0
VERTEX
  8
1
  6
CONTINUOUS
 10
70.725816
 20
7.496199
  0
SEQEND
  8
1
  6
CONTINUOUS
  0
POLYLINE
  8
1
  6
ESTILO_TQS_0001
 66
     1
  0
VERTEX
  8
1
  6
ESTILO_TQS_0001
 10
12.695816
 20
36.856199
  0
VERTEX
  8
1
  6
ESTILO_TQS_0001
 10
10.685759
 20
36.856199
  0
SEQEND
  8
1
  6
ESTILO_TQS_0001
  0
POLYLINE
  8
1
  6
ESTILO_TQS_0001
 66
     1
  0
VERTEX
  8
1
  6
ESTILO_TQS_0001
 10
10.685759
 20
32.056199
  0
VERTEX
  8
1
  6
ESTILO_TQS_0001
 10
12.695816
 20
32.056199
  0
SEQEND
  8
1
  6
ESTILO_TQS_0001
  0
POLYLINE
  8
1
  6
ESTILO_TQS_0001
 66
     1
  0
VERTEX
  8
1
  6
ESTILO_TQS_0001
 10
15.688393
 20
36.856199
  0
VERTEX
  8
1
  6
ESTILO_TQS_0001
 10
12.695816
 20
36.856199
  0
SEQEND
  8
1
  6
ESTILO_TQS_0001
  0
POLYLINE
  8
1
  6
ESTILO_TQS_0001
 66
     1
  0
VERTEX
  8
1
  6
ESTILO_TQS_0001
 10
12.695816
 20
32.056199
  0
VERTEX
  8
1
  6
ESTILO_TQS_0001
 10
15.688393
 20
32.056199
  0
SEQEND
  8
1
  6
ESTILO_TQS_0001
  0
POLYLINE
  8
1
  6
CONTINUOUS
 66
     1
  0
VERTEX
  8
1
  6
CONTINUOUS
 10
19.685759
 20
36.856199
  0
VERTEX
  8
1
  6
CONTINUOUS
 10
16.088393
 20
36.856199
  0
SEQEND
  8
1
  6
CONTINUOUS
  0
POLYLINE
  8
1
  6
CONTINUOUS
 66
     1
  0
VERTEX
  8
1
  6
CONTINUOUS
 10
16.088393
 20
32.056199
  0
VERTEX
  8
1
  6
CONTINUOUS
 10
19.685759
 20
32.056199
  0
SEQEND
  8
1
  6
CONTINUOUS
  0
POLYLINE
  8
1
  6
CONTINUOUS
 66
     1
  0
VERTEX
  8
1
  6
CONTINUOUS
 10
31.735759
 20
36.856199
  0
VERTEX
  8
1
  6
CONTINUOUS
 10
21.285759
 20
36.856199
  0
SEQEND
  8
1
  6
CONTINUOUS
  0
POLYLINE
  8
1
  6
CONTINUOUS
 66
     1
  0
VERTEX
  8
1
  6
CONTINUOUS
 10
21.285759
 20
32.056199
  0
VERTEX
  8
1
  6
CONTINUOUS
 10
31.735759
 20
32.056199
  0
SEQEND
  8
1
  6
CONTINUOUS
  0
POLYLINE
  8
1
  6
CONTINUOUS
 66
     1
  0
VERTEX
  8
1
  6
CONTINUOUS
 10
44.085023
 20
36.856199
  0
VERTEX
  8
1
  6
CONTINUOUS
 10
33.735759
 20
36.856199
  0
SEQEND
  8
1
  6
CONTINUOUS
  0
POLYLINE
  8
1
  6
CONTINUOUS
 66
     1
  0
VERTEX
  8
1
  6
CONTINUOUS
 10
33.735759
 20
32.056199
  0
VERTEX
  8
1
  6
CONTINUOUS
 10
44.085023
 20
32.056199
  0
SEQEND
  8
1
  6
CONTINUOUS
  0
POLYLINE
  8
1
  6
CONTINUOUS
 66
     1
  0
VERTEX
  8
1
  6
CONTINUOUS
 10
52.565023
 20
36.856199
  0
VERTEX
  8
1
  6
CONTINUOUS
 10
46.085023
 20
36.856199
  0
SEQEND
  8
1
  6
CONTINUOUS
  0
POLYLINE
  8
1
  6
CONTINUOUS
 66
     1
  0
VERTEX
  8
1
  6
CONTINUOUS
 10
46.085023
 20
32.056199
  0
VERTEX
  8
1
  6
CONTINUOUS
 10
52.565023
 20
32.056199
  0
SEQEND
  8
1
  6
CONTINUOUS
  0
POLYLINE
  8
1
  6
CONTINUOUS
 66
     1
  0
VERTEX
  8
1
  6
CONTINUOUS
 10
61.645023
 20
36.856199
  0
VERTEX
  8
1
  6
CONTINUOUS
 10
55.765023
 20
36.856199
  0
SEQEND
  8
1
  6
CONTINUOUS
  0
POLYLINE
  8
1
  6
CONTINUOUS
 66
     1
  0
VERTEX
  8
1
  6
CONTINUOUS
 10
55.765023
 20
32.056199
  0
VERTEX
  8
1
  6
CONTINUOUS
 10
61.645023
 20
32.056199
  0
SEQEND
  8
1
  6
CONTINUOUS
  0
POLYLINE
  8
1
  6
CONTINUOUS
 66
     1
  0
VERTEX
  8
1
  6
CONTINUOUS
 10
70.725816
 20
36.856199
  0
VERTEX
  8
1
  6
CONTINUOUS
 10
64.845023
 20
36.856199
  0
SEQEND
  8
1
  6
CONTINUOUS
  0
POLYLINE
  8
1
  6
CONTINUOUS
 66
     1
  0
VERTEX
  8
1
  6
CONTINUOUS
 10
64.845023
 20
32.056199
  0
VERTEX
  8
1
  6
CONTINUOUS
 10
70.725816
 20
32.056199
  0
SEQEND
  8
1
  6
CONTINUOUS
  0
POLYLINE
  8
1
  6
CONTINUOUS
 66
     1
  0
VERTEX
  8
1
  6
CONTINUOUS
 10
46.085023
 20
36.856199
  0
VERTEX
  8
1
  6
CONTINUOUS
 10
44.085023
 20
36.856199
  0
SEQEND
  8
1
  6
CONTINUOUS
  0
POLYLINE
  8
1
  6
CONTINUOUS
 66
     1
  0
VERTEX
  8
1
  6
CONTINUOUS
 10
46.085023
 20
32.056199
  0
VERTEX
  8
1
  6
CONTINUOUS
 10
44.085023
 20
32.056199
  0
SEQEND
  8
1
  6
CONTINUOUS
  0
POLYLINE
  8
1
  6
ESTILO_TQS_0001
 66
     1
  0
VERTEX
  8
1
  6
ESTILO_TQS_0001
 10
10.285759
 20
9.896199
  0
VERTEX
  8
1
  6
ESTILO_TQS_0001
 10
10.285759
 20
4.652330
  0
SEQEND
  8
1
  6
ESTILO_TQS_0001
  0
POLYLINE
  8
1
  6
ESTILO_TQS_0001
 66
     1
  0
VERTEX
  8
1
  6
ESTILO_TQS_0001
 10
10.685759
 20
4.652330
  0
VERTEX
  8
1
  6
ESTILO_TQS_0001
 10
10.685759
 20
7.496199
  0
SEQEND
  8
1
  6
ESTILO_TQS_0001
  0
POLYLINE
  8
1
  6
ESTILO_TQS_0001
 66
     1
  0
VERTEX
  8
1
  6
ESTILO_TQS_0001
 10
10.285759
 20
19.656200
  0
VERTEX
  8
1
  6
ESTILO_TQS_0001
 10
10.285759
 20
9.896199
  0
SEQEND
  8
1
  6
ESTILO_TQS_0001
  0
POLYLINE
  8
1
  6
ESTILO_TQS_0001
 66
     1
  0
VERTEX
  8
1
  6
ESTILO_TQS_0001
 10
10.685759
 20
12.296199
  0
VERTEX
  8
1
  6
ESTILO_TQS_0001
 10
10.685759
 20
19.656200
  0
SEQEND
  8
1
  6
ESTILO_TQS_0001
  0
POLYLINE
  8
1
  6
ESTILO_TQS_0001
 66
     1
  0
VERTEX
  8
1
  6
ESTILO_TQS_0001
 10
10.285759
 20
21.076199
  0
VERTEX
  8
1
  6
ESTILO_TQS_0001
 10
10.285759
 20
20.456200
  0
SEQEND
  8
1
  6
ESTILO_TQS_0001
  0
POLYLINE
  8
1
  6
ESTILO_TQS_0001
 66
     1
  0
VERTEX
  8
1
  6
ESTILO_TQS_0001
 10
10.685759
 20
20.456200
  0
VERTEX
  8
1
  6
ESTILO_TQS_0001
 10
10.685759
 20
21.076199
  0
SEQEND
  8
1
  6
ESTILO_TQS_0001
  0
POLYLINE
  8
1
  6
ESTILO_TQS_0001
 66
     1
  0
VERTEX
  8
1
  6
ESTILO_TQS_0001
 10
10.285759
 20
24.456200
  0
VERTEX
  8
1
  6
ESTILO_TQS_0001
 10
10.285759
 20
23.276199
  0
SEQEND
  8
1
  6
ESTILO_TQS_0001
  0
POLYLINE
  8
1
  6
ESTILO_TQS_0001
 66
     1
  0
VERTEX
  8
1
  6
ESTILO_TQS_0001
 10
10.685759
 20
23.276199
  0
VERTEX
  8
1
  6
ESTILO_TQS_0001
 10
10.685759
 20
24.456200
  0
SEQEND
  8
1
  6
ESTILO_TQS_0001
  0
POLYLINE
  8
1
  6
ESTILO_TQS_0001
 66
     1
  0
VERTEX
  8
1
  6
ESTILO_TQS_0001
 10
10.285759
 20
34.456199
  0
VERTEX
  8
1
  6
ESTILO_TQS_0001
 10
10.285759
 20
25.256200
  0
SEQEND
  8
1
  6
ESTILO_TQS_0001
  0
POLYLINE
  8
1
  6
ESTILO_TQS_0001
 66
     1
  0
VERTEX
  8
1
  6
ESTILO_TQS_0001
 10
10.685759
 20
25.256200
  0
VERTEX
  8
1
  6
ESTILO_TQS_0001
 10
10.685759
 20
32.056199
  0
SEQEND
  8
1
  6
ESTILO_TQS_0001
  0
POLYLINE
  8
1
  6
ESTILO_TQS_0001
 66
     1
  0
VERTEX
  8
1
  6
ESTILO_TQS_0001
 10
10.285759
 20
40.056200
  0
VERTEX
  8
1
  6
ESTILO_TQS_0001
 10
10.285759
 20
34.456199
  0
SEQEND
  8
1
  6
ESTILO_TQS_0001
  0
POLYLINE
  8
1
  6
ESTILO_TQS_0001
 66
     1
  0
VERTEX
  8
1
  6
ESTILO_TQS_0001
 10
10.685759
 20
36.856199
  0
VERTEX
  8
1
  6
ESTILO_TQS_0001
 10
10.685759
 20
40.056200
  0
SEQEND
  8
1
  6
ESTILO_TQS_0001
  0
POLYLINE
  8
1
  6
CONTINUOUS
 66
     1
  0
VERTEX
  8
1
  6
CONTINUOUS
 10
31.735759
 20
7.496199
  0
VERTEX
  8
1
  6
CONTINUOUS
 10
31.735759
 20
4.652330
  0
SEQEND
  8
1
  6
CONTINUOUS
  0
POLYLINE
  8
1
  6
CONTINUOUS
 66
     1
  0
VERTEX
  8
1
  6
CONTINUOUS
 10
33.735759
 20
4.652330
  0
VERTEX
  8
1
  6
CONTINUOUS
 10
33.735759
 20
7.496199
  0
SEQEND
  8
1
  6
CONTINUOUS
  0
POLYLINE
  8
1
  6
CONTINUOUS
 66
     1
  0
VERTEX
  8
1
  6
CONTINUOUS
 10
31.735759
 20
16.457433
  0
VERTEX
  8
1
  6
CONTINUOUS
 10
31.735759
 20
12.296199
  0
SEQEND
  8
1
  6
CONTINUOUS
  0
POLYLINE
  8
1
  6
CONTINUOUS
 66
     1
  0
VERTEX
  8
1
  6
CONTINUOUS
 10
33.735759
 20
12.296199
  0
VERTEX
  8
1
  6
CONTINUOUS
 10
33.735759
 20
16.457433
  0
SEQEND
  8
1
  6
CONTINUOUS
  0
POLYLINE
  8
1
  6
CONTINUOUS
 66
     1
  0
VERTEX
  8
1
  6
CONTINUOUS
 10
31.735759
 20
21.076199
  0
VERTEX
  8
1
  6
CONTINUOUS
 10
31.735759
 20
16.457433
  0
SEQEND
  8
1
  6
CONTINUOUS
  0
POLYLINE
  8
1
  6
CONTINUOUS
 66
     1
  0
VERTEX
  8
1
  6
CONTINUOUS
 10
33.735759
 20
16.457433
  0
VERTEX
  8
1
  6
CONTINUOUS
 10
33.735759
 20
21.076199
  0
SEQEND
  8
1
  6
CONTINUOUS
  0
POLYLINE
  8
1
  6
CONTINUOUS
 66
     1
  0
VERTEX
  8
1
  6
CONTINUOUS
 10
31.735759
 20
28.567433
  0
VERTEX
  8
1
  6
CONTINUOUS
 10
31.735759
 20
23.276199
  0
SEQEND
  8
1
  6
CONTINUOUS
  0
POLYLINE
  8
1
  6
CONTINUOUS
 66
     1
  0
VERTEX
  8
1
  6
CONTINUOUS
 10
33.735759
 20
23.276199
  0
VERTEX
  8
1
  6
CONTINUOUS
 10
33.735759
 20
28.567433
  0
SEQEND
  8
1
  6
CONTINUOUS
  0
POLYLINE
  8
1
  6
CONTINUOUS
 66
     1
  0
VERTEX
  8
1
  6
CONTINUOUS
 10
31.735759
 20
32.056199
  0
VERTEX
  8
1
  6
CONTINUOUS
 10
31.735759
 20
28.567433
  0
SEQEND
  8
1
  6
CONTINUOUS
  0
POLYLINE
  8
1
  6
CONTINUOUS
 66
     1
  0
VERTEX
  8
1
  6
CONTINUOUS
 10
33.735759
 20
28.567433
  0
VERTEX
  8
1
  6
CONTINUOUS
 10
33.735759
 20
32.056199
  0
SEQEND
  8
1
  6
CONTINUOUS
  0
POLYLINE
  8
1
  6
CONTINUOUS
 66
     1
  0
VERTEX
  8
1
  6
CONTINUOUS
 10
31.735759
 20
40.056200
  0
VERTEX
  8
1
  6
CONTINUOUS
 10
31.735759
 20
36.856199
  0
SEQEND
  8
1
  6
CONTINUOUS
  0
POLYLINE
  8
1
  6
CONTINUOUS
 66
     1
  0
VERTEX
  8
1
  6
CONTINUOUS
 10
33.735759
 20
36.856199
  0
VERTEX
  8
1
  6
CONTINUOUS
 10
33.735759
 20
40.056200
  0
SEQEND
  8
1
  6
CONTINUOUS
  0
POLYLINE
  8
1
  6
CONTINUOUS
 66
     1
  0
VERTEX
  8
1
  6
CONTINUOUS
 10
44.085023
 20
7.496199
  0
VERTEX
  8
1
  6
CONTINUOUS
 10
44.085023
 20
4.652330
  0
SEQEND
  8
1
  6
CONTINUOUS
  0
POLYLINE
  8
1
  6
CONTINUOUS
 66
     1
  0
VERTEX
  8
1
  6
CONTINUOUS
 10
46.085023
 20
4.652330
  0
VERTEX
  8
1
  6
CONTINUOUS
 10
46.085023
 20
7.496199
  0
SEQEND
  8
1
  6
CONTINUOUS
  0
POLYLINE
  8
1
  6
CONTINUOUS
 66
     1
  0
VERTEX
  8
1
  6
CONTINUOUS
 10
44.085023
 20
16.457433
  0
VERTEX
  8
1
  6
CONTINUOUS
 10
44.085023
 20
12.296199
  0
SEQEND
  8
1
  6
CONTINUOUS
  0
POLYLINE
  8
1
  6
CONTINUOUS
 66
     1
  0
VERTEX
  8
1
  6
CONTINUOUS
 10
46.085023
 20
12.296199
  0
VERTEX
  8
1
  6
CONTINUOUS
 10
46.085023
 20
16.457433
  0
SEQEND
  8
1
  6
CONTINUOUS
  0
POLYLINE
  8
1
  6
CONTINUOUS
 66
     1
  0
VERTEX
  8
1
  6
CONTINUOUS
 10
44.085023
 20
28.877433
  0
VERTEX
  8
1
  6
CONTINUOUS
 10
44.085023
 20
16.457433
  0
SEQEND
  8
1
  6
CONTINUOUS
  0
POLYLINE
  8
1
  6
CONTINUOUS
 66
     1
  0
VERTEX
  8
1
  6
CONTINUOUS
 10
46.085023
 20
16.457433
  0
VERTEX
  8
1
  6
CONTINUOUS
 10
46.085023
 20
28.877433
  0
SEQEND
  8
1
  6
CONTINUOUS
  0
POLYLINE
  8
1
  6
CONTINUOUS
 66
     1
  0
VERTEX
  8
1
  6
CONTINUOUS
 10
44.085023
 20
32.056199
  0
VERTEX
  8
1
  6
CONTINUOUS
 10
44.085023
 20
28.877433
  0
SEQEND
  8
1
  6
CONTINUOUS
  0
POLYLINE
  8
1
  6
CONTINUOUS
 66
     1
  0
VERTEX
  8
1
  6
CONTINUOUS
 10
46.085023
 20
28.877433
  0
VERTEX
  8
1
  6
CONTINUOUS
 10
46.085023
 20
32.056199
  0
SEQEND
  8
1
  6
CONTINUOUS
  0
POLYLINE
  8
1
  6
CONTINUOUS
 66
     1
  0
VERTEX
  8
1
  6
CONTINUOUS
 10
44.085023
 20
40.056200
  0
VERTEX
  8
1
  6
CONTINUOUS
 10
44.085023
 20
36.856199
  0
SEQEND
  8
1
  6
CONTINUOUS
  0
POLYLINE
  8
1
  6
CONTINUOUS
 66
     1
  0
VERTEX
  8
1
  6
CONTINUOUS
 10
46.085023
 20
36.856199
  0
VERTEX
  8
1
  6
CONTINUOUS
 10
46.085023
 20
40.056200
  0
SEQEND
  8
1
  6
CONTINUOUS
  0
POLYLINE
  8
1
  6
CONTINUOUS
 66
     1
  0
VERTEX
  8
1
  6
CONTINUOUS
 10
44.085023
 20
12.296199
  0
VERTEX
  8
1
  6
CONTINUOUS
 10
44.085023
 20
7.496199
  0
SEQEND
  8
1
  6
CONTINUOUS
  0
POLYLINE
  8
1
  6
CONTINUOUS
 66
     1
  0
VERTEX
  8
1
  6
CONTINUOUS
 10
46.085023
 20
12.296199
  0
VERTEX
  8
1
  6
CONTINUOUS
 10
46.085023
 20
7.496199
  0
SEQEND
  8
1
  6
CONTINUOUS
  0
POLYLINE
  8
1
  6
CONTINUOUS
 66
     1
  0
VERTEX
  8
1
  6
CONTINUOUS
 10
44.085023
 20
36.856199
  0
VERTEX
  8
1
  6
CONTINUOUS
 10
44.085023
 20
32.056199
  0
SEQEND
  8
1
  6
CONTINUOUS
  0
POLYLINE
  8
1
  6
CONTINUOUS
 66
     1
  0
VERTEX
  8
1
  6
CONTINUOUS
 10
46.085023
 20
36.856199
  0
VERTEX
  8
1
  6
CONTINUOUS
 10
46.085023
 20
32.056199
  0
SEQEND
  8
1
  6
CONTINUOUS
  0
POLYLINE
  8
1
  6
CONTINUOUS
 66
     1
  0
VERTEX
  8
1
  6
CONTINUOUS
 10
37.575023
 20
20.767357
  0
VERTEX
  8
1
  6
CONTINUOUS
 10
37.575023
 20
19.687433
  0
SEQEND
  8
1
  6
CONTINUOUS
  0
POLYLINE
  8
1
  6
CONTINUOUS
 66
     1
  0
VERTEX
  8
1
  6
CONTINUOUS
 10
37.975023
 20
19.967433
  0
VERTEX
  8
1
  6
CONTINUOUS
 10
37.975023
 20
20.767357
  0
SEQEND
  8
1
  6
CONTINUOUS
  0
POLYLINE
  8
1
  6
CONTINUOUS
 66
     1
  0
VERTEX
  8
1
  6
CONTINUOUS
 10
41.875028
 20
20.767357
  0
VERTEX
  8
1
  6
CONTINUOUS
 10
41.875028
 20
19.967433
  0
SEQEND
  8
1
  6
CONTINUOUS
  0
POLYLINE
  8
1
  6
CONTINUOUS
 66
     1
  0
VERTEX
  8
1
  6
CONTINUOUS
 10
42.275028
 20
19.687433
  0
VERTEX
  8
1
  6
CONTINUOUS
 10
42.275028
 20
20.767357
  0
SEQEND
  8
1
  6
CONTINUOUS
  0
POLYLINE
  8
1
  6
CONTINUOUS
 66
     1
  0
VERTEX
  8
1
  6
CONTINUOUS
 10
41.875028
 20
25.067357
  0
VERTEX
  8
1
  6
CONTINUOUS
 10
41.875028
 20
21.267357
  0
SEQEND
  8
1
  6
CONTINUOUS
  0
POLYLINE
  8
1
  6
CONTINUOUS
 66
     1
  0
VERTEX
  8
1
  6
CONTINUOUS
 10
42.275028
 20
21.267357
  0
VERTEX
  8
1
  6
CONTINUOUS
 10
42.275028
 20
25.067357
  0
SEQEND
  8
1
  6
CONTINUOUS
  0
POLYLINE
  8
1
  6
CONTINUOUS
 66
     1
  0
VERTEX
  8
1
  6
CONTINUOUS
 10
82.280876
 20
75.886062
  0
VERTEX
  8
1
  6
CONTINUOUS
 10
78.127756
 20
75.886062
  0
SEQEND
  8
1
  6
CONTINUOUS
  0
POLYLINE
  8
1
  6
CONTINUOUS
 66
     1
  0
VERTEX
  8
1
  6
CONTINUOUS
 10
78.127756
 20
75.486062
  0
VERTEX
  8
1
  6
CONTINUOUS
 10
82.140876
 20
75.486062
  0
SEQEND
  8
1
  6
CONTINUOUS
  0
POLYLINE
  8
1
  6
CONTINUOUS
 66
     1
  0
VERTEX
  8
1
  6
CONTINUOUS
 10
86.430873
 20
75.886062
  0
VERTEX
  8
1
  6
CONTINUOUS
 10
82.280876
 20
75.886062
  0
SEQEND
  8
1
  6
CONTINUOUS
  0
POLYLINE
  8
1
  6
CONTINUOUS
 66
     1
  0
VERTEX
  8
1
  6
CONTINUOUS
 10
82.420876
 20
75.486062
  0
VERTEX
  8
1
  6
CONTINUOUS
 10
86.430873
 20
75.486062
  0
SEQEND
  8
1
  6
CONTINUOUS
  0
POLYLINE
  8
1
  6
CONTINUOUS
 66
     1
  0
VERTEX
  8
1
  6
CONTINUOUS
 10
82.140876
 20
75.486062
  0
VERTEX
  8
1
  6
CONTINUOUS
 10
82.140876
 20
71.586063
  0
SEQEND
  8
1
  6
CONTINUOUS
  0
POLYLINE
  8
1
  6
CONTINUOUS
 66
     1
  0
VERTEX
  8
1
  6
CONTINUOUS
 10
82.420876
 20
71.586063
  0
VERTEX
  8
1
  6
CONTINUOUS
 10
82.420876
 20
75.486062
  0
SEQEND
  8
1
  6
CONTINUOUS
  0
POLYLINE
  8
1
  6
CONTINUOUS
 66
     1
  0
VERTEX
  8
1
  6
CONTINUOUS
 10
82.140876
 20
71.586063
  0
VERTEX
  8
1
  6
CONTINUOUS
 10
78.127756
 20
71.586063
  0
SEQEND
  8
1
  6
CONTINUOUS
  0
POLYLINE
  8
1
  6
CONTINUOUS
 66
     1
  0
VERTEX
  8
1
  6
CONTINUOUS
 10
78.127760
 20
71.186063
  0
VERTEX
  8
1
  6
CONTINUOUS
 10
82.280876
 20
71.186063
  0
SEQEND
  8
1
  6
CONTINUOUS
  0
POLYLINE
  8
1
  6
CONTINUOUS
 66
     1
  0
VERTEX
  8
1
  6
CONTINUOUS
 10
86.430873
 20
71.586063
  0
VERTEX
  8
1
  6
CONTINUOUS
 10
82.420876
 20
71.586063
  0
SEQEND
  8
1
  6
CONTINUOUS
  0
POLYLINE
  8
1
  6
CONTINUOUS
 66
     1
  0
VERTEX
  8
1
  6
CONTINUOUS
 10
82.280876
 20
71.186063
  0
VERTEX
  8
1
  6
CONTINUOUS
 10
86.430873
 20
71.186063
  0
SEQEND
  8
1
  6
CONTINUOUS
  0
POLYLINE
  8
1
  6
CONTINUOUS
 66
     1
  0
VERTEX
  8
1
  6
CONTINUOUS
 10
86.430877
 20
71.186062
  0
VERTEX
  8
1
  6
CONTINUOUS
 10
86.430877
 20
65.785229
  0
SEQEND
  8
1
  6
CONTINUOUS
  0
POLYLINE
  8
1
  6
CONTINUOUS
 66
     1
  0
VERTEX
  8
1
  6
CONTINUOUS
 10
86.830877
 20
66.185229
  0
VERTEX
  8
1
  6
CONTINUOUS
 10
86.830877
 20
71.186062
  0
SEQEND
  8
1
  6
CONTINUOUS
  0
POLYLINE
  8
1
  6
CONTINUOUS
 66
     1
  0
VERTEX
  8
1
  6
CONTINUOUS
 10
77.727760
 20
49.546195
  0
VERTEX
  8
1
  6
CONTINUOUS
 10
77.727760
 20
40.456200
  0
SEQEND
  8
1
  6
CONTINUOUS
  0
POLYLINE
  8
1
  6
CONTINUOUS
 66
     1
  0
VERTEX
  8
1
  6
CONTINUOUS
 10
78.127760
 20
40.456200
  0
VERTEX
  8
1
  6
CONTINUOUS
 10
78.127760
 20
49.546190
  0
SEQEND
  8
1
  6
CONTINUOUS
  0
POLYLINE
  8
1
  6
CONTINUOUS
 66
     1
  0
VERTEX
  8
1
  6
CONTINUOUS
 10
77.727760
 20
56.886190
  0
VERTEX
  8
1
  6
CONTINUOUS
 10
77.727760
 20
50.346195
  0
SEQEND
  8
1
  6
CONTINUOUS
  0
POLYLINE
  8
1
  6
CONTINUOUS
 66
     1
  0
VERTEX
  8
1
  6
CONTINUOUS
 10
78.127760
 20
50.346195
  0
VERTEX
  8
1
  6
CONTINUOUS
 10
78.127760
 20
56.886190
  0
SEQEND
  8
1
  6
CONTINUOUS
  0
POLYLINE
  8
1
  6
CONTINUOUS
 66
     1
  0
VERTEX
  8
1
  6
CONTINUOUS
 10
77.727760
 20
71.186062
  0
VERTEX
  8
1
  6
CONTINUOUS
 10
77.727760
 20
61.486190
  0
SEQEND
  8
1
  6
CONTINUOUS
  0
POLYLINE
  8
1
  6
CONTINUOUS
 66
     1
  0
VERTEX
  8
1
  6
CONTINUOUS
 10
78.127760
 20
61.486190
  0
VERTEX
  8
1
  6
CONTINUOUS
 10
78.127760
 20
71.186062
  0
SEQEND
  8
1
  6
CONTINUOUS
  0
POLYLINE
  8
1
  6
CONTINUOUS
 66
     1
  0
VERTEX
  8
1
  6
CONTINUOUS
 10
81.627756
 20
57.286190
  0
VERTEX
  8
1
  6
CONTINUOUS
 10
78.127756
 20
57.286190
  0
SEQEND
  8
1
  6
CONTINUOUS
  0
POLYLINE
  8
1
  6
CONTINUOUS
 66
     1
  0
VERTEX
  8
1
  6
CONTINUOUS
 10
78.127760
 20
56.886190
  0
VERTEX
  8
1
  6
CONTINUOUS
 10
81.627756
 20
56.886190
  0
SEQEND
  8
1
  6
CONTINUOUS
  0
POLYLINE
  8
1
  6
CONTINUOUS
 66
     1
  0
VERTEX
  8
1
  6
CONTINUOUS
 10
85.617760
 20
57.286190
  0
VERTEX
  8
1
  6
CONTINUOUS
 10
82.428149
 20
57.286190
  0
SEQEND
  8
1
  6
CONTINUOUS
  0
POLYLINE
  8
1
  6
CONTINUOUS
 66
     1
  0
VERTEX
  8
1
  6
CONTINUOUS
 10
82.427756
 20
56.886190
  0
VERTEX
  8
1
  6
CONTINUOUS
 10
85.617760
 20
56.886190
  0
SEQEND
  8
1
  6
CONTINUOUS
  0
POLYLINE
  8
1
  6
CONTINUOUS
 66
     1
  0
VERTEX
  8
1
  6
CONTINUOUS
 10
82.028149
 20
61.086195
  0
VERTEX
  8
1
  6
CONTINUOUS
 10
82.028149
 20
57.286195
  0
SEQEND
  8
1
  6
CONTINUOUS
  0
POLYLINE
  8
1
  6
CONTINUOUS
 66
     1
  0
VERTEX
  8
1
  6
CONTINUOUS
 10
82.428149
 20
57.286195
  0
VERTEX
  8
1
  6
CONTINUOUS
 10
82.428149
 20
61.086190
  0
SEQEND
  8
1
  6
CONTINUOUS
  0
POLYLINE
  8
1
  6
CONTINUOUS
 66
     1
  0
VERTEX
  8
1
  6
CONTINUOUS
 10
81.627756
 20
61.486190
  0
VERTEX
  8
1
  6
CONTINUOUS
 10
78.127760
 20
61.486190
  0
SEQEND
  8
1
  6
CONTINUOUS
  0
POLYLINE
  8
1
  6
CONTINUOUS
 66
     1
  0
VERTEX
  8
1
  6
CONTINUOUS
 10
78.127756
 20
61.086190
  0
VERTEX
  8
1
  6
CONTINUOUS
 10
81.627756
 20
61.086190
  0
SEQEND
  8
1
  6
CONTINUOUS
  0
POLYLINE
  8
1
  6
CONTINUOUS
 66
     1
  0
VERTEX
  8
1
  6
CONTINUOUS
 10
85.617760
 20
61.486190
  0
VERTEX
  8
1
  6
CONTINUOUS
 10
82.427756
 20
61.486190
  0
SEQEND
  8
1
  6
CONTINUOUS
  0
POLYLINE
  8
1
  6
CONTINUOUS
 66
     1
  0
VERTEX
  8
1
  6
CONTINUOUS
 10
82.428149
 20
61.086190
  0
VERTEX
  8
1
  6
CONTINUOUS
 10
85.617760
 20
61.086190
  0
SEQEND
  8
1
  6
CONTINUOUS
  0
POLYLINE
  8
1
  6
ESTILO_TQS_0001
 66
     1
  0
VERTEX
  8
1
  6
ESTILO_TQS_0001
 10
85.617760
 20
39.656200
  0
VERTEX
  8
1
  6
ESTILO_TQS_0001
 10
85.617760
 20
34.856200
  0
SEQEND
  8
1
  6
ESTILO_TQS_0001
  0
POLYLINE
  8
1
  6
CONTINUOUS
 66
     1
  0
VERTEX
  8
1
  6
CONTINUOUS
 10
86.017760
 20
35.256200
  0
VERTEX
  8
1
  6
CONTINUOUS
 10
86.017760
 20
39.656200
  0
SEQEND
  8
1
  6
CONTINUOUS
  0
POLYLINE
  8
1
  6
CONTINUOUS
 66
     1
  0
VERTEX
  8
1
  6
CONTINUOUS
 10
85.617760
 20
49.546190
  0
VERTEX
  8
1
  6
CONTINUOUS
 10
85.617760
 20
40.456200
  0
SEQEND
  8
1
  6
CONTINUOUS
  0
POLYLINE
  8
1
  6
CONTINUOUS
 66
     1
  0
VERTEX
  8
1
  6
CONTINUOUS
 10
86.017760
 20
40.456200
  0
VERTEX
  8
1
  6
CONTINUOUS
 10
86.017760
 20
49.546190
  0
SEQEND
  8
1
  6
CONTINUOUS
  0
POLYLINE
  8
1
  6
CONTINUOUS
 66
     1
  0
VERTEX
  8
1
  6
CONTINUOUS
 10
85.617760
 20
49.946190
  0
VERTEX
  8
1
  6
CONTINUOUS
 10
78.127756
 20
49.946190
  0
SEQEND
  8
1
  6
CONTINUOUS
  0
POLYLINE
  8
1
  6
CONTINUOUS
 66
     1
  0
VERTEX
  8
1
  6
CONTINUOUS
 10
78.127760
 20
49.546190
  0
VERTEX
  8
1
  6
CONTINUOUS
 10
85.617760
 20
49.546190
  0
SEQEND
  8
1
  6
CONTINUOUS
  0
POLYLINE
  8
1
  6
CONTINUOUS
 66
     1
  0
VERTEX
  8
1
  6
CONTINUOUS
 10
91.484083
 20
7.496199
  0
VERTEX
  8
1
  6
CONTINUOUS
 10
91.252543
 20
4.761297
  0
SEQEND
  8
1
  6
CONTINUOUS
  0
POLYLINE
  8
1
  6
CONTINUOUS
 66
     1
  0
VERTEX
  8
1
  6
CONTINUOUS
 10
91.850406
 20
4.710694
  0
VERTEX
  8
1
  6
CONTINUOUS
 10
92.287273
 20
9.870891
  0
SEQEND
  8
1
  6
CONTINUOUS
  0
POLYLINE
  8
1
  6
CONTINUOUS
 66
     1
  0
VERTEX
  8
1
  6
CONTINUOUS
 10
92.204124
 20
16.001205
  0
VERTEX
  8
1
  6
CONTINUOUS
 10
91.890455
 20
12.296199
  0
SEQEND
  8
1
  6
CONTINUOUS
  0
POLYLINE
  8
1
  6
CONTINUOUS
 66
     1
  0
VERTEX
  8
1
  6
CONTINUOUS
 10
92.287273
 20
9.870891
  0
VERTEX
  8
1
  6
CONTINUOUS
 10
92.801986
 20
15.950602
  0
SEQEND
  8
1
  6
CONTINUOUS
  0
POLYLINE
  8
1
  6
CONTINUOUS
 66
     1
  0
VERTEX
  8
1
  6
CONTINUOUS
 10
92.461121
 20
19.036816
  0
VERTEX
  8
1
  6
CONTINUOUS
 10
92.288483
 20
16.997641
  0
SEQEND
  8
1
  6
CONTINUOUS
  0
POLYLINE
  8
1
  6
CONTINUOUS
 66
     1
  0
VERTEX
  8
1
  6
CONTINUOUS
 10
92.886345
 20
16.947038
  0
VERTEX
  8
1
  6
CONTINUOUS
 10
93.128854
 20
19.811508
  0
SEQEND
  8
1
  6
CONTINUOUS
  0
POLYLINE
  8
1
  6
CONTINUOUS
 66
     1
  0
VERTEX
  8
1
  6
CONTINUOUS
 10
93.226508
 20
28.077433
  0
VERTEX
  8
1
  6
CONTINUOUS
 10
92.596579
 20
20.636816
  0
SEQEND
  8
1
  6
CONTINUOUS
  0
POLYLINE
  8
1
  6
CONTINUOUS
 66
     1
  0
VERTEX
  8
1
  6
CONTINUOUS
 10
93.128854
 20
19.811508
  0
VERTEX
  8
1
  6
CONTINUOUS
 10
93.842112
 20
28.236394
  0
SEQEND
  8
1
  6
CONTINUOUS
  0
POLYLINE
  8
1
  6
CONTINUOUS
 66
     1
  0
VERTEX
  8
1
  6
CONTINUOUS
 10
93.800404
 20
34.856200
  0
VERTEX
  8
1
  6
CONTINUOUS
 10
93.361965
 20
29.677433
  0
SEQEND
  8
1
  6
CONTINUOUS
  0
POLYLINE
  8
1
  6
CONTINUOUS
 66
     1
  0
VERTEX
  8
1
  6
CONTINUOUS
 10
93.926471
 20
29.232829
  0
VERTEX
  8
1
  6
CONTINUOUS
 10
94.417340
 20
35.030892
  0
SEQEND
  8
1
  6
CONTINUOUS
  0
POLYLINE
  8
1
  6
CONTINUOUS
 66
     1
  0
VERTEX
  8
1
  6
CONTINUOUS
 10
94.236510
 20
40.007405
  0
VERTEX
  8
1
  6
CONTINUOUS
 10
93.834269
 20
35.256200
  0
SEQEND
  8
1
  6
CONTINUOUS
  0
POLYLINE
  8
1
  6
CONTINUOUS
 66
     1
  0
VERTEX
  8
1
  6
CONTINUOUS
 10
94.417340
 20
35.030892
  0
VERTEX
  8
1
  6
CONTINUOUS
 10
94.834372
 20
39.956802
  0
SEQEND
  8
1
  6
CONTINUOUS
  0
POLYLINE
  8
1
  6
CONTINUOUS
 66
     1
  0
VERTEX
  8
1
  6
CONTINUOUS
 10
95.184510
 20
51.205025
  0
VERTEX
  8
1
  6
CONTINUOUS
 10
94.287125
 20
40.605266
  0
SEQEND
  8
1
  6
CONTINUOUS
  0
POLYLINE
  8
1
  6
CONTINUOUS
 66
     1
  0
VERTEX
  8
1
  6
CONTINUOUS
 10
94.884988
 20
40.554663
  0
VERTEX
  8
1
  6
CONTINUOUS
 10
95.782373
 20
51.154422
  0
SEQEND
  8
1
  6
CONTINUOUS
  0
POLYLINE
  8
1
  6
CONTINUOUS
 66
     1
  0
VERTEX
  8
1
  6
CONTINUOUS
 10
95.784358
 20
58.290323
  0
VERTEX
  8
1
  6
CONTINUOUS
 10
95.235126
 20
51.802887
  0
SEQEND
  8
1
  6
CONTINUOUS
  0
POLYLINE
  8
1
  6
CONTINUOUS
 66
     1
  0
VERTEX
  8
1
  6
CONTINUOUS
 10
95.832988
 20
51.752283
  0
VERTEX
  8
1
  6
CONTINUOUS
 10
96.401294
 20
58.465015
  0
SEQEND
  8
1
  6
CONTINUOUS
  0
POLYLINE
  8
1
  6
CONTINUOUS
 66
     1
  0
VERTEX
  8
1
  6
CONTINUOUS
 10
95.947960
 20
60.222766
  0
VERTEX
  8
1
  6
CONTINUOUS
 10
95.818222
 20
58.690323
  0
SEQEND
  8
1
  6
CONTINUOUS
  0
POLYLINE
  8
1
  6
CONTINUOUS
 66
     1
  0
VERTEX
  8
1
  6
CONTINUOUS
 10
96.401294
 20
58.465015
  0
VERTEX
  8
1
  6
CONTINUOUS
 10
96.545823
 20
60.172163
  0
SEQEND
  8
1
  6
CONTINUOUS
  0
POLYLINE
  8
1
  6
CONTINUOUS
 66
     1
  0
VERTEX
  8
1
  6
CONTINUOUS
 10
96.401989
 20
65.585680
  0
VERTEX
  8
1
  6
CONTINUOUS
 10
95.998576
 20
60.820628
  0
SEQEND
  8
1
  6
CONTINUOUS
  0
POLYLINE
  8
1
  6
CONTINUOUS
 66
     1
  0
VERTEX
  8
1
  6
CONTINUOUS
 10
96.596438
 20
60.770024
  0
VERTEX
  8
1
  6
CONTINUOUS
 10
96.999852
 20
65.535077
  0
SEQEND
  8
1
  6
CONTINUOUS
  0
POLYLINE
  8
1
  6
CONTINUOUS
 66
     1
  0
VERTEX
  8
1
  6
CONTINUOUS
 10
41.875028
 20
19.967433
  0
VERTEX
  8
1
  6
CONTINUOUS
 10
37.975023
 20
19.967433
  0
SEQEND
  8
1
  6
CONTINUOUS
  0
POLYLINE
  8
1
  6
CONTINUOUS
 66
     1
  0
VERTEX
  8
1
  6
CONTINUOUS
 10
37.575023
 20
19.687433
  0
VERTEX
  8
1
  6
CONTINUOUS
 10
42.275028
 20
19.687433
  0
SEQEND
  8
1
  6
CONTINUOUS
  0
POLYLINE
  8
1
  6
CONTINUOUS
 66
     1
  0
VERTEX
  8
1
  6
CONTINUOUS
 10
89.027755
 20
49.990385
  0
VERTEX
  8
1
  6
CONTINUOUS
 10
89.027755
 20
40.456200
  0
SEQEND
  8
1
  6
CONTINUOUS
  0
POLYLINE
  8
1
  6
CONTINUOUS
 66
     1
  0
VERTEX
  8
1
  6
CONTINUOUS
 10
89.427755
 20
40.456200
  0
VERTEX
  8
1
  6
CONTINUOUS
 10
89.427755
 20
49.990385
  0
SEQEND
  8
1
  6
CONTINUOUS
  0
POLYLINE
  8
1
  6
CONTINUOUS
 66
     1
  0
VERTEX
  8
1
  6
CONTINUOUS
 10
89.027755
 20
54.546191
  0
VERTEX
  8
1
  6
CONTINUOUS
 10
89.027755
 20
50.390385
  0
SEQEND
  8
1
  6
CONTINUOUS
  0
POLYLINE
  8
1
  6
CONTINUOUS
 66
     1
  0
VERTEX
  8
1
  6
CONTINUOUS
 10
89.427755
 20
50.390385
  0
VERTEX
  8
1
  6
CONTINUOUS
 10
89.427755
 20
54.746191
  0
SEQEND
  8
1
  6
CONTINUOUS
  0
POLYLINE
  8
1
  6
CONTINUOUS
 66
     1
  0
VERTEX
  8
1
  6
CONTINUOUS
 10
89.027755
 20
58.290323
  0
VERTEX
  8
1
  6
CONTINUOUS
 10
89.027755
 20
54.946191
  0
SEQEND
  8
1
  6
CONTINUOUS
  0
POLYLINE
  8
1
  6
CONTINUOUS
 66
     1
  0
VERTEX
  8
1
  6
CONTINUOUS
 10
89.427755
 20
54.746191
  0
VERTEX
  8
1
  6
CONTINUOUS
 10
89.427755
 20
58.290323
  0
SEQEND
  8
1
  6
CONTINUOUS
  0
POLYLINE
  8
1
  6
CONTINUOUS
 66
     1
  0
VERTEX
  8
1
  6
CONTINUOUS
 10
89.027755
 20
65.785229
  0
VERTEX
  8
1
  6
CONTINUOUS
 10
89.027755
 20
58.690323
  0
SEQEND
  8
1
  6
CONTINUOUS
  0
POLYLINE
  8
1
  6
CONTINUOUS
 66
     1
  0
VERTEX
  8
1
  6
CONTINUOUS
 10
89.427755
 20
58.690323
  0
VERTEX
  8
1
  6
CONTINUOUS
 10
89.427755
 20
65.785229
  0
SEQEND
  8
1
  6
CONTINUOUS
  0
POLYLINE
  8
1
  6
CONTINUOUS
 66
     1
  0
VERTEX
  8
1
  6
CONTINUOUS
 10
89.427755
 20
65.785229
  0
VERTEX
  8
1
  6
CONTINUOUS
 10
89.027755
 20
65.785229
  0
SEQEND
  8
1
  6
CONTINUOUS
  0
POLYLINE
  8
1
  6
CONTINUOUS
 66
     1
  0
VERTEX
  8
1
  6
CONTINUOUS
 10
89.227755
 20
66.185229
  0
VERTEX
  8
1
  6
CONTINUOUS
 10
86.830877
 20
66.185229
  0
SEQEND
  8
1
  6
CONTINUOUS
  0
POLYLINE
  8
1
  6
CONTINUOUS
 66
     1
  0
VERTEX
  8
1
  6
CONTINUOUS
 10
86.430877
 20
65.785229
  0
VERTEX
  8
1
  6
CONTINUOUS
 10
89.027755
 20
65.785229
  0
SEQEND
  8
1
  6
CONTINUOUS
  0
POLYLINE
  8
1
  6
CONTINUOUS
 66
     1
  0
VERTEX
  8
1
  6
CONTINUOUS
 10
89.541305
 20
66.185229
  0
VERTEX
  8
1
  6
CONTINUOUS
 10
89.227755
 20
66.185229
  0
SEQEND
  8
1
  6
CONTINUOUS
  0
POLYLINE
  8
1
  6
CONTINUOUS
 66
     1
  0
VERTEX
  8
1
  6
CONTINUOUS
 10
89.427755
 20
65.785229
  0
VERTEX
  8
1
  6
CONTINUOUS
 10
89.541305
 20
65.785229
  0
SEQEND
  8
1
  6
CONTINUOUS
  0
POLYLINE
  8
1
  6
CONTINUOUS
 66
     1
  0
VERTEX
  8
1
  6
CONTINUOUS
 10
96.452707
 20
66.185229
  0
VERTEX
  8
1
  6
CONTINUOUS
 10
90.401305
 20
66.185229
  0
SEQEND
  8
1
  6
CONTINUOUS
  0
POLYLINE
  8
1
  6
CONTINUOUS
 66
     1
  0
VERTEX
  8
1
  6
CONTINUOUS
 10
90.401305
 20
65.785229
  0
VERTEX
  8
1
  6
CONTINUOUS
 10
96.418851
 20
65.785229
  0
SEQEND
  8
1
  6
CONTINUOUS
  0
POLYLINE
  8
1
  6
CONTINUOUS
 66
     1
  0
VERTEX
  8
1
  6
CONTINUOUS
 10
95.818222
 20
58.690323
  0
VERTEX
  8
1
  6
CONTINUOUS
 10
89.427755
 20
58.690323
  0
SEQEND
  8
1
  6
CONTINUOUS
  0
POLYLINE
  8
1
  6
CONTINUOUS
 66
     1
  0
VERTEX
  8
1
  6
CONTINUOUS
 10
89.427755
 20
58.290323
  0
VERTEX
  8
1
  6
CONTINUOUS
 10
95.784358
 20
58.290323
  0
SEQEND
  8
1
  6
CONTINUOUS
  0
POLYLINE
  8
1
  6
CONTINUOUS
 66
     1
  0
VERTEX
  8
1
  6
CONTINUOUS
 10
95.784358
 20
58.290323
  0
VERTEX
  8
1
  6
CONTINUOUS
 10
95.818222
 20
58.690323
  0
SEQEND
  8
1
  6
CONTINUOUS
  0
POLYLINE
  8
1
  6
ESTILO_TQS_0001
 66
     1
  0
VERTEX
  8
1
  6
ESTILO_TQS_0001
 10
89.027755
 20
54.946191
  0
VERTEX
  8
1
  6
ESTILO_TQS_0001
 10
86.017760
 20
54.946191
  0
SEQEND
  8
1
  6
ESTILO_TQS_0001
  0
POLYLINE
  8
1
  6
CONTINUOUS
 66
     1
  0
VERTEX
  8
1
  6
CONTINUOUS
 10
86.017760
 20
54.546191
  0
VERTEX
  8
1
  6
CONTINUOUS
 10
89.027755
 20
54.546191
  0
SEQEND
  8
1
  6
CONTINUOUS
  0
POLYLINE
  8
1
  6
CONTINUOUS
 66
     1
  0
VERTEX
  8
1
  6
CONTINUOUS
 10
86.017760
 20
54.546191
  0
VERTEX
  8
1
  6
CONTINUOUS
 10
86.017760
 20
54.946191
  0
SEQEND
  8
1
  6
CONTINUOUS
  0
POLYLINE
  8
1
  6
CONTINUOUS
 66
     1
  0
VERTEX
  8
1
  6
CONTINUOUS
 10
89.027755
 20
54.546191
  0
VERTEX
  8
1
  6
CONTINUOUS
 10
89.027755
 20
54.946191
  0
SEQEND
  8
1
  6
CONTINUOUS
  0
POLYLINE
  8
1
  6
CONTINUOUS
 66
     1
  0
VERTEX
  8
1
  6
CONTINUOUS
 10
89.027755
 20
40.456200
  0
VERTEX
  8
1
  6
CONTINUOUS
 10
86.017760
 20
40.456200
  0
SEQEND
  8
1
  6
CONTINUOUS
  0
POLYLINE
  8
1
  6
CONTINUOUS
 66
     1
  0
VERTEX
  8
1
  6
CONTINUOUS
 10
86.017760
 20
40.056200
  0
VERTEX
  8
1
  6
CONTINUOUS
 10
89.027755
 20
40.056200
  0
SEQEND
  8
1
  6
CONTINUOUS
  0
POLYLINE
  8
1
  6
CONTINUOUS
 66
     1
  0
VERTEX
  8
1
  6
CONTINUOUS
 10
94.277139
 20
40.456200
  0
VERTEX
  8
1
  6
CONTINUOUS
 10
89.827755
 20
40.456200
  0
SEQEND
  8
1
  6
CONTINUOUS
  0
POLYLINE
  8
1
  6
CONTINUOUS
 66
     1
  0
VERTEX
  8
1
  6
CONTINUOUS
 10
89.827755
 20
40.056200
  0
VERTEX
  8
1
  6
CONTINUOUS
 10
94.243283
 20
40.056200
  0
SEQEND
  8
1
  6
CONTINUOUS
  0
POLYLINE
  8
1
  6
CONTINUOUS
 66
     1
  0
VERTEX
  8
1
  6
CONTINUOUS
 10
85.617760
 20
54.746191
  0
VERTEX
  8
1
  6
CONTINUOUS
 10
85.617760
 20
50.346190
  0
SEQEND
  8
1
  6
CONTINUOUS
  0
POLYLINE
  8
1
  6
CONTINUOUS
 66
     1
  0
VERTEX
  8
1
  6
CONTINUOUS
 10
86.017760
 20
50.346190
  0
VERTEX
  8
1
  6
CONTINUOUS
 10
86.017760
 20
54.546191
  0
SEQEND
  8
1
  6
CONTINUOUS
  0
POLYLINE
  8
1
  6
CONTINUOUS
 66
     1
  0
VERTEX
  8
1
  6
CONTINUOUS
 10
85.617760
 20
55.116190
  0
VERTEX
  8
1
  6
CONTINUOUS
 10
85.617760
 20
54.746191
  0
SEQEND
  8
1
  6
CONTINUOUS
  0
POLYLINE
  8
1
  6
CONTINUOUS
 66
     1
  0
VERTEX
  8
1
  6
CONTINUOUS
 10
86.017760
 20
54.946191
  0
VERTEX
  8
1
  6
CONTINUOUS
 10
86.017760
 20
55.116190
  0
SEQEND
  8
1
  6
CONTINUOUS
  0
POLYLINE
  8
1
  6
CONTINUOUS
 66
     1
  0
VERTEX
  8
1
  6
CONTINUOUS
 10
85.617760
 20
56.886190
  0
VERTEX
  8
1
  6
CONTINUOUS
 10
85.617760
 20
55.916190
  0
SEQEND
  8
1
  6
CONTINUOUS
  0
POLYLINE
  8
1
  6
CONTINUOUS
 66
     1
  0
VERTEX
  8
1
  6
CONTINUOUS
 10
86.017760
 20
55.916190
  0
VERTEX
  8
1
  6
CONTINUOUS
 10
86.017760
 20
57.086190
  0
SEQEND
  8
1
  6
CONTINUOUS
  0
POLYLINE
  8
1
  6
CONTINUOUS
 66
     1
  0
VERTEX
  8
1
  6
CONTINUOUS
 10
85.617760
 20
60.686190
  0
VERTEX
  8
1
  6
CONTINUOUS
 10
85.617760
 20
57.286190
  0
SEQEND
  8
1
  6
CONTINUOUS
  0
POLYLINE
  8
1
  6
CONTINUOUS
 66
     1
  0
VERTEX
  8
1
  6
CONTINUOUS
 10
86.017760
 20
57.086190
  0
VERTEX
  8
1
  6
CONTINUOUS
 10
86.017760
 20
60.686190
  0
SEQEND
  8
1
  6
CONTINUOUS
  0
POLYLINE
  8
1
  6
CONTINUOUS
 66
     1
  0
VERTEX
  8
1
  6
CONTINUOUS
 10
93.834269
 20
35.256200
  0
VERTEX
  8
1
  6
CONTINUOUS
 10
86.017760
 20
35.256200
  0
SEQEND
  8
1
  6
CONTINUOUS
  0
POLYLINE
  8
1
  6
ESTILO_TQS_0001
 66
     1
  0
VERTEX
  8
1
  6
ESTILO_TQS_0001
 10
85.617760
 20
34.856200
  0
VERTEX
  8
1
  6
ESTILO_TQS_0001
 10
93.800404
 20
34.856200
  0
SEQEND
  8
1
  6
ESTILO_TQS_0001
  0
POLYLINE
  8
1
  6
CONTINUOUS
 66
     1
  0
VERTEX
  8
1
  6
CONTINUOUS
 10
93.800404
 20
34.856200
  0
VERTEX
  8
1
  6
CONTINUOUS
 10
93.834269
 20
35.256200
  0
SEQEND
  8
1
  6
CONTINUOUS
  0
POLYLINE
  8
1
  6
CONTINUOUS
 66
     1
  0
VERTEX
  8
1
  6
CONTINUOUS
 10
19.685759
 20
7.496199
  0
VERTEX
  8
1
  6
CONTINUOUS
 10
19.685759
 20
4.652330
  0
SEQEND
  8
1
  6
CONTINUOUS
  0
POLYLINE
  8
1
  6
CONTINUOUS
 66
     1
  0
VERTEX
  8
1
  6
CONTINUOUS
 10
21.285759
 20
4.652330
  0
VERTEX
  8
1
  6
CONTINUOUS
 10
21.285759
 20
7.496199
  0
SEQEND
  8
1
  6
CONTINUOUS
  0
POLYLINE
  8
1
  6
CONTINUOUS
 66
     1
  0
VERTEX
  8
1
  6
CONTINUOUS
 10
19.685759
 20
20.256200
  0
VERTEX
  8
1
  6
CONTINUOUS
 10
19.685759
 20
12.296199
  0
SEQEND
  8
1
  6
CONTINUOUS
  0
POLYLINE
  8
1
  6
CONTINUOUS
 66
     1
  0
VERTEX
  8
1
  6
CONTINUOUS
 10
21.285759
 20
12.296199
  0
VERTEX
  8
1
  6
CONTINUOUS
 10
21.285759
 20
20.256200
  0
SEQEND
  8
1
  6
CONTINUOUS
  0
POLYLINE
  8
1
  6
CONTINUOUS
 66
     1
  0
VERTEX
  8
1
  6
CONTINUOUS
 10
19.685759
 20
21.076199
  0
VERTEX
  8
1
  6
CONTINUOUS
 10
19.685759
 20
20.256200
  0
SEQEND
  8
1
  6
CONTINUOUS
  0
POLYLINE
  8
1
  6
CONTINUOUS
 66
     1
  0
VERTEX
  8
1
  6
CONTINUOUS
 10
21.285759
 20
20.256200
  0
VERTEX
  8
1
  6
CONTINUOUS
 10
21.285759
 20
21.076199
  0
SEQEND
  8
1
  6
CONTINUOUS
  0
POLYLINE
  8
1
  6
CONTINUOUS
 66
     1
  0
VERTEX
  8
1
  6
CONTINUOUS
 10
19.685759
 20
24.656200
  0
VERTEX
  8
1
  6
CONTINUOUS
 10
19.685759
 20
23.276199
  0
SEQEND
  8
1
  6
CONTINUOUS
  0
POLYLINE
  8
1
  6
CONTINUOUS
 66
     1
  0
VERTEX
  8
1
  6
CONTINUOUS
 10
21.285759
 20
23.276199
  0
VERTEX
  8
1
  6
CONTINUOUS
 10
21.285759
 20
24.656200
  0
SEQEND
  8
1
  6
CONTINUOUS
  0
POLYLINE
  8
1
  6
CONTINUOUS
 66
     1
  0
VERTEX
  8
1
  6
CONTINUOUS
 10
19.685759
 20
32.056199
  0
VERTEX
  8
1
  6
CONTINUOUS
 10
19.685759
 20
24.656200
  0
SEQEND
  8
1
  6
CONTINUOUS
  0
POLYLINE
  8
1
  6
CONTINUOUS
 66
     1
  0
VERTEX
  8
1
  6
CONTINUOUS
 10
21.285759
 20
24.656200
  0
VERTEX
  8
1
  6
CONTINUOUS
 10
21.285759
 20
32.056199
  0
SEQEND
  8
1
  6
CONTINUOUS
  0
POLYLINE
  8
1
  6
CONTINUOUS
 66
     1
  0
VERTEX
  8
1
  6
CONTINUOUS
 10
19.685759
 20
40.056200
  0
VERTEX
  8
1
  6
CONTINUOUS
 10
19.685759
 20
36.856199
  0
SEQEND
  8
1
  6
CONTINUOUS
  0
POLYLINE
  8
1
  6
CONTINUOUS
 66
     1
  0
VERTEX
  8
1
  6
CONTINUOUS
 10
21.285759
 20
36.856199
  0
VERTEX
  8
1
  6
CONTINUOUS
 10
21.285759
 20
40.056200
  0
SEQEND
  8
1
  6
CONTINUOUS
  0
POLYLINE
  8
1
  6
ESTILO_TQS_0001
 66
     1
  0
VERTEX
  8
1
  6
ESTILO_TQS_0001
 10
10.285759
 20
23.276199
  0
VERTEX
  8
1
  6
ESTILO_TQS_0001
 10
7.208836
 20
23.276199
  0
SEQEND
  8
1
  6
ESTILO_TQS_0001
  0
POLYLINE
  8
1
  6
ESTILO_TQS_0001
 66
     1
  0
VERTEX
  8
1
  6
ESTILO_TQS_0001
 10
7.208836
 20
21.076199
  0
VERTEX
  8
1
  6
ESTILO_TQS_0001
 10
10.285759
 20
21.076199
  0
SEQEND
  8
1
  6
ESTILO_TQS_0001
  0
POLYLINE
  8
1
  6
ESTILO_TQS_0001
 66
     1
  0
VERTEX
  8
1
  6
ESTILO_TQS_0001
 10
15.688393
 20
23.276199
  0
VERTEX
  8
1
  6
ESTILO_TQS_0001
 10
10.685759
 20
23.276199
  0
SEQEND
  8
1
  6
ESTILO_TQS_0001
  0
POLYLINE
  8
1
  6
ESTILO_TQS_0001
 66
     1
  0
VERTEX
  8
1
  6
ESTILO_TQS_0001
 10
10.685759
 20
21.076199
  0
VERTEX
  8
1
  6
ESTILO_TQS_0001
 10
15.688393
 20
21.076199
  0
SEQEND
  8
1
  6
ESTILO_TQS_0001
  0
POLYLINE
  8
1
  6
CONTINUOUS
 66
     1
  0
VERTEX
  8
1
  6
CONTINUOUS
 10
19.685759
 20
23.276199
  0
VERTEX
  8
1
  6
CONTINUOUS
 10
16.088393
 20
23.276199
  0
SEQEND
  8
1
  6
CONTINUOUS
  0
POLYLINE
  8
1
  6
CONTINUOUS
 66
     1
  0
VERTEX
  8
1
  6
CONTINUOUS
 10
16.088393
 20
21.076199
  0
VERTEX
  8
1
  6
CONTINUOUS
 10
19.685759
 20
21.076199
  0
SEQEND
  8
1
  6
CONTINUOUS
  0
POLYLINE
  8
1
  6
CONTINUOUS
 66
     1
  0
VERTEX
  8
1
  6
CONTINUOUS
 10
31.735759
 20
23.276199
  0
VERTEX
  8
1
  6
CONTINUOUS
 10
21.285759
 20
23.276199
  0
SEQEND
  8
1
  6
CONTINUOUS
  0
POLYLINE
  8
1
  6
CONTINUOUS
 66
     1
  0
VERTEX
  8
1
  6
CONTINUOUS
 10
21.285759
 20
21.076199
  0
VERTEX
  8
1
  6
CONTINUOUS
 10
31.735759
 20
21.076199
  0
SEQEND
  8
1
  6
CONTINUOUS
  0
POLYLINE
  8
1
  6
CONTINUOUS
 66
     1
  0
VERTEX
  8
1
  6
CONTINUOUS
 10
37.575028
 20
23.276199
  0
VERTEX
  8
1
  6
CONTINUOUS
 10
33.735759
 20
23.276199
  0
SEQEND
  8
1
  6
CONTINUOUS
  0
POLYLINE
  8
1
  6
CONTINUOUS
 66
     1
  0
VERTEX
  8
1
  6
CONTINUOUS
 10
33.735759
 20
21.076199
  0
VERTEX
  8
1
  6
CONTINUOUS
 10
37.575028
 20
21.076199
  0
SEQEND
  8
1
  6
CONTINUOUS
  0
POLYLINE
  8
1
  6
CONTINUOUS
 66
     1
  0
VERTEX
  8
1
  6
CONTINUOUS
 10
7.208836
 20
23.276199
  0
VERTEX
  8
1
  6
CONTINUOUS
 10
7.208836
 20
21.076199
  0
SEQEND
  8
1
  6
CONTINUOUS
  0
POLYLINE
  8
1
  6
CONTINUOUS
 66
     1
  0
VERTEX
  8
1
  6
CONTINUOUS
 10
52.565023
 20
7.496199
  0
VERTEX
  8
1
  6
CONTINUOUS
 10
52.565023
 20
4.652330
  0
SEQEND
  8
1
  6
CONTINUOUS
  0
POLYLINE
  8
1
  6
CONTINUOUS
 66
     1
  0
VERTEX
  8
1
  6
CONTINUOUS
 10
55.765023
 20
4.652330
  0
VERTEX
  8
1
  6
CONTINUOUS
 10
55.765023
 20
7.496199
  0
SEQEND
  8
1
  6
CONTINUOUS
  0
POLYLINE
  8
1
  6
CONTINUOUS
 66
     1
  0
VERTEX
  8
1
  6
CONTINUOUS
 10
52.565023
 20
12.766200
  0
VERTEX
  8
1
  6
CONTINUOUS
 10
52.565023
 20
12.296199
  0
SEQEND
  8
1
  6
CONTINUOUS
  0
POLYLINE
  8
1
  6
CONTINUOUS
 66
     1
  0
VERTEX
  8
1
  6
CONTINUOUS
 10
55.765023
 20
12.296199
  0
VERTEX
  8
1
  6
CONTINUOUS
 10
55.765023
 20
12.766200
  0
SEQEND
  8
1
  6
CONTINUOUS
  0
POLYLINE
  8
1
  6
CONTINUOUS
 66
     1
  0
VERTEX
  8
1
  6
CONTINUOUS
 10
52.565023
 20
25.257433
  0
VERTEX
  8
1
  6
CONTINUOUS
 10
52.565023
 20
12.766200
  0
SEQEND
  8
1
  6
CONTINUOUS
  0
POLYLINE
  8
1
  6
CONTINUOUS
 66
     1
  0
VERTEX
  8
1
  6
CONTINUOUS
 10
55.765023
 20
12.766200
  0
VERTEX
  8
1
  6
CONTINUOUS
 10
55.765023
 20
25.257433
  0
SEQEND
  8
1
  6
CONTINUOUS
  0
POLYLINE
  8
1
  6
CONTINUOUS
 66
     1
  0
VERTEX
  8
1
  6
CONTINUOUS
 10
52.565023
 20
32.056199
  0
VERTEX
  8
1
  6
CONTINUOUS
 10
52.565023
 20
25.257433
  0
SEQEND
  8
1
  6
CONTINUOUS
  0
POLYLINE
  8
1
  6
CONTINUOUS
 66
     1
  0
VERTEX
  8
1
  6
CONTINUOUS
 10
55.765023
 20
25.257433
  0
VERTEX
  8
1
  6
CONTINUOUS
 10
55.765023
 20
32.056199
  0
SEQEND
  8
1
  6
CONTINUOUS
  0
POLYLINE
  8
1
  6
CONTINUOUS
 66
     1
  0
VERTEX
  8
1
  6
CONTINUOUS
 10
52.565023
 20
40.056200
  0
VERTEX
  8
1
  6
CONTINUOUS
 10
52.565023
 20
36.856199
  0
SEQEND
  8
1
  6
CONTINUOUS
  0
POLYLINE
  8
1
  6
CONTINUOUS
 66
     1
  0
VERTEX
  8
1
  6
CONTINUOUS
 10
55.765023
 20
36.856199
  0
VERTEX
  8
1
  6
CONTINUOUS
 10
55.765023
 20
40.056200
  0
SEQEND
  8
1
  6
CONTINUOUS
  0
POLYLINE
  8
1
  6
CONTINUOUS
 66
     1
  0
VERTEX
  8
1
  6
CONTINUOUS
 10
79.446385
 20
7.496199
  0
VERTEX
  8
1
  6
CONTINUOUS
 10
79.446385
 20
4.652330
  0
SEQEND
  8
1
  6
CONTINUOUS
  0
POLYLINE
  8
1
  6
CONTINUOUS
 66
     1
  0
VERTEX
  8
1
  6
CONTINUOUS
 10
81.446385
 20
4.652330
  0
VERTEX
  8
1
  6
CONTINUOUS
 10
81.446385
 20
7.496199
  0
SEQEND
  8
1
  6
CONTINUOUS
  0
POLYLINE
  8
1
  6
CONTINUOUS
 66
     1
  0
VERTEX
  8
1
  6
CONTINUOUS
 10
79.446385
 20
16.266200
  0
VERTEX
  8
1
  6
CONTINUOUS
 10
79.446385
 20
12.296199
  0
SEQEND
  8
1
  6
CONTINUOUS
  0
POLYLINE
  8
1
  6
CONTINUOUS
 66
     1
  0
VERTEX
  8
1
  6
CONTINUOUS
 10
81.446385
 20
12.296199
  0
VERTEX
  8
1
  6
CONTINUOUS
 10
81.446385
 20
16.266200
  0
SEQEND
  8
1
  6
CONTINUOUS
  0
POLYLINE
  8
1
  6
CONTINUOUS
 66
     1
  0
VERTEX
  8
1
  6
CONTINUOUS
 10
79.446385
 20
19.036816
  0
VERTEX
  8
1
  6
CONTINUOUS
 10
79.446385
 20
16.266200
  0
SEQEND
  8
1
  6
CONTINUOUS
  0
POLYLINE
  8
1
  6
CONTINUOUS
 66
     1
  0
VERTEX
  8
1
  6
CONTINUOUS
 10
81.446385
 20
16.266200
  0
VERTEX
  8
1
  6
CONTINUOUS
 10
81.446385
 20
19.036816
  0
SEQEND
  8
1
  6
CONTINUOUS
  0
POLYLINE
  8
1
  6
CONTINUOUS
 66
     1
  0
VERTEX
  8
1
  6
CONTINUOUS
 10
79.446385
 20
28.077433
  0
VERTEX
  8
1
  6
CONTINUOUS
 10
79.446385
 20
20.636816
  0
SEQEND
  8
1
  6
CONTINUOUS
  0
POLYLINE
  8
1
  6
CONTINUOUS
 66
     1
  0
VERTEX
  8
1
  6
CONTINUOUS
 10
81.446385
 20
20.636816
  0
VERTEX
  8
1
  6
CONTINUOUS
 10
81.446385
 20
28.077433
  0
SEQEND
  8
1
  6
CONTINUOUS
  0
POLYLINE
  8
1
  6
CONTINUOUS
 66
     1
  0
VERTEX
  8
1
  6
CONTINUOUS
 10
79.446385
 20
40.056200
  0
VERTEX
  8
1
  6
CONTINUOUS
 10
79.446385
 20
29.677433
  0
SEQEND
  8
1
  6
CONTINUOUS
  0
POLYLINE
  8
1
  6
CONTINUOUS
 66
     1
  0
VERTEX
  8
1
  6
CONTINUOUS
 10
81.446385
 20
29.677433
  0
VERTEX
  8
1
  6
CONTINUOUS
 10
81.446385
 20
40.056200
  0
SEQEND
  8
1
  6
CONTINUOUS
  0
POLYLINE
  8
1
  6
CONTINUOUS
 66
     1
  0
VERTEX
  8
1
  6
CONTINUOUS
 10
79.446385
 20
29.677433
  0
VERTEX
  8
1
  6
CONTINUOUS
 10
79.446385
 20
28.077433
  0
SEQEND
  8
1
  6
CONTINUOUS
  0
POLYLINE
  8
1
  6
CONTINUOUS
 66
     1
  0
VERTEX
  8
1
  6
CONTINUOUS
 10
81.446385
 20
29.677433
  0
VERTEX
  8
1
  6
CONTINUOUS
 10
81.446385
 20
28.077433
  0
SEQEND
  8
1
  6
CONTINUOUS
  0
POLYLINE
  8
1
  6
CONTINUOUS
 66
     1
  0
VERTEX
  8
1
  6
CONTINUOUS
 10
79.446385
 20
29.677433
  0
VERTEX
  8
1
  6
CONTINUOUS
 10
73.125816
 20
29.677433
  0
SEQEND
  8
1
  6
CONTINUOUS
  0
POLYLINE
  8
1
  6
CONTINUOUS
 66
     1
  0
VERTEX
  8
1
  6
CONTINUOUS
 10
73.125816
 20
28.077433
  0
VERTEX
  8
1
  6
CONTINUOUS
 10
79.446385
 20
28.077433
  0
SEQEND
  8
1
  6
CONTINUOUS
  0
POLYLINE
  8
1
  6
CONTINUOUS
 66
     1
  0
VERTEX
  8
1
  6
CONTINUOUS
 10
93.361965
 20
29.677433
  0
VERTEX
  8
1
  6
CONTINUOUS
 10
81.446385
 20
29.677433
  0
SEQEND
  8
1
  6
CONTINUOUS
  0
POLYLINE
  8
1
  6
CONTINUOUS
 66
     1
  0
VERTEX
  8
1
  6
CONTINUOUS
 10
81.446385
 20
28.077433
  0
VERTEX
  8
1
  6
CONTINUOUS
 10
93.226508
 20
28.077433
  0
SEQEND
  8
1
  6
CONTINUOUS
  0
POLYLINE
  8
1
  6
CONTINUOUS
 66
     1
  0
VERTEX
  8
1
  6
CONTINUOUS
 10
81.446385
 20
29.677433
  0
VERTEX
  8
1
  6
CONTINUOUS
 10
79.446385
 20
29.677433
  0
SEQEND
  8
1
  6
CONTINUOUS
  0
POLYLINE
  8
1
  6
CONTINUOUS
 66
     1
  0
VERTEX
  8
1
  6
CONTINUOUS
 10
81.446385
 20
28.077433
  0
VERTEX
  8
1
  6
CONTINUOUS
 10
79.446385
 20
28.077433
  0
SEQEND
  8
1
  6
CONTINUOUS
  0
POLYLINE
  8
1
  6
CONTINUOUS
 66
     1
  0
VERTEX
  8
1
  6
CONTINUOUS
 10
93.361965
 20
29.280609
  0
VERTEX
  8
1
  6
CONTINUOUS
 10
93.361965
 20
29.677433
  0
SEQEND
  8
1
  6
CONTINUOUS
  0
POLYLINE
  8
1
  6
CONTINUOUS
 66
     1
  0
VERTEX
  8
1
  6
CONTINUOUS
 10
79.446385
 20
20.636816
  0
VERTEX
  8
1
  6
CONTINUOUS
 10
73.125816
 20
20.636816
  0
SEQEND
  8
1
  6
CONTINUOUS
  0
POLYLINE
  8
1
  6
CONTINUOUS
 66
     1
  0
VERTEX
  8
1
  6
CONTINUOUS
 10
73.125816
 20
19.036816
  0
VERTEX
  8
1
  6
CONTINUOUS
 10
79.446385
 20
19.036816
  0
SEQEND
  8
1
  6
CONTINUOUS
  0
POLYLINE
  8
1
  6
CONTINUOUS
 66
     1
  0
VERTEX
  8
1
  6
CONTINUOUS
 10
92.596579
 20
20.636816
  0
VERTEX
  8
1
  6
CONTINUOUS
 10
81.446385
 20
20.636816
  0
SEQEND
  8
1
  6
CONTINUOUS
  0
POLYLINE
  8
1
  6
CONTINUOUS
 66
     1
  0
VERTEX
  8
1
  6
CONTINUOUS
 10
81.446385
 20
19.036816
  0
VERTEX
  8
1
  6
CONTINUOUS
 10
92.461121
 20
19.036816
  0
SEQEND
  8
1
  6
CONTINUOUS
  0
POLYLINE
  8
1
  6
ESTILO_TQS_0001
 66
     1
  0
VERTEX
  8
1
  6
ESTILO_TQS_0001
 10
15.688393
 20
7.496199
  0
VERTEX
  8
1
  6
ESTILO_TQS_0001
 10
15.688393
 20
4.652330
  0
SEQEND
  8
1
  6
ESTILO_TQS_0001
  0
POLYLINE
  8
1
  6
CONTINUOUS
 66
     1
  0
VERTEX
  8
1
  6
CONTINUOUS
 10
16.088393
 20
4.652330
  0
VERTEX
  8
1
  6
CONTINUOUS
 10
16.088393
 20
7.496199
  0
SEQEND
  8
1
  6
CONTINUOUS
  0
POLYLINE
  8
1
  6
ESTILO_TQS_0001
 66
     1
  0
VERTEX
  8
1
  6
ESTILO_TQS_0001
 10
15.688393
 20
21.076199
  0
VERTEX
  8
1
  6
ESTILO_TQS_0001
 10
15.688393
 20
12.296199
  0
SEQEND
  8
1
  6
ESTILO_TQS_0001
  0
POLYLINE
  8
1
  6
CONTINUOUS
 66
     1
  0
VERTEX
  8
1
  6
CONTINUOUS
 10
16.088393
 20
12.296199
  0
VERTEX
  8
1
  6
CONTINUOUS
 10
16.088393
 20
21.076199
  0
SEQEND
  8
1
  6
CONTINUOUS
  0
POLYLINE
  8
1
  6
ESTILO_TQS_0001
 66
     1
  0
VERTEX
  8
1
  6
ESTILO_TQS_0001
 10
15.688393
 20
32.056199
  0
VERTEX
  8
1
  6
ESTILO_TQS_0001
 10
15.688393
 20
23.276199
  0
SEQEND
  8
1
  6
ESTILO_TQS_0001
  0
POLYLINE
  8
1
  6
CONTINUOUS
 66
     1
  0
VERTEX
  8
1
  6
CONTINUOUS
 10
16.088393
 20
23.276199
  0
VERTEX
  8
1
  6
CONTINUOUS
 10
16.088393
 20
32.056199
  0
SEQEND
  8
1
  6
CONTINUOUS
  0
POLYLINE
  8
1
  6
ESTILO_TQS_0001
 66
     1
  0
VERTEX
  8
1
  6
ESTILO_TQS_0001
 10
15.688393
 20
40.056200
  0
VERTEX
  8
1
  6
ESTILO_TQS_0001
 10
15.688393
 20
36.856199
  0
SEQEND
  8
1
  6
ESTILO_TQS_0001
  0
POLYLINE
  8
1
  6
CONTINUOUS
 66
     1
  0
VERTEX
  8
1
  6
CONTINUOUS
 10
16.088393
 20
36.856199
  0
VERTEX
  8
1
  6
CONTINUOUS
 10
16.088393
 20
40.056200
  0
SEQEND
  8
1
  6
CONTINUOUS
  0
POLYLINE
  8
1
  6
CONTINUOUS
 66
     1
  0
VERTEX
  8
1
  6
CONTINUOUS
 10
61.645023
 20
7.496199
  0
VERTEX
  8
1
  6
CONTINUOUS
 10
61.645023
 20
4.652330
  0
SEQEND
  8
1
  6
CONTINUOUS
  0
POLYLINE
  8
1
  6
CONTINUOUS
 66
     1
  0
VERTEX
  8
1
  6
CONTINUOUS
 10
64.845023
 20
4.652330
  0
VERTEX
  8
1
  6
CONTINUOUS
 10
64.845023
 20
7.496199
  0
SEQEND
  8
1
  6
CONTINUOUS
  0
POLYLINE
  8
1
  6
CONTINUOUS
 66
     1
  0
VERTEX
  8
1
  6
CONTINUOUS
 10
61.645023
 20
16.266200
  0
VERTEX
  8
1
  6
CONTINUOUS
 10
61.645023
 20
12.296199
  0
SEQEND
  8
1
  6
CONTINUOUS
  0
POLYLINE
  8
1
  6
CONTINUOUS
 66
     1
  0
VERTEX
  8
1
  6
CONTINUOUS
 10
64.845023
 20
12.296199
  0
VERTEX
  8
1
  6
CONTINUOUS
 10
64.845023
 20
16.266200
  0
SEQEND
  8
1
  6
CONTINUOUS
  0
POLYLINE
  8
1
  6
CONTINUOUS
 66
     1
  0
VERTEX
  8
1
  6
CONTINUOUS
 10
61.645023
 20
26.646200
  0
VERTEX
  8
1
  6
CONTINUOUS
 10
61.645023
 20
16.266200
  0
SEQEND
  8
1
  6
CONTINUOUS
  0
POLYLINE
  8
1
  6
CONTINUOUS
 66
     1
  0
VERTEX
  8
1
  6
CONTINUOUS
 10
64.845023
 20
16.266200
  0
VERTEX
  8
1
  6
CONTINUOUS
 10
64.845023
 20
26.646200
  0
SEQEND
  8
1
  6
CONTINUOUS
  0
POLYLINE
  8
1
  6
CONTINUOUS
 66
     1
  0
VERTEX
  8
1
  6
CONTINUOUS
 10
61.645023
 20
32.056199
  0
VERTEX
  8
1
  6
CONTINUOUS
 10
61.645023
 20
26.646200
  0
SEQEND
  8
1
  6
CONTINUOUS
  0
POLYLINE
  8
1
  6
CONTINUOUS
 66
     1
  0
VERTEX
  8
1
  6
CONTINUOUS
 10
64.845023
 20
26.646200
  0
VERTEX
  8
1
  6
CONTINUOUS
 10
64.845023
 20
32.056199
  0
SEQEND
  8
1
  6
CONTINUOUS
  0
POLYLINE
  8
1
  6
CONTINUOUS
 66
     1
  0
VERTEX
  8
1
  6
CONTINUOUS
 10
61.645023
 20
40.056200
  0
VERTEX
  8
1
  6
CONTINUOUS
 10
61.645023
 20
36.856199
  0
SEQEND
  8
1
  6
CONTINUOUS
  0
POLYLINE
  8
1
  6
CONTINUOUS
 66
     1
  0
VERTEX
  8
1
  6
CONTINUOUS
 10
64.845023
 20
36.856199
  0
VERTEX
  8
1
  6
CONTINUOUS
 10
64.845023
 20
40.056200
  0
SEQEND
  8
1
  6
CONTINUOUS
  0
LINE
  8
1
  6
CONTINUOUS
 10
5.285759
 20
4.652330
 11
5.285759
 21
40.056200
  0
LINE
  8
1
  6
CONTINUOUS
 10
91.796372
 20
4.072259
 11
91.799808
 21
4.112844
  0
LINE
  8
1
  6
CONTINUOUS
 10
91.799808
 20
4.112844
 11
91.839660
 21
4.109470
  0
LINE
  8
1
  6
CONTINUOUS
 10
78.127760
 20
46.546191
 11
81.427755
 21
46.546191
  0
LINE
  8
1
  6
CONTINUOUS
 10
81.427755
 20
46.546191
 11
81.427755
 21
49.546190
  0
LINE
  8
1
  6
CONTINUOUS
 10
86.017760
 20
46.546191
 11
89.027755
 21
46.546191
  0
LINE
  8
1
  6
CONTINUOUS
 10
86.017760
 20
51.546191
 11
89.027755
 21
51.546191
  0
LINE
  8
1
  6
CONTINUOUS
 10
80.527755
 20
54.486190
 11
82.207755
 21
54.486190
  0
LINE
  8
1
  6
CONTINUOUS
 10
82.207755
 20
54.486190
 11
82.207755
 21
56.886190
  0
LINE
  8
1
  6
CONTINUOUS
 10
80.527755
 20
54.486190
 11
80.527755
 21
52.246191
  0
LINE
  8
1
  6
CONTINUOUS
 10
80.527755
 20
52.246191
 11
83.329871
 21
52.246191
  0
LINE
  8
1
  6
CONTINUOUS
 10
83.329871
 20
52.246191
 11
83.329871
 21
52.806191
  0
LINE
  8
1
  6
CONTINUOUS
 10
83.329871
 20
52.806191
 11
85.617760
 21
52.806191
  0
LINE
  8
1
  6
CONTINUOUS
 10
77.927756
 20
49.946195
 11
77.927756
 21
49.946195
  0
POLYLINE
  8
1
  6
CONTINUOUS
 66
     1
  0
VERTEX
  8
1
  6
CONTINUOUS
 10
77.727756
 20
49.546195
  0
VERTEX
  8
1
  6
CONTINUOUS
 10
78.127756
 20
49.546195
  0
VERTEX
  8
1
  6
CONTINUOUS
 10
78.127756
 20
50.346195
  0
VERTEX
  8
1
  6
CONTINUOUS
 10
77.727756
 20
50.346195
  0
VERTEX
  8
1
  6
CONTINUOUS
 10
77.727756
 20
49.546195
  0
SEQEND
  8
1
  6
CONTINUOUS
  0
LINE
  8
1
  6
CONTINUOUS
 10
12.695816
 20
34.456199
 11
12.695816
 21
34.456199
  0
CIRCLE
  8
1
  6
CONTINUOUS
 10
12.695816
 20
34.456199
 40
0.700000
  0
LINE
  8
1
  6
CONTINUOUS
 10
12.688393
 20
9.896199
 11
12.688393
 21
9.896199
  0
CIRCLE
  8
1
  6
CONTINUOUS
 10
12.688393
 20
9.896199
 40
0.700000
  0
LINE
  8
1
  6
CONTINUOUS
 10
44.911240
 20
9.896199
 11
44.911240
 21
9.896199
  0
CIRCLE
  8
1
  6
CONTINUOUS
 10
44.911240
 20
9.896199
 40
0.700000
  0
LINE
  8
1
  6
CONTINUOUS
 10
72.325816
 20
9.906200
 11
72.325816
 21
9.906200
  0
CIRCLE
  8
1
  6
CONTINUOUS
 10
72.325816
 20
9.906200
 40
0.700000
  0
LINE
  8
1
  6
CONTINUOUS
 10
72.325816
 20
34.446200
 11
72.325816
 21
34.446200
  0
CIRCLE
  8
1
  6
CONTINUOUS
 10
72.325816
 20
34.446200
 40
0.700000
  0
LINE
  8
1
  6
CONTINUOUS
 10
44.911240
 20
34.446200
 11
44.911240
 21
34.446200
  0
CIRCLE
  8
1
  6
CONTINUOUS
 10
44.911240
 20
34.446200
 40
0.700000
  0
LINE
  8
1
  6
CONTINUOUS
 10
77.727760
 20
40.256200
 11
77.727760
 21
40.256200
  0
POLYLINE
  8
1
  6
CONTINUOUS
 66
     1
  0
VERTEX
  8
1
  6
CONTINUOUS
 10
77.327760
 20
40.056200
  0
VERTEX
  8
1
  6
CONTINUOUS
 10
78.127760
 20
40.056200
  0
VERTEX
  8
1
  6
CONTINUOUS
 10
78.127760
 20
40.456200
  0
VERTEX
  8
1
  6
CONTINUOUS
 10
77.327760
 20
40.456200
  0
VERTEX
  8
1
  6
CONTINUOUS
 10
77.327760
 20
40.056200
  0
SEQEND
  8
1
  6
CONTINUOUS
  0
LINE
  8
5
  6
CONTINUOUS
 10
78.127760
 20
40.056200
 11
78.327760
 21
39.856200
  0
LINE
  8
5
  6
CONTINUOUS
 10
78.127760
 20
40.456200
 11
78.327760
 21
40.656200
  0
LINE
  8
5
  6
CONTINUOUS
 10
77.327760
 20
40.456200
 11
77.127760
 21
40.656200
  0
LINE
  8
5
  6
CONTINUOUS
 10
77.327760
 20
40.056200
 11
77.127760
 21
39.856200
  0
LINE
  8
1
  6
CONTINUOUS
 10
77.927756
 20
73.536062
 11
77.927756
 21
73.536062
  0
POLYLINE
  8
1
  6
CONTINUOUS
 66
     1
  0
VERTEX
  8
1
  6
CONTINUOUS
 10
77.727756
 20
71.186062
  0
VERTEX
  8
1
  6
CONTINUOUS
 10
78.127756
 20
71.186062
  0
VERTEX
  8
1
  6
CONTINUOUS
 10
78.127756
 20
75.886062
  0
VERTEX
  8
1
  6
CONTINUOUS
 10
77.727756
 20
75.886062
  0
VERTEX
  8
1
  6
CONTINUOUS
 10
77.727756
 20
71.186062
  0
SEQEND
  8
1
  6
CONTINUOUS
  0
LINE
  8
1
  6
CONTINUOUS
 10
86.630873
 20
73.536062
 11
86.630873
 21
73.536062
  0
POLYLINE
  8
1
  6
CONTINUOUS
 66
     1
  0
VERTEX
  8
1
  6
CONTINUOUS
 10
86.430873
 20
71.186062
  0
VERTEX
  8
1
  6
CONTINUOUS
 10
86.830873
 20
71.186062
  0
VERTEX
  8
1
  6
CONTINUOUS
 10
86.830873
 20
75.886062
  0
VERTEX
  8
1
  6
CONTINUOUS
 10
86.430873
 20
75.886062
  0
VERTEX
  8
1
  6
CONTINUOUS
 10
86.430873
 20
71.186062
  0
SEQEND
  8
1
  6
CONTINUOUS
  0
LINE
  8
1
  6
CONTINUOUS
 10
41.875028
 20
25.317357
 11
41.875028
 21
25.317357
  0
POLYLINE
  8
1
  6
CONTINUOUS
 66
     1
  0
VERTEX
  8
1
  6
CONTINUOUS
 10
41.475028
 20
25.067357
  0
VERTEX
  8
1
  6
CONTINUOUS
 10
42.275028
 20
25.067357
  0
VERTEX
  8
1
  6
CONTINUOUS
 10
42.275028
 20
25.567357
  0
VERTEX
  8
1
  6
CONTINUOUS
 10
41.475028
 20
25.567357
  0
VERTEX
  8
1
  6
CONTINUOUS
 10
41.475028
 20
25.067357
  0
SEQEND
  8
1
  6
CONTINUOUS
  0
LINE
  8
5
  6
CONTINUOUS
 10
42.275028
 20
25.067357
 11
42.475028
 21
24.867357
  0
LINE
  8
5
  6
CONTINUOUS
 10
42.275028
 20
25.567357
 11
42.475028
 21
25.767357
  0
LINE
  8
5
  6
CONTINUOUS
 10
41.475028
 20
25.567357
 11
41.275028
 21
25.767357
  0
LINE
  8
5
  6
CONTINUOUS
 10
41.475028
 20
25.067357
 11
41.275028
 21
24.867357
  0
LINE
  8
1
  6
CONTINUOUS
 10
85.817760
 20
49.946190
 11
85.817760
 21
49.946190
  0
POLYLINE
  8
1
  6
CONTINUOUS
 66
     1
  0
VERTEX
  8
1
  6
CONTINUOUS
 10
85.617760
 20
49.546190
  0
VERTEX
  8
1
  6
CONTINUOUS
 10
86.017760
 20
49.546190
  0
VERTEX
  8
1
  6
CONTINUOUS
 10
86.017760
 20
50.346190
  0
VERTEX
  8
1
  6
CONTINUOUS
 10
85.617760
 20
50.346190
  0
VERTEX
  8
1
  6
CONTINUOUS
 10
85.617760
 20
49.546190
  0
SEQEND
  8
1
  6
CONTINUOUS
  0
LINE
  8
1
  6
CONTINUOUS
 10
85.817760
 20
61.086190
 11
85.817760
 21
61.086190
  0
POLYLINE
  8
1
  6
CONTINUOUS
 66
     1
  0
VERTEX
  8
1
  6
CONTINUOUS
 10
85.617760
 20
60.686190
  0
VERTEX
  8
1
  6
CONTINUOUS
 10
86.017760
 20
60.686190
  0
VERTEX
  8
1
  6
CONTINUOUS
 10
86.017760
 20
61.486190
  0
VERTEX
  8
1
  6
CONTINUOUS
 10
85.617760
 20
61.486190
  0
VERTEX
  8
1
  6
CONTINUOUS
 10
85.617760
 20
60.686190
  0
SEQEND
  8
1
  6
CONTINUOUS
  0
LINE
  8
1
  6
CONTINUOUS
 10
82.027756
 20
61.286195
 11
82.027756
 21
61.286195
  0
POLYLINE
  8
1
  6
CONTINUOUS
 66
     1
  0
VERTEX
  8
1
  6
CONTINUOUS
 10
81.627756
 20
61.086195
  0
VERTEX
  8
1
  6
CONTINUOUS
 10
82.427756
 20
61.086195
  0
VERTEX
  8
1
  6
CONTINUOUS
 10
82.427756
 20
61.486195
  0
VERTEX
  8
1
  6
CONTINUOUS
 10
81.627756
 20
61.486195
  0
VERTEX
  8
1
  6
CONTINUOUS
 10
81.627756
 20
61.086195
  0
SEQEND
  8
1
  6
CONTINUOUS
  0
LINE
  8
1
  6
CONTINUOUS
 10
82.027756
 20
57.086195
 11
82.027756
 21
57.086195
  0
POLYLINE
  8
1
  6
CONTINUOUS
 66
     1
  0
VERTEX
  8
1
  6
CONTINUOUS
 10
81.627756
 20
56.886195
  0
VERTEX
  8
1
  6
CONTINUOUS
 10
82.427756
 20
56.886195
  0
VERTEX
  8
1
  6
CONTINUOUS
 10
82.427756
 20
57.286195
  0
VERTEX
  8
1
  6
CONTINUOUS
 10
81.627756
 20
57.286195
  0
VERTEX
  8
1
  6
CONTINUOUS
 10
81.627756
 20
56.886195
  0
SEQEND
  8
1
  6
CONTINUOUS
  0
LINE
  8
1
  6
CONTINUOUS
 10
85.817760
 20
55.516190
 11
85.817760
 21
55.516190
  0
POLYLINE
  8
1
  6
CONTINUOUS
 66
     1
  0
VERTEX
  8
1
  6
CONTINUOUS
 10
85.617760
 20
55.116190
  0
VERTEX
  8
1
  6
CONTINUOUS
 10
86.017760
 20
55.116190
  0
VERTEX
  8
1
  6
CONTINUOUS
 10
86.017760
 20
55.916190
  0
VERTEX
  8
1
  6
CONTINUOUS
 10
85.617760
 20
55.916190
  0
VERTEX
  8
1
  6
CONTINUOUS
 10
85.617760
 20
55.116190
  0
SEQEND
  8
1
  6
CONTINUOUS
  0
LINE
  8
1
  6
CONTINUOUS
 10
77.927756
 20
59.186190
 11
77.927756
 21
59.186190
  0
POLYLINE
  8
1
  6
CONTINUOUS
 66
     1
  0
VERTEX
  8
1
  6
CONTINUOUS
 10
77.727756
 20
56.886190
  0
VERTEX
  8
1
  6
CONTINUOUS
 10
78.127756
 20
56.886190
  0
VERTEX
  8
1
  6
CONTINUOUS
 10
78.127756
 20
61.486190
  0
VERTEX
  8
1
  6
CONTINUOUS
 10
77.727756
 20
61.486190
  0
VERTEX
  8
1
  6
CONTINUOUS
 10
77.727756
 20
56.886190
  0
SEQEND
  8
1
  6
CONTINUOUS
  0
LINE
  8
1
  6
CONTINUOUS
 10
91.526178
 20
4.437064
 11
91.526178
 21
4.437064
  0
POLYLINE
  8
1
  6
CONTINUOUS
 66
     1
  0
VERTEX
  8
1
  6
CONTINUOUS
 10
91.799807
 20
4.112831
  0
VERTEX
  8
1
  6
CONTINUOUS
 10
91.850410
 20
4.710693
  0
VERTEX
  8
1
  6
CONTINUOUS
 10
91.252548
 20
4.761297
  0
VERTEX
  8
1
  6
CONTINUOUS
 10
91.201945
 20
4.163434
  0
VERTEX
  8
1
  6
CONTINUOUS
 10
91.799807
 20
4.112831
  0
SEQEND
  8
1
  6
CONTINUOUS
  0
LINE
  8
1
  6
CONTINUOUS
 10
92.544898
 20
16.474150
 11
92.544898
 21
16.474150
  0
POLYLINE
  8
1
  6
CONTINUOUS
 66
     1
  0
VERTEX
  8
1
  6
CONTINUOUS
 10
92.801660
 20
15.950630
  0
VERTEX
  8
1
  6
CONTINUOUS
 10
92.885998
 20
16.947067
  0
VERTEX
  8
1
  6
CONTINUOUS
 10
92.288136
 20
16.997670
  0
VERTEX
  8
1
  6
CONTINUOUS
 10
92.203797
 20
16.001233
  0
VERTEX
  8
1
  6
CONTINUOUS
 10
92.801660
 20
15.950630
  0
SEQEND
  8
1
  6
CONTINUOUS
  0
LINE
  8
1
  6
CONTINUOUS
 10
93.584701
 20
28.759969
 11
93.584701
 21
28.759969
  0
POLYLINE
  8
1
  6
CONTINUOUS
 66
     1
  0
VERTEX
  8
1
  6
CONTINUOUS
 10
93.841462
 20
28.236449
  0
VERTEX
  8
1
  6
CONTINUOUS
 10
93.925801
 20
29.232886
  0
VERTEX
  8
1
  6
CONTINUOUS
 10
93.327939
 20
29.283489
  0
VERTEX
  8
1
  6
CONTINUOUS
 10
93.243600
 20
28.287052
  0
VERTEX
  8
1
  6
CONTINUOUS
 10
93.841462
 20
28.236449
  0
SEQEND
  8
1
  6
CONTINUOUS
  0
LINE
  8
1
  6
CONTINUOUS
 10
96.270835
 20
60.496511
 11
96.270835
 21
60.496511
  0
POLYLINE
  8
1
  6
CONTINUOUS
 66
     1
  0
VERTEX
  8
1
  6
CONTINUOUS
 10
96.544465
 20
60.172278
  0
VERTEX
  8
1
  6
CONTINUOUS
 10
96.595068
 20
60.770140
  0
VERTEX
  8
1
  6
CONTINUOUS
 10
95.997206
 20
60.820744
  0
VERTEX
  8
1
  6
CONTINUOUS
 10
95.946602
 20
60.222881
  0
VERTEX
  8
1
  6
CONTINUOUS
 10
96.544465
 20
60.172278
  0
SEQEND
  8
1
  6
CONTINUOUS
  0
LINE
  8
1
  6
CONTINUOUS
 10
95.507595
 20
51.478752
 11
95.507595
 21
51.478752
  0
POLYLINE
  8
1
  6
CONTINUOUS
 66
     1
  0
VERTEX
  8
1
  6
CONTINUOUS
 10
95.781225
 20
51.154519
  0
VERTEX
  8
1
  6
CONTINUOUS
 10
95.831828
 20
51.752382
  0
VERTEX
  8
1
  6
CONTINUOUS
 10
95.233966
 20
51.802985
  0
VERTEX
  8
1
  6
CONTINUOUS
 10
95.183362
 20
51.205123
  0
VERTEX
  8
1
  6
CONTINUOUS
 10
95.781225
 20
51.154519
  0
SEQEND
  8
1
  6
CONTINUOUS
  0
LINE
  8
1
  6
CONTINUOUS
 10
89.227755
 20
50.190385
 11
89.227755
 21
50.190385
  0
POLYLINE
  8
1
  6
CONTINUOUS
 66
     1
  0
VERTEX
  8
1
  6
CONTINUOUS
 10
89.027755
 20
49.990385
  0
VERTEX
  8
1
  6
CONTINUOUS
 10
89.427755
 20
49.990385
  0
VERTEX
  8
1
  6
CONTINUOUS
 10
89.427755
 20
50.390385
  0
VERTEX
  8
1
  6
CONTINUOUS
 10
89.027755
 20
50.390385
  0
VERTEX
  8
1
  6
CONTINUOUS
 10
89.027755
 20
49.990385
  0
SEQEND
  8
1
  6
CONTINUOUS
  0
LINE
  8
1
  6
CONTINUOUS
 10
89.227755
 20
58.490323
 11
89.227755
 21
58.490323
  0
POLYLINE
  8
1
  6
CONTINUOUS
 66
     1
  0
VERTEX
  8
1
  6
CONTINUOUS
 10
89.027755
 20
58.290323
  0
VERTEX
  8
1
  6
CONTINUOUS
 10
89.427755
 20
58.290323
  0
VERTEX
  8
1
  6
CONTINUOUS
 10
89.427755
 20
58.690323
  0
VERTEX
  8
1
  6
CONTINUOUS
 10
89.027755
 20
58.690323
  0
VERTEX
  8
1
  6
CONTINUOUS
 10
89.027755
 20
58.290323
  0
SEQEND
  8
1
  6
CONTINUOUS
  0
LINE
  8
1
  6
CONTINUOUS
 10
10.685759
 20
4.452330
 11
10.685759
 21
4.452330
  0
POLYLINE
  8
1
  6
CONTINUOUS
 66
     1
  0
VERTEX
  8
1
  6
CONTINUOUS
 10
10.285759
 20
4.252330
  0
VERTEX
  8
1
  6
CONTINUOUS
 10
11.085759
 20
4.252330
  0
VERTEX
  8
1
  6
CONTINUOUS
 10
11.085759
 20
4.652330
  0
VERTEX
  8
1
  6
CONTINUOUS
 10
10.285759
 20
4.652330
  0
VERTEX
  8
1
  6
CONTINUOUS
 10
10.285759
 20
4.252330
  0
SEQEND
  8
1
  6
CONTINUOUS
  0
LINE
  8
5
  6
CONTINUOUS
 10
11.085759
 20
4.252330
 11
11.285759
 21
4.052330
  0
LINE
  8
5
  6
CONTINUOUS
 10
11.085759
 20
4.652330
 11
11.285759
 21
4.852330
  0
LINE
  8
5
  6
CONTINUOUS
 10
10.285759
 20
4.652330
 11
10.085759
 21
4.852330
  0
LINE
  8
5
  6
CONTINUOUS
 10
10.285759
 20
4.252330
 11
10.085759
 21
4.052330
  0
LINE
  8
1
  6
CONTINUOUS
 10
42.485759
 20
4.452330
 11
42.485759
 21
4.452330
  0
POLYLINE
  8
1
  6
CONTINUOUS
 66
     1
  0
VERTEX
  8
1
  6
CONTINUOUS
 10
42.085759
 20
4.252330
  0
VERTEX
  8
1
  6
CONTINUOUS
 10
42.885759
 20
4.252330
  0
VERTEX
  8
1
  6
CONTINUOUS
 10
42.885759
 20
4.652330
  0
VERTEX
  8
1
  6
CONTINUOUS
 10
42.085759
 20
4.652330
  0
VERTEX
  8
1
  6
CONTINUOUS
 10
42.085759
 20
4.252330
  0
SEQEND
  8
1
  6
CONTINUOUS
  0
LINE
  8
5
  6
CONTINUOUS
 10
42.885759
 20
4.252330
 11
43.085759
 21
4.052330
  0
LINE
  8
5
  6
CONTINUOUS
 10
42.885759
 20
4.652330
 11
43.085759
 21
4.852330
  0
LINE
  8
5
  6
CONTINUOUS
 10
42.085759
 20
4.652330
 11
41.885759
 21
4.852330
  0
LINE
  8
5
  6
CONTINUOUS
 10
42.085759
 20
4.252330
 11
41.885759
 21
4.052330
  0
LINE
  8
1
  6
CONTINUOUS
 10
58.485759
 20
4.452330
 11
58.485759
 21
4.452330
  0
POLYLINE
  8
1
  6
CONTINUOUS
 66
     1
  0
VERTEX
  8
1
  6
CONTINUOUS
 10
58.085759
 20
4.252330
  0
VERTEX
  8
1
  6
CONTINUOUS
 10
58.885759
 20
4.252330
  0
VERTEX
  8
1
  6
CONTINUOUS
 10
58.885759
 20
4.652330
  0
VERTEX
  8
1
  6
CONTINUOUS
 10
58.085759
 20
4.652330
  0
VERTEX
  8
1
  6
CONTINUOUS
 10
58.085759
 20
4.252330
  0
SEQEND
  8
1
  6
CONTINUOUS
  0
LINE
  8
5
  6
CONTINUOUS
 10
58.885759
 20
4.252330
 11
59.085759
 21
4.052330
  0
LINE
  8
5
  6
CONTINUOUS
 10
58.885759
 20
4.652330
 11
59.085759
 21
4.852330
  0
LINE
  8
5
  6
CONTINUOUS
 10
58.085759
 20
4.652330
 11
57.885759
 21
4.852330
  0
LINE
  8
5
  6
CONTINUOUS
 10
58.085759
 20
4.252330
 11
57.885759
 21
4.052330
  0
LINE
  8
1
  6
CONTINUOUS
 10
74.485759
 20
4.452330
 11
74.485759
 21
4.452330
  0
POLYLINE
  8
1
  6
CONTINUOUS
 66
     1
  0
VERTEX
  8
1
  6
CONTINUOUS
 10
74.085759
 20
4.252330
  0
VERTEX
  8
1
  6
CONTINUOUS
 10
74.885759
 20
4.252330
  0
VERTEX
  8
1
  6
CONTINUOUS
 10
74.885759
 20
4.652330
  0
VERTEX
  8
1
  6
CONTINUOUS
 10
74.085759
 20
4.652330
  0
VERTEX
  8
1
  6
CONTINUOUS
 10
74.085759
 20
4.252330
  0
SEQEND
  8
1
  6
CONTINUOUS
  0
LINE
  8
5
  6
CONTINUOUS
 10
74.885759
 20
4.252330
 11
75.085759
 21
4.052330
  0
LINE
  8
5
  6
CONTINUOUS
 10
74.885759
 20
4.652330
 11
75.085759
 21
4.852330
  0
LINE
  8
5
  6
CONTINUOUS
 10
74.085759
 20
4.652330
 11
73.885759
 21
4.852330
  0
LINE
  8
5
  6
CONTINUOUS
 10
74.085759
 20
4.252330
 11
73.885759
 21
4.052330
  0
LINE
  8
1
  6
CONTINUOUS
 10
10.485759
 20
20.056200
 11
10.485759
 21
20.056200
  0
POLYLINE
  8
1
  6
CONTINUOUS
 66
     1
  0
VERTEX
  8
1
  6
CONTINUOUS
 10
10.285759
 20
19.656200
  0
VERTEX
  8
1
  6
CONTINUOUS
 10
10.685759
 20
19.656200
  0
VERTEX
  8
1
  6
CONTINUOUS
 10
10.685759
 20
20.456200
  0
VERTEX
  8
1
  6
CONTINUOUS
 10
10.285759
 20
20.456200
  0
VERTEX
  8
1
  6
CONTINUOUS
 10
10.285759
 20
19.656200
  0
SEQEND
  8
1
  6
CONTINUOUS
  0
LINE
  8
5
  6
CONTINUOUS
 10
10.685759
 20
19.656200
 11
10.885759
 21
19.456200
  0
LINE
  8
5
  6
CONTINUOUS
 10
10.685759
 20
20.456200
 11
10.885759
 21
20.656200
  0
LINE
  8
5
  6
CONTINUOUS
 10
10.285759
 20
20.456200
 11
10.085759
 21
20.656200
  0
LINE
  8
5
  6
CONTINUOUS
 10
10.285759
 20
19.656200
 11
10.085759
 21
19.456200
  0
LINE
  8
1
  6
CONTINUOUS
 10
20.485759
 20
20.256200
 11
20.485759
 21
20.256200
  0
POLYLINE
  8
1
  6
CONTINUOUS
 66
     1
  0
VERTEX
  8
1
  6
CONTINUOUS
 10
20.085759
 20
20.056200
  0
VERTEX
  8
1
  6
CONTINUOUS
 10
20.885759
 20
20.056200
  0
VERTEX
  8
1
  6
CONTINUOUS
 10
20.885759
 20
20.456200
  0
VERTEX
  8
1
  6
CONTINUOUS
 10
20.085759
 20
20.456200
  0
VERTEX
  8
1
  6
CONTINUOUS
 10
20.085759
 20
20.056200
  0
SEQEND
  8
1
  6
CONTINUOUS
  0
LINE
  8
5
  6
CONTINUOUS
 10
20.885759
 20
20.056200
 11
21.085759
 21
19.856200
  0
LINE
  8
5
  6
CONTINUOUS
 10
20.885759
 20
20.456200
 11
21.085759
 21
20.656200
  0
LINE
  8
5
  6
CONTINUOUS
 10
20.085759
 20
20.456200
 11
19.885759
 21
20.656200
  0
LINE
  8
5
  6
CONTINUOUS
 10
20.085759
 20
20.056200
 11
19.885759
 21
19.856200
  0
LINE
  8
1
  6
CONTINUOUS
 10
32.795759
 20
16.457433
 11
32.795759
 21
16.457433
  0
POLYLINE
  8
1
  6
CONTINUOUS
 66
     1
  0
VERTEX
  8
1
  6
CONTINUOUS
 10
32.595759
 20
16.057433
  0
VERTEX
  8
1
  6
CONTINUOUS
 10
32.995759
 20
16.057433
  0
VERTEX
  8
1
  6
CONTINUOUS
 10
32.995759
 20
16.857433
  0
VERTEX
  8
1
  6
CONTINUOUS
 10
32.595759
 20
16.857433
  0
VERTEX
  8
1
  6
CONTINUOUS
 10
32.595759
 20
16.057433
  0
SEQEND
  8
1
  6
CONTINUOUS
  0
LINE
  8
5
  6
CONTINUOUS
 10
32.995759
 20
16.057433
 11
33.195759
 21
15.857433
  0
LINE
  8
5
  6
CONTINUOUS
 10
32.995759
 20
16.857433
 11
33.195759
 21
17.057433
  0
LINE
  8
5
  6
CONTINUOUS
 10
32.595759
 20
16.857433
 11
32.395759
 21
17.057433
  0
LINE
  8
5
  6
CONTINUOUS
 10
32.595759
 20
16.057433
 11
32.395759
 21
15.857433
  0
LINE
  8
1
  6
CONTINUOUS
 10
45.285023
 20
16.457433
 11
45.285023
 21
16.457433
  0
POLYLINE
  8
1
  6
CONTINUOUS
 66
     1
  0
VERTEX
  8
1
  6
CONTINUOUS
 10
45.085023
 20
16.057433
  0
VERTEX
  8
1
  6
CONTINUOUS
 10
45.485023
 20
16.057433
  0
VERTEX
  8
1
  6
CONTINUOUS
 10
45.485023
 20
16.857433
  0
VERTEX
  8
1
  6
CONTINUOUS
 10
45.085023
 20
16.857433
  0
VERTEX
  8
1
  6
CONTINUOUS
 10
45.085023
 20
16.057433
  0
SEQEND
  8
1
  6
CONTINUOUS
  0
LINE
  8
5
  6
CONTINUOUS
 10
45.485023
 20
16.057433
 11
45.685023
 21
15.857433
  0
LINE
  8
5
  6
CONTINUOUS
 10
45.485023
 20
16.857433
 11
45.685023
 21
17.057433
  0
LINE
  8
5
  6
CONTINUOUS
 10
45.085023
 20
16.857433
 11
44.885023
 21
17.057433
  0
LINE
  8
5
  6
CONTINUOUS
 10
45.085023
 20
16.057433
 11
44.885023
 21
15.857433
  0
LINE
  8
1
  6
CONTINUOUS
 10
54.165023
 20
12.766200
 11
54.165023
 21
12.766200
  0
POLYLINE
  8
1
  6
CONTINUOUS
 66
     1
  0
VERTEX
  8
1
  6
CONTINUOUS
 10
53.765023
 20
12.566200
  0
VERTEX
  8
1
  6
CONTINUOUS
 10
54.565023
 20
12.566200
  0
VERTEX
  8
1
  6
CONTINUOUS
 10
54.565023
 20
12.966200
  0
VERTEX
  8
1
  6
CONTINUOUS
 10
53.765023
 20
12.966200
  0
VERTEX
  8
1
  6
CONTINUOUS
 10
53.765023
 20
12.566200
  0
SEQEND
  8
1
  6
CONTINUOUS
  0
LINE
  8
5
  6
CONTINUOUS
 10
54.565023
 20
12.566200
 11
54.765023
 21
12.366200
  0
LINE
  8
5
  6
CONTINUOUS
 10
54.565023
 20
12.966200
 11
54.765023
 21
13.166200
  0
LINE
  8
5
  6
CONTINUOUS
 10
53.765023
 20
12.966200
 11
53.565023
 21
13.166200
  0
LINE
  8
5
  6
CONTINUOUS
 10
53.765023
 20
12.566200
 11
53.565023
 21
12.366200
  0
LINE
  8
1
  6
CONTINUOUS
 10
71.851072
 20
16.466200
 11
71.851072
 21
16.466200
  0
POLYLINE
  8
1
  6
CONTINUOUS
 66
     1
  0
VERTEX
  8
1
  6
CONTINUOUS
 10
71.651072
 20
16.066200
  0
VERTEX
  8
1
  6
CONTINUOUS
 10
72.051072
 20
16.066200
  0
VERTEX
  8
1
  6
CONTINUOUS
 10
72.051072
 20
16.866200
  0
VERTEX
  8
1
  6
CONTINUOUS
 10
71.651072
 20
16.866200
  0
VERTEX
  8
1
  6
CONTINUOUS
 10
71.651072
 20
16.066200
  0
SEQEND
  8
1
  6
CONTINUOUS
  0
LINE
  8
5
  6
CONTINUOUS
 10
72.051072
 20
16.066200
 11
72.251072
 21
15.866200
  0
LINE
  8
5
  6
CONTINUOUS
 10
72.051072
 20
16.866200
 11
72.251072
 21
17.066200
  0
LINE
  8
5
  6
CONTINUOUS
 10
71.651072
 20
16.866200
 11
71.451072
 21
17.066200
  0
LINE
  8
5
  6
CONTINUOUS
 10
71.651072
 20
16.066200
 11
71.451072
 21
15.866200
  0
LINE
  8
1
  6
CONTINUOUS
 10
80.506385
 20
16.266200
 11
80.506385
 21
16.266200
  0
POLYLINE
  8
1
  6
CONTINUOUS
 66
     1
  0
VERTEX
  8
1
  6
CONTINUOUS
 10
80.306385
 20
15.866200
  0
VERTEX
  8
1
  6
CONTINUOUS
 10
80.706385
 20
15.866200
  0
VERTEX
  8
1
  6
CONTINUOUS
 10
80.706385
 20
16.666200
  0
VERTEX
  8
1
  6
CONTINUOUS
 10
80.306385
 20
16.666200
  0
VERTEX
  8
1
  6
CONTINUOUS
 10
80.306385
 20
15.866200
  0
SEQEND
  8
1
  6
CONTINUOUS
  0
LINE
  8
5
  6
CONTINUOUS
 10
80.706385
 20
15.866200
 11
80.906385
 21
15.666200
  0
LINE
  8
5
  6
CONTINUOUS
 10
80.706385
 20
16.666200
 11
80.906385
 21
16.866200
  0
LINE
  8
5
  6
CONTINUOUS
 10
80.306385
 20
16.666200
 11
80.106385
 21
16.866200
  0
LINE
  8
5
  6
CONTINUOUS
 10
80.306385
 20
15.866200
 11
80.106385
 21
15.666200
  0
LINE
  8
1
  6
CONTINUOUS
 10
10.685759
 20
40.256200
 11
10.685759
 21
40.256200
  0
POLYLINE
  8
1
  6
CONTINUOUS
 66
     1
  0
VERTEX
  8
1
  6
CONTINUOUS
 10
10.285759
 20
40.056200
  0
VERTEX
  8
1
  6
CONTINUOUS
 10
11.085759
 20
40.056200
  0
VERTEX
  8
1
  6
CONTINUOUS
 10
11.085759
 20
40.456200
  0
VERTEX
  8
1
  6
CONTINUOUS
 10
10.285759
 20
40.456200
  0
VERTEX
  8
1
  6
CONTINUOUS
 10
10.285759
 20
40.056200
  0
SEQEND
  8
1
  6
CONTINUOUS
  0
LINE
  8
5
  6
CONTINUOUS
 10
11.085759
 20
40.056200
 11
11.285759
 21
39.856200
  0
LINE
  8
5
  6
CONTINUOUS
 10
11.085759
 20
40.456200
 11
11.285759
 21
40.656200
  0
LINE
  8
5
  6
CONTINUOUS
 10
10.285759
 20
40.456200
 11
10.085759
 21
40.656200
  0
LINE
  8
5
  6
CONTINUOUS
 10
10.285759
 20
40.056200
 11
10.085759
 21
39.856200
  0
LINE
  8
1
  6
CONTINUOUS
 10
26.485759
 20
40.256200
 11
26.485759
 21
40.256200
  0
POLYLINE
  8
1
  6
CONTINUOUS
 66
     1
  0
VERTEX
  8
1
  6
CONTINUOUS
 10
26.085759
 20
40.056200
  0
VERTEX
  8
1
  6
CONTINUOUS
 10
26.885759
 20
40.056200
  0
VERTEX
  8
1
  6
CONTINUOUS
 10
26.885759
 20
40.456200
  0
VERTEX
  8
1
  6
CONTINUOUS
 10
26.085759
 20
40.456200
  0
VERTEX
  8
1
  6
CONTINUOUS
 10
26.085759
 20
40.056200
  0
SEQEND
  8
1
  6
CONTINUOUS
  0
LINE
  8
5
  6
CONTINUOUS
 10
26.885759
 20
40.056200
 11
27.085759
 21
39.856200
  0
LINE
  8
5
  6
CONTINUOUS
 10
26.885759
 20
40.456200
 11
27.085759
 21
40.656200
  0
LINE
  8
5
  6
CONTINUOUS
 10
26.085759
 20
40.456200
 11
25.885759
 21
40.656200
  0
LINE
  8
5
  6
CONTINUOUS
 10
26.085759
 20
40.056200
 11
25.885759
 21
39.856200
  0
LINE
  8
1
  6
CONTINUOUS
 10
42.485759
 20
40.256200
 11
42.485759
 21
40.256200
  0
POLYLINE
  8
1
  6
CONTINUOUS
 66
     1
  0
VERTEX
  8
1
  6
CONTINUOUS
 10
42.085759
 20
40.056200
  0
VERTEX
  8
1
  6
CONTINUOUS
 10
42.885759
 20
40.056200
  0
VERTEX
  8
1
  6
CONTINUOUS
 10
42.885759
 20
40.456200
  0
VERTEX
  8
1
  6
CONTINUOUS
 10
42.085759
 20
40.456200
  0
VERTEX
  8
1
  6
CONTINUOUS
 10
42.085759
 20
40.056200
  0
SEQEND
  8
1
  6
CONTINUOUS
  0
LINE
  8
5
  6
CONTINUOUS
 10
42.885759
 20
40.056200
 11
43.085759
 21
39.856200
  0
LINE
  8
5
  6
CONTINUOUS
 10
42.885759
 20
40.456200
 11
43.085759
 21
40.656200
  0
LINE
  8
5
  6
CONTINUOUS
 10
42.085759
 20
40.456200
 11
41.885759
 21
40.656200
  0
LINE
  8
5
  6
CONTINUOUS
 10
42.085759
 20
40.056200
 11
41.885759
 21
39.856200
  0
LINE
  8
1
  6
CONTINUOUS
 10
58.485759
 20
40.256200
 11
58.485759
 21
40.256200
  0
POLYLINE
  8
1
  6
CONTINUOUS
 66
     1
  0
VERTEX
  8
1
  6
CONTINUOUS
 10
58.085759
 20
40.056200
  0
VERTEX
  8
1
  6
CONTINUOUS
 10
58.885759
 20
40.056200
  0
VERTEX
  8
1
  6
CONTINUOUS
 10
58.885759
 20
40.456200
  0
VERTEX
  8
1
  6
CONTINUOUS
 10
58.085759
 20
40.456200
  0
VERTEX
  8
1
  6
CONTINUOUS
 10
58.085759
 20
40.056200
  0
SEQEND
  8
1
  6
CONTINUOUS
  0
LINE
  8
5
  6
CONTINUOUS
 10
58.885759
 20
40.056200
 11
59.085759
 21
39.856200
  0
LINE
  8
5
  6
CONTINUOUS
 10
58.885759
 20
40.456200
 11
59.085759
 21
40.656200
  0
LINE
  8
5
  6
CONTINUOUS
 10
58.085759
 20
40.456200
 11
57.885759
 21
40.656200
  0
LINE
  8
5
  6
CONTINUOUS
 10
58.085759
 20
40.056200
 11
57.885759
 21
39.856200
  0
LINE
  8
1
  6
CONTINUOUS
 10
71.851072
 20
26.446200
 11
71.851072
 21
26.446200
  0
POLYLINE
  8
1
  6
CONTINUOUS
 66
     1
  0
VERTEX
  8
1
  6
CONTINUOUS
 10
71.651072
 20
26.046200
  0
VERTEX
  8
1
  6
CONTINUOUS
 10
72.051072
 20
26.046200
  0
VERTEX
  8
1
  6
CONTINUOUS
 10
72.051072
 20
26.846200
  0
VERTEX
  8
1
  6
CONTINUOUS
 10
71.651072
 20
26.846200
  0
VERTEX
  8
1
  6
CONTINUOUS
 10
71.651072
 20
26.046200
  0
SEQEND
  8
1
  6
CONTINUOUS
  0
LINE
  8
5
  6
CONTINUOUS
 10
72.051072
 20
26.046200
 11
72.251072
 21
25.846200
  0
LINE
  8
5
  6
CONTINUOUS
 10
72.051072
 20
26.846200
 11
72.251072
 21
27.046200
  0
LINE
  8
5
  6
CONTINUOUS
 10
71.651072
 20
26.846200
 11
71.451072
 21
27.046200
  0
LINE
  8
5
  6
CONTINUOUS
 10
71.651072
 20
26.046200
 11
71.451072
 21
25.846200
  0
LINE
  8
1
  6
CONTINUOUS
 10
80.506385
 20
28.877433
 11
80.506385
 21
28.877433
  0
POLYLINE
  8
1
  6
CONTINUOUS
 66
     1
  0
VERTEX
  8
1
  6
CONTINUOUS
 10
80.306385
 20
28.477433
  0
VERTEX
  8
1
  6
CONTINUOUS
 10
80.706385
 20
28.477433
  0
VERTEX
  8
1
  6
CONTINUOUS
 10
80.706385
 20
29.277433
  0
VERTEX
  8
1
  6
CONTINUOUS
 10
80.306385
 20
29.277433
  0
VERTEX
  8
1
  6
CONTINUOUS
 10
80.306385
 20
28.477433
  0
SEQEND
  8
1
  6
CONTINUOUS
  0
LINE
  8
5
  6
CONTINUOUS
 10
80.706385
 20
28.477433
 11
80.906385
 21
28.277433
  0
LINE
  8
5
  6
CONTINUOUS
 10
80.706385
 20
29.277433
 11
80.906385
 21
29.477433
  0
LINE
  8
5
  6
CONTINUOUS
 10
80.306385
 20
29.277433
 11
80.106385
 21
29.477433
  0
LINE
  8
5
  6
CONTINUOUS
 10
80.306385
 20
28.477433
 11
80.106385
 21
28.277433
  0
LINE
  8
1
  6
CONTINUOUS
 10
45.285023
 20
28.877433
 11
45.285023
 21
28.877433
  0
POLYLINE
  8
1
  6
CONTINUOUS
 66
     1
  0
VERTEX
  8
1
  6
CONTINUOUS
 10
44.885023
 20
28.677433
  0
VERTEX
  8
1
  6
CONTINUOUS
 10
45.685023
 20
28.677433
  0
VERTEX
  8
1
  6
CONTINUOUS
 10
45.685023
 20
29.077433
  0
VERTEX
  8
1
  6
CONTINUOUS
 10
44.885023
 20
29.077433
  0
VERTEX
  8
1
  6
CONTINUOUS
 10
44.885023
 20
28.677433
  0
SEQEND
  8
1
  6
CONTINUOUS
  0
LINE
  8
5
  6
CONTINUOUS
 10
45.685023
 20
28.677433
 11
45.885023
 21
28.477433
  0
LINE
  8
5
  6
CONTINUOUS
 10
45.685023
 20
29.077433
 11
45.885023
 21
29.277433
  0
LINE
  8
5
  6
CONTINUOUS
 10
44.885023
 20
29.077433
 11
44.685023
 21
29.277433
  0
LINE
  8
5
  6
CONTINUOUS
 10
44.885023
 20
28.677433
 11
44.685023
 21
28.477433
  0
LINE
  8
1
  6
CONTINUOUS
 10
54.165023
 20
25.257433
 11
54.165023
 21
25.257433
  0
POLYLINE
  8
1
  6
CONTINUOUS
 66
     1
  0
VERTEX
  8
1
  6
CONTINUOUS
 10
53.765023
 20
25.057433
  0
VERTEX
  8
1
  6
CONTINUOUS
 10
54.565023
 20
25.057433
  0
VERTEX
  8
1
  6
CONTINUOUS
 10
54.565023
 20
25.457433
  0
VERTEX
  8
1
  6
CONTINUOUS
 10
53.765023
 20
25.457433
  0
VERTEX
  8
1
  6
CONTINUOUS
 10
53.765023
 20
25.057433
  0
SEQEND
  8
1
  6
CONTINUOUS
  0
LINE
  8
5
  6
CONTINUOUS
 10
54.565023
 20
25.057433
 11
54.765023
 21
24.857433
  0
LINE
  8
5
  6
CONTINUOUS
 10
54.565023
 20
25.457433
 11
54.765023
 21
25.657433
  0
LINE
  8
5
  6
CONTINUOUS
 10
53.765023
 20
25.457433
 11
53.565023
 21
25.657433
  0
LINE
  8
5
  6
CONTINUOUS
 10
53.765023
 20
25.057433
 11
53.565023
 21
24.857433
  0
LINE
  8
1
  6
CONTINUOUS
 10
10.485759
 20
24.856200
 11
10.485759
 21
24.856200
  0
POLYLINE
  8
1
  6
CONTINUOUS
 66
     1
  0
VERTEX
  8
1
  6
CONTINUOUS
 10
10.285759
 20
24.456200
  0
VERTEX
  8
1
  6
CONTINUOUS
 10
10.685759
 20
24.456200
  0
VERTEX
  8
1
  6
CONTINUOUS
 10
10.685759
 20
25.256200
  0
VERTEX
  8
1
  6
CONTINUOUS
 10
10.285759
 20
25.256200
  0
VERTEX
  8
1
  6
CONTINUOUS
 10
10.285759
 20
24.456200
  0
SEQEND
  8
1
  6
CONTINUOUS
  0
LINE
  8
5
  6
CONTINUOUS
 10
10.685759
 20
24.456200
 11
10.885759
 21
24.256200
  0
LINE
  8
5
  6
CONTINUOUS
 10
10.685759
 20
25.256200
 11
10.885759
 21
25.456200
  0
LINE
  8
5
  6
CONTINUOUS
 10
10.285759
 20
25.256200
 11
10.085759
 21
25.456200
  0
LINE
  8
5
  6
CONTINUOUS
 10
10.285759
 20
24.456200
 11
10.085759
 21
24.256200
  0
LINE
  8
1
  6
CONTINUOUS
 10
20.485759
 20
24.656200
 11
20.485759
 21
24.656200
  0
POLYLINE
  8
1
  6
CONTINUOUS
 66
     1
  0
VERTEX
  8
1
  6
CONTINUOUS
 10
20.085759
 20
24.456200
  0
VERTEX
  8
1
  6
CONTINUOUS
 10
20.885759
 20
24.456200
  0
VERTEX
  8
1
  6
CONTINUOUS
 10
20.885759
 20
24.856200
  0
VERTEX
  8
1
  6
CONTINUOUS
 10
20.085759
 20
24.856200
  0
VERTEX
  8
1
  6
CONTINUOUS
 10
20.085759
 20
24.456200
  0
SEQEND
  8
1
  6
CONTINUOUS
  0
LINE
  8
5
  6
CONTINUOUS
 10
20.885759
 20
24.456200
 11
21.085759
 21
24.256200
  0
LINE
  8
5
  6
CONTINUOUS
 10
20.885759
 20
24.856200
 11
21.085759
 21
25.056200
  0
LINE
  8
5
  6
CONTINUOUS
 10
20.085759
 20
24.856200
 11
19.885759
 21
25.056200
  0
LINE
  8
5
  6
CONTINUOUS
 10
20.085759
 20
24.456200
 11
19.885759
 21
24.256200
  0
LINE
  8
1
  6
CONTINUOUS
 10
32.785759
 20
28.567433
 11
32.785759
 21
28.567433
  0
POLYLINE
  8
1
  6
CONTINUOUS
 66
     1
  0
VERTEX
  8
1
  6
CONTINUOUS
 10
32.585759
 20
28.167433
  0
VERTEX
  8
1
  6
CONTINUOUS
 10
32.985759
 20
28.167433
  0
VERTEX
  8
1
  6
CONTINUOUS
 10
32.985759
 20
28.967433
  0
VERTEX
  8
1
  6
CONTINUOUS
 10
32.585759
 20
28.967433
  0
VERTEX
  8
1
  6
CONTINUOUS
 10
32.585759
 20
28.167433
  0
SEQEND
  8
1
  6
CONTINUOUS
  0
LINE
  8
5
  6
CONTINUOUS
 10
32.985759
 20
28.167433
 11
33.185759
 21
27.967433
  0
LINE
  8
5
  6
CONTINUOUS
 10
32.985759
 20
28.967433
 11
33.185759
 21
29.167433
  0
LINE
  8
5
  6
CONTINUOUS
 10
32.585759
 20
28.967433
 11
32.385759
 21
29.167433
  0
LINE
  8
5
  6
CONTINUOUS
 10
32.585759
 20
28.167433
 11
32.385759
 21
27.967433
  0
LINE
  8
1
  6
CONTINUOUS
 10
89.971305
 20
65.985229
 11
89.971305
 21
65.985229
  0
POLYLINE
  8
1
  6
CONTINUOUS
 66
     1
  0
VERTEX
  8
1
  6
CONTINUOUS
 10
89.541305
 20
65.785229
  0
VERTEX
  8
1
  6
CONTINUOUS
 10
90.401305
 20
65.785229
  0
VERTEX
  8
1
  6
CONTINUOUS
 10
90.401305
 20
66.185229
  0
VERTEX
  8
1
  6
CONTINUOUS
 10
89.541305
 20
66.185229
  0
VERTEX
  8
1
  6
CONTINUOUS
 10
89.541305
 20
65.785229
  0
SEQEND
  8
1
  6
CONTINUOUS
  0
LINE
  8
1
  6
CONTINUOUS
 10
89.427755
 20
40.256200
 11
89.427755
 21
40.256200
  0
POLYLINE
  8
1
  6
CONTINUOUS
 66
     1
  0
VERTEX
  8
1
  6
CONTINUOUS
 10
89.027755
 20
40.056200
  0
VERTEX
  8
1
  6
CONTINUOUS
 10
89.827755
 20
40.056200
  0
VERTEX
  8
1
  6
CONTINUOUS
 10
89.827755
 20
40.456200
  0
VERTEX
  8
1
  6
CONTINUOUS
 10
89.027755
 20
40.456200
  0
VERTEX
  8
1
  6
CONTINUOUS
 10
89.027755
 20
40.056200
  0
SEQEND
  8
1
  6
CONTINUOUS
  0
LINE
  8
5
  6
CONTINUOUS
 10
89.827755
 20
40.056200
 11
90.027755
 21
39.856200
  0
LINE
  8
5
  6
CONTINUOUS
 10
89.827755
 20
40.456200
 11
90.027755
 21
40.656200
  0
LINE
  8
5
  6
CONTINUOUS
 10
89.027755
 20
40.456200
 11
88.827755
 21
40.656200
  0
LINE
  8
5
  6
CONTINUOUS
 10
89.027755
 20
40.056200
 11
88.827755
 21
39.856200
  0
LINE
  8
1
  6
CONTINUOUS
 10
85.817760
 20
40.056200
 11
85.817760
 21
40.056200
  0
POLYLINE
  8
1
  6
CONTINUOUS
 66
     1
  0
VERTEX
  8
1
  6
CONTINUOUS
 10
85.617760
 20
39.656200
  0
VERTEX
  8
1
  6
CONTINUOUS
 10
86.017760
 20
39.656200
  0
VERTEX
  8
1
  6
CONTINUOUS
 10
86.017760
 20
40.456200
  0
VERTEX
  8
1
  6
CONTINUOUS
 10
85.617760
 20
40.456200
  0
VERTEX
  8
1
  6
CONTINUOUS
 10
85.617760
 20
39.656200
  0
SEQEND
  8
1
  6
CONTINUOUS
  0
LINE
  8
1
  6
CONTINUOUS
 10
96.726194
 20
65.859312
 11
96.726194
 21
65.859312
  0
POLYLINE
  8
1
  6
CONTINUOUS
 66
     1
  0
VERTEX
  8
1
  6
CONTINUOUS
 10
96.999824
 20
65.535079
  0
VERTEX
  8
1
  6
CONTINUOUS
 10
97.050427
 20
66.132941
  0
VERTEX
  8
1
  6
CONTINUOUS
 10
96.452565
 20
66.183544
  0
VERTEX
  8
1
  6
CONTINUOUS
 10
96.401961
 20
65.585682
  0
VERTEX
  8
1
  6
CONTINUOUS
 10
96.999824
 20
65.535079
  0
SEQEND
  8
1
  6
CONTINUOUS
  0
LINE
  8
1
  6
CONTINUOUS
 10
39.320482
 20
23.167357
 11
39.320482
 21
23.167357
  0
LINE
  8
1
  6
CONTINUOUS
 10
37.825028
 20
25.317357
 11
37.825028
 21
25.317357
  0
POLYLINE
  8
1
  6
CONTINUOUS
 66
     1
  0
VERTEX
  8
1
  6
CONTINUOUS
 10
37.575028
 20
25.567357
  0
VERTEX
  8
1
  6
CONTINUOUS
 10
37.575028
 20
20.767357
  0
VERTEX
  8
1
  6
CONTINUOUS
 10
42.275028
 20
20.767357
  0
VERTEX
  8
1
  6
CONTINUOUS
 10
42.275028
 20
21.267357
  0
VERTEX
  8
1
  6
CONTINUOUS
 10
38.075028
 20
21.267357
  0
VERTEX
  8
1
  6
CONTINUOUS
 10
38.075028
 20
25.067357
  0
VERTEX
  8
1
  6
CONTINUOUS
 10
42.275028
 20
25.067357
  0
VERTEX
  8
1
  6
CONTINUOUS
 10
42.275028
 20
25.567357
  0
VERTEX
  8
1
  6
CONTINUOUS
 10
37.575028
 20
25.567357
  0
SEQEND
  8
1
  6
CONTINUOUS
  0
LINE
  8
1
  6
CONTINUOUS
 10
63.245023
 20
26.646200
 11
63.245023
 21
26.646200
  0
POLYLINE
  8
1
  6
CONTINUOUS
 66
     1
  0
VERTEX
  8
1
  6
CONTINUOUS
 10
62.645023
 20
26.446200
  0
VERTEX
  8
1
  6
CONTINUOUS
 10
63.845023
 20
26.446200
  0
VERTEX
  8
1
  6
CONTINUOUS
 10
63.845023
 20
26.846200
  0
VERTEX
  8
1
  6
CONTINUOUS
 10
62.645023
 20
26.846200
  0
VERTEX
  8
1
  6
CONTINUOUS
 10
62.645023
 20
26.446200
  0
SEQEND
  8
1
  6
CONTINUOUS
  0
LINE
  8
5
  6
CONTINUOUS
 10
63.845023
 20
26.446200
 11
64.045023
 21
26.246200
  0
LINE
  8
5
  6
CONTINUOUS
 10
63.845023
 20
26.846200
 11
64.045023
 21
27.046200
  0
LINE
  8
5
  6
CONTINUOUS
 10
62.645023
 20
26.846200
 11
62.445023
 21
27.046200
  0
LINE
  8
5
  6
CONTINUOUS
 10
62.645023
 20
26.446200
 11
62.445023
 21
26.246200
  0
LINE
  8
1
  6
CONTINUOUS
 10
63.245023
 20
16.266200
 11
63.245023
 21
16.266200
  0
POLYLINE
  8
1
  6
CONTINUOUS
 66
     1
  0
VERTEX
  8
1
  6
CONTINUOUS
 10
62.845023
 20
16.066200
  0
VERTEX
  8
1
  6
CONTINUOUS
 10
63.645023
 20
16.066200
  0
VERTEX
  8
1
  6
CONTINUOUS
 10
63.645023
 20
16.466200
  0
VERTEX
  8
1
  6
CONTINUOUS
 10
62.845023
 20
16.466200
  0
VERTEX
  8
1
  6
CONTINUOUS
 10
62.845023
 20
16.066200
  0
SEQEND
  8
1
  6
CONTINUOUS
  0
LINE
  8
5
  6
CONTINUOUS
 10
63.645023
 20
16.066200
 11
63.845023
 21
15.866200
  0
LINE
  8
5
  6
CONTINUOUS
 10
63.645023
 20
16.466200
 11
63.845023
 21
16.666200
  0
LINE
  8
5
  6
CONTINUOUS
 10
62.845023
 20
16.466200
 11
62.645023
 21
16.666200
  0
LINE
  8
5
  6
CONTINUOUS
 10
62.845023
 20
16.066200
 11
62.645023
 21
15.866200
  0
LINE
  8
1
  6
CONTINUOUS
 10
26.485759
 20
4.452330
 11
26.485759
 21
4.452330
  0
POLYLINE
  8
1
  6
CONTINUOUS
 66
     1
  0
VERTEX
  8
1
  6
CONTINUOUS
 10
26.085759
 20
4.252330
  0
VERTEX
  8
1
  6
CONTINUOUS
 10
26.885759
 20
4.252330
  0
VERTEX
  8
1
  6
CONTINUOUS
 10
26.885759
 20
4.652330
  0
VERTEX
  8
1
  6
CONTINUOUS
 10
26.085759
 20
4.652330
  0
VERTEX
  8
1
  6
CONTINUOUS
 10
26.085759
 20
4.252330
  0
SEQEND
  8
1
  6
CONTINUOUS
  0
LINE
  8
5
  6
CONTINUOUS
 10
26.885759
 20
4.252330
 11
27.085759
 21
4.052330
  0
LINE
  8
5
  6
CONTINUOUS
 10
26.885759
 20
4.652330
 11
27.085759
 21
4.852330
  0
LINE
  8
5
  6
CONTINUOUS
 10
26.085759
 20
4.652330
 11
25.885759
 21
4.852330
  0
LINE
  8
5
  6
CONTINUOUS
 10
26.085759
 20
4.252330
 11
25.885759
 21
4.052330
  0
LINE
  8
1
  6
CONTINUOUS
 10
94.563367
 20
40.280813
 11
94.563367
 21
40.280813
  0
POLYLINE
  8
1
  6
CONTINUOUS
 66
     1
  0
VERTEX
  8
1
  6
CONTINUOUS
 10
94.836996
 20
39.956580
  0
VERTEX
  8
1
  6
CONTINUOUS
 10
94.887600
 20
40.554442
  0
VERTEX
  8
1
  6
CONTINUOUS
 10
94.289737
 20
40.605045
  0
VERTEX
  8
1
  6
CONTINUOUS
 10
94.239134
 20
40.007183
  0
VERTEX
  8
1
  6
CONTINUOUS
 10
94.836996
 20
39.956580
  0
SEQEND
  8
1
  6
CONTINUOUS
  0
LINE
  8
1
  6
CONTINUOUS
 10
37.975023
 20
19.967433
 11
41.875028
 21
20.767357
  0
LINE
  8
1
  6
CONTINUOUS
 10
37.975023
 20
20.767357
 11
41.875028
 21
19.967433
  0
LINE
  8
1
  6
CONTINUOUS
 10
86.017760
 20
51.546191
 11
89.027755
 21
54.546191
  0
LINE
  8
1
  6
CONTINUOUS
 10
86.017760
 20
54.546191
 11
89.027755
 21
51.546191
  0
LINE
  8
1
  6
CONTINUOUS
 10
38.075028
 20
21.267357
 11
41.875028
 21
25.067357
  0
LINE
  8
1
  6
CONTINUOUS
 10
38.075028
 20
25.067357
 11
41.875028
 21
21.267357
  0
LINE
  8
1
  6
CONTINUOUS
 10
78.127756
 20
57.286190
 11
82.028149
 21
61.086195
  0
LINE
  8
1
  6
CONTINUOUS
 10
78.127761
 20
61.086190
 11
82.028144
 21
57.286195
  0
LINE
  8
1
  6
CONTINUOUS
 10
82.420876
 20
71.586063
 11
86.430873
 21
75.486062
  0
LINE
  8
1
  6
CONTINUOUS
 10
82.420876
 20
75.486062
 11
86.430873
 21
71.586063
  0
LINE
  8
1
  6
CONTINUOUS
 10
78.127756
 20
71.586063
 11
82.140876
 21
75.486062
  0
LINE
  8
1
  6
CONTINUOUS
 10
78.127756
 20
75.486062
 11
82.140876
 21
71.586063
  0
LINE
  8
1
  6
CONTINUOUS
 10
86.017760
 20
40.456200
 11
89.027755
 21
46.546191
  0
LINE
  8
1
  6
CONTINUOUS
 10
86.017760
 20
46.546191
 11
89.027755
 21
40.456200
  0
LINE
  8
1
  6
CONTINUOUS
 10
78.127756
 20
49.946190
 11
80.610034
 21
52.246191
  0
LINE
  8
1
  6
CONTINUOUS
 10
78.127760
 20
56.886186
 11
80.717959
 21
54.486190
  0
LINE
  8
1
  6
CONTINUOUS
 10
83.135482
 20
52.246191
 11
85.617760
 21
49.946190
  0
LINE
  8
1
  6
CONTINUOUS
 10
78.127760
 20
40.456200
 11
85.617760
 21
49.546190
  0
LINE
  8
1
  6
CONTINUOUS
 10
80.599710
 20
46.546191
 11
85.617760
 21
40.456200
  0
LINE
  8
1
  6
CONTINUOUS
 10
89.427755
 20
40.456200
 11
95.784358
 21
58.290323
  0
LINE
  8
1
  6
CONTINUOUS
 10
89.427755
 20
58.290323
 11
94.564300
 21
43.879202
  0
LINE
  8
4
  6
CONTINUOUS
 10
5.925759
 20
4.452330
 11
5.925759
 21
3.552330
  0
LINE
  8
4
  6
CONTINUOUS
 10
5.858259
 20
3.552330
 11
5.993259
 21
3.552330
  0
LINE
  8
4
  6
CONTINUOUS
 10
5.858259
 20
3.552330
 11
5.925759
 21
2.652330
  0
LINE
  8
4
  6
CONTINUOUS
 10
5.993259
 20
3.552330
 11
5.925759
 21
2.652330
  0
LINE
  8
4
  6
CONTINUOUS
 10
5.790759
 20
3.747331
 11
6.060759
 21
3.747331
  0
LINE
  8
4
  6
CONTINUOUS
 10
5.790759
 20
3.897330
 11
6.060759
 21
3.897330
  0
LINE
  8
4
  6
CONTINUOUS
 10
5.925759
 20
38.956200
 11
5.925759
 21
40.156200
  0
LINE
  8
4
  6
CONTINUOUS
 10
6.045759
 20
40.156200
 11
5.805759
 21
40.156200
  0
LINE
  8
4
  6
CONTINUOUS
 10
6.045759
 20
40.132200
 11
5.805759
 21
40.132200
  0
LINE
  8
4
  6
CONTINUOUS
 10
6.045759
 20
40.108200
 11
5.805759
 21
40.108200
  0
POLYLINE
  8
4
  6
CONTINUOUS
 66
     1
  0
VERTEX
  8
4
  6
CONTINUOUS
 10
5.925759
 20
38.956200
  0
VERTEX
  8
4
  6
CONTINUOUS
 10
5.925759
 20
4.452330
  0
SEQEND
  8
4
  6
CONTINUOUS
  0
LINE
  8
4
  6
CONTINUOUS
 10
7.165759
 20
4.452330
 11
7.165759
 21
3.552330
  0
LINE
  8
4
  6
CONTINUOUS
 10
7.098259
 20
3.552330
 11
7.233259
 21
3.552330
  0
LINE
  8
4
  6
CONTINUOUS
 10
7.098259
 20
3.552330
 11
7.165759
 21
2.652330
  0
LINE
  8
4
  6
CONTINUOUS
 10
7.233259
 20
3.552330
 11
7.165759
 21
2.652330
  0
LINE
  8
4
  6
CONTINUOUS
 10
7.030759
 20
3.747331
 11
7.300759
 21
3.747331
  0
LINE
  8
4
  6
CONTINUOUS
 10
7.030759
 20
3.897330
 11
7.300759
 21
3.897330
  0
LINE
  8
4
  6
CONTINUOUS
 10
7.165759
 20
38.956200
 11
7.165759
 21
40.156200
  0
LINE
  8
4
  6
CONTINUOUS
 10
7.285759
 20
40.156200
 11
7.045759
 21
40.156200
  0
LINE
  8
4
  6
CONTINUOUS
 10
7.285759
 20
40.132200
 11
7.045759
 21
40.132200
  0
LINE
  8
4
  6
CONTINUOUS
 10
7.285759
 20
40.108200
 11
7.045759
 21
40.108200
  0
POLYLINE
  8
4
  6
CONTINUOUS
 66
     1
  0
VERTEX
  8
4
  6
CONTINUOUS
 10
7.165759
 20
38.956200
  0
VERTEX
  8
4
  6
CONTINUOUS
 10
7.165759
 20
4.452330
  0
SEQEND
  8
4
  6
CONTINUOUS
  0
LINE
  8
4
  6
CONTINUOUS
 10
8.405759
 20
4.452330
 11
8.405759
 21
3.552330
  0
LINE
  8
4
  6
CONTINUOUS
 10
8.338259
 20
3.552330
 11
8.473259
 21
3.552330
  0
LINE
  8
4
  6
CONTINUOUS
 10
8.338259
 20
3.552330
 11
8.405759
 21
2.652330
  0
LINE
  8
4
  6
CONTINUOUS
 10
8.473259
 20
3.552330
 11
8.405759
 21
2.652330
  0
LINE
  8
4
  6
CONTINUOUS
 10
8.270759
 20
3.747331
 11
8.540759
 21
3.747331
  0
LINE
  8
4
  6
CONTINUOUS
 10
8.270759
 20
3.897330
 11
8.540759
 21
3.897330
  0
LINE
  8
4
  6
CONTINUOUS
 10
8.405759
 20
38.956200
 11
8.405759
 21
40.156200
  0
LINE
  8
4
  6
CONTINUOUS
 10
8.525759
 20
40.156200
 11
8.285759
 21
40.156200
  0
LINE
  8
4
  6
CONTINUOUS
 10
8.525759
 20
40.132200
 11
8.285759
 21
40.132200
  0
LINE
  8
4
  6
CONTINUOUS
 10
8.525759
 20
40.108200
 11
8.285759
 21
40.108200
  0
POLYLINE
  8
4
  6
CONTINUOUS
 66
     1
  0
VERTEX
  8
4
  6
CONTINUOUS
 10
8.405759
 20
38.956200
  0
VERTEX
  8
4
  6
CONTINUOUS
 10
8.405759
 20
4.452330
  0
SEQEND
  8
4
  6
CONTINUOUS
  0
LINE
  8
4
  6
CONTINUOUS
 10
9.645759
 20
4.452330
 11
9.645759
 21
3.552330
  0
LINE
  8
4
  6
CONTINUOUS
 10
9.578259
 20
3.552330
 11
9.713259
 21
3.552330
  0
LINE
  8
4
  6
CONTINUOUS
 10
9.578259
 20
3.552330
 11
9.645759
 21
2.652330
  0
LINE
  8
4
  6
CONTINUOUS
 10
9.713259
 20
3.552330
 11
9.645759
 21
2.652330
  0
LINE
  8
4
  6
CONTINUOUS
 10
9.510759
 20
3.747331
 11
9.780759
 21
3.747331
  0
LINE
  8
4
  6
CONTINUOUS
 10
9.510759
 20
3.897330
 11
9.780759
 21
3.897330
  0
LINE
  8
4
  6
CONTINUOUS
 10
9.645759
 20
38.956200
 11
9.645759
 21
40.156200
  0
LINE
  8
4
  6
CONTINUOUS
 10
9.765759
 20
40.156200
 11
9.525759
 21
40.156200
  0
LINE
  8
4
  6
CONTINUOUS
 10
9.765759
 20
40.132200
 11
9.525759
 21
40.132200
  0
LINE
  8
4
  6
CONTINUOUS
 10
9.765759
 20
40.108200
 11
9.525759
 21
40.108200
  0
POLYLINE
  8
4
  6
CONTINUOUS
 66
     1
  0
VERTEX
  8
4
  6
CONTINUOUS
 10
9.645759
 20
38.956200
  0
VERTEX
  8
4
  6
CONTINUOUS
 10
9.645759
 20
4.452330
  0
SEQEND
  8
4
  6
CONTINUOUS
  0
LINE
  8
4
  6
CONTINUOUS
 10
10.527076
 20
4.452330
 11
10.527076
 21
3.552330
  0
LINE
  8
4
  6
CONTINUOUS
 10
10.392076
 20
4.002330
 11
10.662076
 21
4.002330
  0
LINE
  8
4
  6
CONTINUOUS
 10
10.392076
 20
3.912330
 11
10.662076
 21
3.912330
  0
LINE
  8
4
  6
CONTINUOUS
 10
10.392076
 20
3.822330
 11
10.662076
 21
3.822330
  0
LINE
  8
4
  6
CONTINUOUS
 10
10.392076
 20
3.732330
 11
10.662076
 21
3.732330
  0
LINE
  8
4
  6
CONTINUOUS
 10
10.459576
 20
3.552330
 11
10.594576
 21
3.552330
  0
LINE
  8
4
  6
CONTINUOUS
 10
10.459576
 20
3.552330
 11
10.527076
 21
2.652330
  0
LINE
  8
4
  6
CONTINUOUS
 10
10.594576
 20
3.552330
 11
10.527076
 21
2.652330
  0
LINE
  8
4
  6
CONTINUOUS
 10
10.527076
 20
38.956200
 11
10.527076
 21
40.156200
  0
LINE
  8
4
  6
CONTINUOUS
 10
10.647076
 20
40.156200
 11
10.407076
 21
40.156200
  0
LINE
  8
4
  6
CONTINUOUS
 10
10.647076
 20
40.132200
 11
10.407076
 21
40.132200
  0
LINE
  8
4
  6
CONTINUOUS
 10
10.647076
 20
40.108200
 11
10.407076
 21
40.108200
  0
POLYLINE
  8
4
  6
CONTINUOUS
 66
     1
  0
VERTEX
  8
4
  6
CONTINUOUS
 10
10.527076
 20
38.956200
  0
VERTEX
  8
4
  6
CONTINUOUS
 10
10.527076
 20
4.452330
  0
SEQEND
  8
4
  6
CONTINUOUS
  0
LINE
  8
4
  6
CONTINUOUS
 10
10.907076
 20
4.452330
 11
10.907076
 21
3.552330
  0
LINE
  8
4
  6
CONTINUOUS
 10
10.772076
 20
4.002330
 11
11.042076
 21
4.002330
  0
LINE
  8
4
  6
CONTINUOUS
 10
10.772076
 20
3.912330
 11
11.042076
 21
3.912330
  0
LINE
  8
4
  6
CONTINUOUS
 10
10.772076
 20
3.822330
 11
11.042076
 21
3.822330
  0
LINE
  8
4
  6
CONTINUOUS
 10
10.772076
 20
3.732330
 11
11.042076
 21
3.732330
  0
LINE
  8
4
  6
CONTINUOUS
 10
10.839576
 20
3.552330
 11
10.974576
 21
3.552330
  0
LINE
  8
4
  6
CONTINUOUS
 10
10.839576
 20
3.552330
 11
10.907076
 21
2.652330
  0
LINE
  8
4
  6
CONTINUOUS
 10
10.974576
 20
3.552330
 11
10.907076
 21
2.652330
  0
LINE
  8
4
  6
CONTINUOUS
 10
10.907076
 20
38.956200
 11
10.907076
 21
40.156200
  0
LINE
  8
4
  6
CONTINUOUS
 10
11.027076
 20
40.156200
 11
10.787076
 21
40.156200
  0
LINE
  8
4
  6
CONTINUOUS
 10
11.027076
 20
40.132200
 11
10.787076
 21
40.132200
  0
LINE
  8
4
  6
CONTINUOUS
 10
11.027076
 20
40.108200
 11
10.787076
 21
40.108200
  0
POLYLINE
  8
4
  6
CONTINUOUS
 66
     1
  0
VERTEX
  8
4
  6
CONTINUOUS
 10
10.907076
 20
38.956200
  0
VERTEX
  8
4
  6
CONTINUOUS
 10
10.907076
 20
4.452330
  0
SEQEND
  8
4
  6
CONTINUOUS
  0
LINE
  8
4
  6
CONTINUOUS
 10
11.287076
 20
4.452330
 11
11.287076
 21
3.552330
  0
LINE
  8
4
  6
CONTINUOUS
 10
11.152076
 20
4.002330
 11
11.422076
 21
4.002330
  0
LINE
  8
4
  6
CONTINUOUS
 10
11.152076
 20
3.912330
 11
11.422076
 21
3.912330
  0
LINE
  8
4
  6
CONTINUOUS
 10
11.152076
 20
3.822330
 11
11.422076
 21
3.822330
  0
LINE
  8
4
  6
CONTINUOUS
 10
11.152076
 20
3.732330
 11
11.422076
 21
3.732330
  0
LINE
  8
4
  6
CONTINUOUS
 10
11.219576
 20
3.552330
 11
11.354576
 21
3.552330
  0
LINE
  8
4
  6
CONTINUOUS
 10
11.219576
 20
3.552330
 11
11.287076
 21
2.652330
  0
LINE
  8
4
  6
CONTINUOUS
 10
11.354576
 20
3.552330
 11
11.287076
 21
2.652330
  0
LINE
  8
4
  6
CONTINUOUS
 10
11.287076
 20
38.956200
 11
11.287076
 21
40.156200
  0
LINE
  8
4
  6
CONTINUOUS
 10
11.407076
 20
40.156200
 11
11.167076
 21
40.156200
  0
LINE
  8
4
  6
CONTINUOUS
 10
11.407076
 20
40.132200
 11
11.167076
 21
40.132200
  0
LINE
  8
4
  6
CONTINUOUS
 10
11.407076
 20
40.108200
 11
11.167076
 21
40.108200
  0
POLYLINE
  8
4
  6
CONTINUOUS
 66
     1
  0
VERTEX
  8
4
  6
CONTINUOUS
 10
11.287076
 20
38.956200
  0
VERTEX
  8
4
  6
CONTINUOUS
 10
11.287076
 20
4.452330
  0
SEQEND
  8
4
  6
CONTINUOUS
  0
LINE
  8
4
  6
CONTINUOUS
 10
11.667076
 20
4.452330
 11
11.667076
 21
3.552330
  0
LINE
  8
4
  6
CONTINUOUS
 10
11.532076
 20
4.002330
 11
11.802076
 21
4.002330
  0
LINE
  8
4
  6
CONTINUOUS
 10
11.532076
 20
3.912330
 11
11.802076
 21
3.912330
  0
LINE
  8
4
  6
CONTINUOUS
 10
11.532076
 20
3.822330
 11
11.802076
 21
3.822330
  0
LINE
  8
4
  6
CONTINUOUS
 10
11.532076
 20
3.732330
 11
11.802076
 21
3.732330
  0
LINE
  8
4
  6
CONTINUOUS
 10
11.599576
 20
3.552330
 11
11.734576
 21
3.552330
  0
LINE
  8
4
  6
CONTINUOUS
 10
11.599576
 20
3.552330
 11
11.667076
 21
2.652330
  0
LINE
  8
4
  6
CONTINUOUS
 10
11.734576
 20
3.552330
 11
11.667076
 21
2.652330
  0
LINE
  8
4
  6
CONTINUOUS
 10
11.667076
 20
38.956200
 11
11.667076
 21
40.156200
  0
LINE
  8
4
  6
CONTINUOUS
 10
11.787076
 20
40.156200
 11
11.547076
 21
40.156200
  0
LINE
  8
4
  6
CONTINUOUS
 10
11.787076
 20
40.132200
 11
11.547076
 21
40.132200
  0
LINE
  8
4
  6
CONTINUOUS
 10
11.787076
 20
40.108200
 11
11.547076
 21
40.108200
  0
POLYLINE
  8
4
  6
CONTINUOUS
 66
     1
  0
VERTEX
  8
4
  6
CONTINUOUS
 10
11.667076
 20
38.956200
  0
VERTEX
  8
4
  6
CONTINUOUS
 10
11.667076
 20
4.452330
  0
SEQEND
  8
4
  6
CONTINUOUS
  0
LINE
  8
4
  6
CONTINUOUS
 10
12.047076
 20
4.452330
 11
12.047076
 21
3.552330
  0
LINE
  8
4
  6
CONTINUOUS
 10
11.912076
 20
4.002330
 11
12.182076
 21
4.002330
  0
LINE
  8
4
  6
CONTINUOUS
 10
11.912076
 20
3.912330
 11
12.182076
 21
3.912330
  0
LINE
  8
4
  6
CONTINUOUS
 10
11.912076
 20
3.822330
 11
12.182076
 21
3.822330
  0
LINE
  8
4
  6
CONTINUOUS
 10
11.912076
 20
3.732330
 11
12.182076
 21
3.732330
  0
LINE
  8
4
  6
CONTINUOUS
 10
11.979576
 20
3.552330
 11
12.114576
 21
3.552330
  0
LINE
  8
4
  6
CONTINUOUS
 10
11.979576
 20
3.552330
 11
12.047076
 21
2.652330
  0
LINE
  8
4
  6
CONTINUOUS
 10
12.114576
 20
3.552330
 11
12.047076
 21
2.652330
  0
LINE
  8
4
  6
CONTINUOUS
 10
12.047076
 20
38.956200
 11
12.047076
 21
40.156200
  0
LINE
  8
4
  6
CONTINUOUS
 10
12.167076
 20
40.156200
 11
11.927076
 21
40.156200
  0
LINE
  8
4
  6
CONTINUOUS
 10
12.167076
 20
40.132200
 11
11.927076
 21
40.132200
  0
LINE
  8
4
  6
CONTINUOUS
 10
12.167076
 20
40.108200
 11
11.927076
 21
40.108200
  0
POLYLINE
  8
4
  6
CONTINUOUS
 66
     1
  0
VERTEX
  8
4
  6
CONTINUOUS
 10
12.047076
 20
38.956200
  0
VERTEX
  8
4
  6
CONTINUOUS
 10
12.047076
 20
4.452330
  0
SEQEND
  8
4
  6
CONTINUOUS
  0
LINE
  8
4
  6
CONTINUOUS
 10
12.427076
 20
4.452330
 11
12.427076
 21
3.552330
  0
LINE
  8
4
  6
CONTINUOUS
 10
12.292076
 20
4.002330
 11
12.562076
 21
4.002330
  0
LINE
  8
4
  6
CONTINUOUS
 10
12.292076
 20
3.912330
 11
12.562076
 21
3.912330
  0
LINE
  8
4
  6
CONTINUOUS
 10
12.292076
 20
3.822330
 11
12.562076
 21
3.822330
  0
LINE
  8
4
  6
CONTINUOUS
 10
12.292076
 20
3.732330
 11
12.562076
 21
3.732330
  0
LINE
  8
4
  6
CONTINUOUS
 10
12.359576
 20
3.552330
 11
12.494576
 21
3.552330
  0
LINE
  8
4
  6
CONTINUOUS
 10
12.359576
 20
3.552330
 11
12.427076
 21
2.652330
  0
LINE
  8
4
  6
CONTINUOUS
 10
12.494576
 20
3.552330
 11
12.427076
 21
2.652330
  0
LINE
  8
4
  6
CONTINUOUS
 10
12.427076
 20
38.956200
 11
12.427076
 21
40.156200
  0
LINE
  8
4
  6
CONTINUOUS
 10
12.547076
 20
40.156200
 11
12.307076
 21
40.156200
  0
LINE
  8
4
  6
CONTINUOUS
 10
12.547076
 20
40.132200
 11
12.307076
 21
40.132200
  0
LINE
  8
4
  6
CONTINUOUS
 10
12.547076
 20
40.108200
 11
12.307076
 21
40.108200
  0
POLYLINE
  8
4
  6
CONTINUOUS
 66
     1
  0
VERTEX
  8
4
  6
CONTINUOUS
 10
12.427076
 20
38.956200
  0
VERTEX
  8
4
  6
CONTINUOUS
 10
12.427076
 20
4.452330
  0
SEQEND
  8
4
  6
CONTINUOUS
  0
LINE
  8
4
  6
CONTINUOUS
 10
12.807076
 20
4.452330
 11
12.807076
 21
3.552330
  0
LINE
  8
4
  6
CONTINUOUS
 10
12.672076
 20
4.002330
 11
12.942076
 21
4.002330
  0
LINE
  8
4
  6
CONTINUOUS
 10
12.672076
 20
3.912330
 11
12.942076
 21
3.912330
  0
LINE
  8
4
  6
CONTINUOUS
 10
12.672076
 20
3.822330
 11
12.942076
 21
3.822330
  0
LINE
  8
4
  6
CONTINUOUS
 10
12.672076
 20
3.732330
 11
12.942076
 21
3.732330
  0
LINE
  8
4
  6
CONTINUOUS
 10
12.739576
 20
3.552330
 11
12.874576
 21
3.552330
  0
LINE
  8
4
  6
CONTINUOUS
 10
12.739576
 20
3.552330
 11
12.807076
 21
2.652330
  0
LINE
  8
4
  6
CONTINUOUS
 10
12.874576
 20
3.552330
 11
12.807076
 21
2.652330
  0
LINE
  8
4
  6
CONTINUOUS
 10
12.807076
 20
38.956200
 11
12.807076
 21
40.156200
  0
LINE
  8
4
  6
CONTINUOUS
 10
12.927076
 20
40.156200
 11
12.687076
 21
40.156200
  0
LINE
  8
4
  6
CONTINUOUS
 10
12.927076
 20
40.132200
 11
12.687076
 21
40.132200
  0
LINE
  8
4
  6
CONTINUOUS
 10
12.927076
 20
40.108200
 11
12.687076
 21
40.108200
  0
POLYLINE
  8
4
  6
CONTINUOUS
 66
     1
  0
VERTEX
  8
4
  6
CONTINUOUS
 10
12.807076
 20
38.956200
  0
VERTEX
  8
4
  6
CONTINUOUS
 10
12.807076
 20
4.452330
  0
SEQEND
  8
4
  6
CONTINUOUS
  0
LINE
  8
4
  6
CONTINUOUS
 10
13.187076
 20
4.452330
 11
13.187076
 21
3.552330
  0
LINE
  8
4
  6
CONTINUOUS
 10
13.052076
 20
4.002330
 11
13.322076
 21
4.002330
  0
LINE
  8
4
  6
CONTINUOUS
 10
13.052076
 20
3.912330
 11
13.322076
 21
3.912330
  0
LINE
  8
4
  6
CONTINUOUS
 10
13.052076
 20
3.822330
 11
13.322076
 21
3.822330
  0
LINE
  8
4
  6
CONTINUOUS
 10
13.052076
 20
3.732330
 11
13.322076
 21
3.732330
  0
LINE
  8
4
  6
CONTINUOUS
 10
13.119576
 20
3.552330
 11
13.254576
 21
3.552330
  0
LINE
  8
4
  6
CONTINUOUS
 10
13.119576
 20
3.552330
 11
13.187076
 21
2.652330
  0
LINE
  8
4
  6
CONTINUOUS
 10
13.254576
 20
3.552330
 11
13.187076
 21
2.652330
  0
LINE
  8
4
  6
CONTINUOUS
 10
13.187076
 20
38.956200
 11
13.187076
 21
40.156200
  0
LINE
  8
4
  6
CONTINUOUS
 10
13.307076
 20
40.156200
 11
13.067076
 21
40.156200
  0
LINE
  8
4
  6
CONTINUOUS
 10
13.307076
 20
40.132200
 11
13.067076
 21
40.132200
  0
LINE
  8
4
  6
CONTINUOUS
 10
13.307076
 20
40.108200
 11
13.067076
 21
40.108200
  0
POLYLINE
  8
4
  6
CONTINUOUS
 66
     1
  0
VERTEX
  8
4
  6
CONTINUOUS
 10
13.187076
 20
38.956200
  0
VERTEX
  8
4
  6
CONTINUOUS
 10
13.187076
 20
4.452330
  0
SEQEND
  8
4
  6
CONTINUOUS
  0
LINE
  8
4
  6
CONTINUOUS
 10
13.567076
 20
4.452330
 11
13.567076
 21
3.552330
  0
LINE
  8
4
  6
CONTINUOUS
 10
13.432076
 20
4.002330
 11
13.702076
 21
4.002330
  0
LINE
  8
4
  6
CONTINUOUS
 10
13.432076
 20
3.912330
 11
13.702076
 21
3.912330
  0
LINE
  8
4
  6
CONTINUOUS
 10
13.432076
 20
3.822330
 11
13.702076
 21
3.822330
  0
LINE
  8
4
  6
CONTINUOUS
 10
13.432076
 20
3.732330
 11
13.702076
 21
3.732330
  0
LINE
  8
4
  6
CONTINUOUS
 10
13.499576
 20
3.552330
 11
13.634576
 21
3.552330
  0
LINE
  8
4
  6
CONTINUOUS
 10
13.499576
 20
3.552330
 11
13.567076
 21
2.652330
  0
LINE
  8
4
  6
CONTINUOUS
 10
13.634576
 20
3.552330
 11
13.567076
 21
2.652330
  0
LINE
  8
4
  6
CONTINUOUS
 10
13.567076
 20
38.956200
 11
13.567076
 21
40.156200
  0
LINE
  8
4
  6
CONTINUOUS
 10
13.687076
 20
40.156200
 11
13.447076
 21
40.156200
  0
LINE
  8
4
  6
CONTINUOUS
 10
13.687076
 20
40.132200
 11
13.447076
 21
40.132200
  0
LINE
  8
4
  6
CONTINUOUS
 10
13.687076
 20
40.108200
 11
13.447076
 21
40.108200
  0
POLYLINE
  8
4
  6
CONTINUOUS
 66
     1
  0
VERTEX
  8
4
  6
CONTINUOUS
 10
13.567076
 20
38.956200
  0
VERTEX
  8
4
  6
CONTINUOUS
 10
13.567076
 20
4.452330
  0
SEQEND
  8
4
  6
CONTINUOUS
  0
LINE
  8
4
  6
CONTINUOUS
 10
13.947076
 20
4.452330
 11
13.947076
 21
3.552330
  0
LINE
  8
4
  6
CONTINUOUS
 10
13.812076
 20
4.002330
 11
14.082076
 21
4.002330
  0
LINE
  8
4
  6
CONTINUOUS
 10
13.812076
 20
3.912330
 11
14.082076
 21
3.912330
  0
LINE
  8
4
  6
CONTINUOUS
 10
13.812076
 20
3.822330
 11
14.082076
 21
3.822330
  0
LINE
  8
4
  6
CONTINUOUS
 10
13.812076
 20
3.732330
 11
14.082076
 21
3.732330
  0
LINE
  8
4
  6
CONTINUOUS
 10
13.879576
 20
3.552330
 11
14.014576
 21
3.552330
  0
LINE
  8
4
  6
CONTINUOUS
 10
13.879576
 20
3.552330
 11
13.947076
 21
2.652330
  0
LINE
  8
4
  6
CONTINUOUS
 10
14.014576
 20
3.552330
 11
13.947076
 21
2.652330
  0
LINE
  8
4
  6
CONTINUOUS
 10
13.947076
 20
38.956200
 11
13.947076
 21
40.156200
  0
LINE
  8
4
  6
CONTINUOUS
 10
14.067076
 20
40.156200
 11
13.827076
 21
40.156200
  0
LINE
  8
4
  6
CONTINUOUS
 10
14.067076
 20
40.132200
 11
13.827076
 21
40.132200
  0
LINE
  8
4
  6
CONTINUOUS
 10
14.067076
 20
40.108200
 11
13.827076
 21
40.108200
  0
POLYLINE
  8
4
  6
CONTINUOUS
 66
     1
  0
VERTEX
  8
4
  6
CONTINUOUS
 10
13.947076
 20
38.956200
  0
VERTEX
  8
4
  6
CONTINUOUS
 10
13.947076
 20
4.452330
  0
SEQEND
  8
4
  6
CONTINUOUS
  0
LINE
  8
4
  6
CONTINUOUS
 10
14.327076
 20
4.452330
 11
14.327076
 21
3.552330
  0
LINE
  8
4
  6
CONTINUOUS
 10
14.192076
 20
4.002330
 11
14.462076
 21
4.002330
  0
LINE
  8
4
  6
CONTINUOUS
 10
14.192076
 20
3.912330
 11
14.462076
 21
3.912330
  0
LINE
  8
4
  6
CONTINUOUS
 10
14.192076
 20
3.822330
 11
14.462076
 21
3.822330
  0
LINE
  8
4
  6
CONTINUOUS
 10
14.192076
 20
3.732330
 11
14.462076
 21
3.732330
  0
LINE
  8
4
  6
CONTINUOUS
 10
14.259576
 20
3.552330
 11
14.394576
 21
3.552330
  0
LINE
  8
4
  6
CONTINUOUS
 10
14.259576
 20
3.552330
 11
14.327076
 21
2.652330
  0
LINE
  8
4
  6
CONTINUOUS
 10
14.394576
 20
3.552330
 11
14.327076
 21
2.652330
  0
LINE
  8
4
  6
CONTINUOUS
 10
14.327076
 20
38.956200
 11
14.327076
 21
40.156200
  0
LINE
  8
4
  6
CONTINUOUS
 10
14.447076
 20
40.156200
 11
14.207076
 21
40.156200
  0
LINE
  8
4
  6
CONTINUOUS
 10
14.447076
 20
40.132200
 11
14.207076
 21
40.132200
  0
LINE
  8
4
  6
CONTINUOUS
 10
14.447076
 20
40.108200
 11
14.207076
 21
40.108200
  0
POLYLINE
  8
4
  6
CONTINUOUS
 66
     1
  0
VERTEX
  8
4
  6
CONTINUOUS
 10
14.327076
 20
38.956200
  0
VERTEX
  8
4
  6
CONTINUOUS
 10
14.327076
 20
4.452330
  0
SEQEND
  8
4
  6
CONTINUOUS
  0
LINE
  8
4
  6
CONTINUOUS
 10
14.707076
 20
4.452330
 11
14.707076
 21
3.552330
  0
LINE
  8
4
  6
CONTINUOUS
 10
14.572076
 20
4.002330
 11
14.842076
 21
4.002330
  0
LINE
  8
4
  6
CONTINUOUS
 10
14.572076
 20
3.912330
 11
14.842076
 21
3.912330
  0
LINE
  8
4
  6
CONTINUOUS
 10
14.572076
 20
3.822330
 11
14.842076
 21
3.822330
  0
LINE
  8
4
  6
CONTINUOUS
 10
14.572076
 20
3.732330
 11
14.842076
 21
3.732330
  0
LINE
  8
4
  6
CONTINUOUS
 10
14.639576
 20
3.552330
 11
14.774576
 21
3.552330
  0
LINE
  8
4
  6
CONTINUOUS
 10
14.639576
 20
3.552330
 11
14.707076
 21
2.652330
  0
LINE
  8
4
  6
CONTINUOUS
 10
14.774576
 20
3.552330
 11
14.707076
 21
2.652330
  0
LINE
  8
4
  6
CONTINUOUS
 10
14.707076
 20
38.956200
 11
14.707076
 21
40.156200
  0
LINE
  8
4
  6
CONTINUOUS
 10
14.827076
 20
40.156200
 11
14.587076
 21
40.156200
  0
LINE
  8
4
  6
CONTINUOUS
 10
14.827076
 20
40.132200
 11
14.587076
 21
40.132200
  0
LINE
  8
4
  6
CONTINUOUS
 10
14.827076
 20
40.108200
 11
14.587076
 21
40.108200
  0
POLYLINE
  8
4
  6
CONTINUOUS
 66
     1
  0
VERTEX
  8
4
  6
CONTINUOUS
 10
14.707076
 20
38.956200
  0
VERTEX
  8
4
  6
CONTINUOUS
 10
14.707076
 20
4.452330
  0
SEQEND
  8
4
  6
CONTINUOUS
  0
LINE
  8
4
  6
CONTINUOUS
 10
15.087076
 20
4.452330
 11
15.087076
 21
3.552330
  0
LINE
  8
4
  6
CONTINUOUS
 10
14.952076
 20
4.002330
 11
15.222076
 21
4.002330
  0
LINE
  8
4
  6
CONTINUOUS
 10
14.952076
 20
3.912330
 11
15.222076
 21
3.912330
  0
LINE
  8
4
  6
CONTINUOUS
 10
14.952076
 20
3.822330
 11
15.222076
 21
3.822330
  0
LINE
  8
4
  6
CONTINUOUS
 10
14.952076
 20
3.732330
 11
15.222076
 21
3.732330
  0
LINE
  8
4
  6
CONTINUOUS
 10
15.019576
 20
3.552330
 11
15.154576
 21
3.552330
  0
LINE
  8
4
  6
CONTINUOUS
 10
15.019576
 20
3.552330
 11
15.087076
 21
2.652330
  0
LINE
  8
4
  6
CONTINUOUS
 10
15.154576
 20
3.552330
 11
15.087076
 21
2.652330
  0
LINE
  8
4
  6
CONTINUOUS
 10
15.087076
 20
38.956200
 11
15.087076
 21
40.156200
  0
LINE
  8
4
  6
CONTINUOUS
 10
15.207076
 20
40.156200
 11
14.967076
 21
40.156200
  0
LINE
  8
4
  6
CONTINUOUS
 10
15.207076
 20
40.132200
 11
14.967076
 21
40.132200
  0
LINE
  8
4
  6
CONTINUOUS
 10
15.207076
 20
40.108200
 11
14.967076
 21
40.108200
  0
POLYLINE
  8
4
  6
CONTINUOUS
 66
     1
  0
VERTEX
  8
4
  6
CONTINUOUS
 10
15.087076
 20
38.956200
  0
VERTEX
  8
4
  6
CONTINUOUS
 10
15.087076
 20
4.452330
  0
SEQEND
  8
4
  6
CONTINUOUS
  0
LINE
  8
4
  6
CONTINUOUS
 10
15.467076
 20
4.452330
 11
15.467076
 21
3.552330
  0
LINE
  8
4
  6
CONTINUOUS
 10
15.332076
 20
4.002330
 11
15.602076
 21
4.002330
  0
LINE
  8
4
  6
CONTINUOUS
 10
15.332076
 20
3.912330
 11
15.602076
 21
3.912330
  0
LINE
  8
4
  6
CONTINUOUS
 10
15.332076
 20
3.822330
 11
15.602076
 21
3.822330
  0
LINE
  8
4
  6
CONTINUOUS
 10
15.332076
 20
3.732330
 11
15.602076
 21
3.732330
  0
LINE
  8
4
  6
CONTINUOUS
 10
15.399576
 20
3.552330
 11
15.534576
 21
3.552330
  0
LINE
  8
4
  6
CONTINUOUS
 10
15.399576
 20
3.552330
 11
15.467076
 21
2.652330
  0
LINE
  8
4
  6
CONTINUOUS
 10
15.534576
 20
3.552330
 11
15.467076
 21
2.652330
  0
LINE
  8
4
  6
CONTINUOUS
 10
15.467076
 20
38.956200
 11
15.467076
 21
40.156200
  0
LINE
  8
4
  6
CONTINUOUS
 10
15.587076
 20
40.156200
 11
15.347076
 21
40.156200
  0
LINE
  8
4
  6
CONTINUOUS
 10
15.587076
 20
40.132200
 11
15.347076
 21
40.132200
  0
LINE
  8
4
  6
CONTINUOUS
 10
15.587076
 20
40.108200
 11
15.347076
 21
40.108200
  0
POLYLINE
  8
4
  6
CONTINUOUS
 66
     1
  0
VERTEX
  8
4
  6
CONTINUOUS
 10
15.467076
 20
38.956200
  0
VERTEX
  8
4
  6
CONTINUOUS
 10
15.467076
 20
4.452330
  0
SEQEND
  8
4
  6
CONTINUOUS
  0
LINE
  8
4
  6
CONTINUOUS
 10
15.847076
 20
4.452330
 11
15.847076
 21
3.552330
  0
LINE
  8
4
  6
CONTINUOUS
 10
15.712076
 20
4.002330
 11
15.982076
 21
4.002330
  0
LINE
  8
4
  6
CONTINUOUS
 10
15.712076
 20
3.912330
 11
15.982076
 21
3.912330
  0
LINE
  8
4
  6
CONTINUOUS
 10
15.712076
 20
3.822330
 11
15.982076
 21
3.822330
  0
LINE
  8
4
  6
CONTINUOUS
 10
15.712076
 20
3.732330
 11
15.982076
 21
3.732330
  0
LINE
  8
4
  6
CONTINUOUS
 10
15.779576
 20
3.552330
 11
15.914576
 21
3.552330
  0
LINE
  8
4
  6
CONTINUOUS
 10
15.779576
 20
3.552330
 11
15.847076
 21
2.652330
  0
LINE
  8
4
  6
CONTINUOUS
 10
15.914576
 20
3.552330
 11
15.847076
 21
2.652330
  0
LINE
  8
4
  6
CONTINUOUS
 10
15.847076
 20
38.956200
 11
15.847076
 21
40.156200
  0
LINE
  8
4
  6
CONTINUOUS
 10
15.967076
 20
40.156200
 11
15.727076
 21
40.156200
  0
LINE
  8
4
  6
CONTINUOUS
 10
15.967076
 20
40.132200
 11
15.727076
 21
40.132200
  0
LINE
  8
4
  6
CONTINUOUS
 10
15.967076
 20
40.108200
 11
15.727076
 21
40.108200
  0
POLYLINE
  8
4
  6
CONTINUOUS
 66
     1
  0
VERTEX
  8
4
  6
CONTINUOUS
 10
15.847076
 20
38.956200
  0
VERTEX
  8
4
  6
CONTINUOUS
 10
15.847076
 20
4.452330
  0
SEQEND
  8
4
  6
CONTINUOUS
  0
LINE
  8
1
  6
CONTINUOUS
 10
118.000002
 20
29.700001
 11
119.000002
 21
29.700001
  0
LINE
  8
1
  6
CONTINUOUS
 10
118.000002
 20
59.400002
 11
119.000002
 21
59.400002
  0
LINE
  8
1
  6
CONTINUOUS
 10
0.000000
 20
29.700001
 11
2.500000
 21
29.700001
  0
LINE
  8
1
  6
CONTINUOUS
 10
0.000000
 20
59.400002
 11
2.500000
 21
59.400002
  0
LINE
  8
1
  6
CONTINUOUS
 10
100.500002
 20
82.999998
 11
100.500002
 21
83.999998
  0
LINE
  8
1
  6
CONTINUOUS
 10
82.000002
 20
82.999998
 11
82.000002
 21
83.999998
  0
LINE
  8
1
  6
CONTINUOUS
 10
63.500002
 20
82.999998
 11
63.500002
 21
83.999998
  0
LINE
  8
1
  6
CONTINUOUS
 10
45.000002
 20
82.999998
 11
45.000002
 21
83.999998
  0
LINE
  8
1
  6
CONTINUOUS
 10
33.050001
 20
82.999998
 11
33.050001
 21
83.999998
  0
LINE
  8
1
  6
CONTINUOUS
 10
21.100000
 20
82.999998
 11
21.100000
 21
83.999998
  0
LINE
  8
1
  6
CONTINUOUS
 10
100.500002
 20
0.000000
 11
100.500002
 21
1.000000
  0
LINE
  8
1
  6
CONTINUOUS
 10
82.000002
 20
0.000000
 11
82.000002
 21
1.000000
  0
LINE
  8
1
  6
CONTINUOUS
 10
63.500002
 20
0.000000
 11
63.500002
 21
1.000000
  0
LINE
  8
1
  6
CONTINUOUS
 10
45.000002
 20
0.000000
 11
45.000002
 21
1.000000
  0
LINE
  8
1
  6
CONTINUOUS
 10
33.050001
 20
0.000000
 11
33.050001
 21
1.000000
  0
LINE
  8
1
  6
CONTINUOUS
 10
21.100000
 20
0.000000
 11
21.100000
 21
1.000000
  0
LINE
  8
1
  6
CONTINUOUS
 10
0.000000
 20
0.000000
 11
119.000002
 21
0.000000
  0
LINE
  8
1
  6
CONTINUOUS
 10
119.000002
 20
0.000000
 11
119.000002
 21
83.999998
  0
LINE
  8
1
  6
CONTINUOUS
 10
0.000000
 20
0.000000
 11
0.000000
 21
83.999998
  0
LINE
  8
8
  6
CONTINUOUS
 10
2.500000
 20
1.000000
 11
118.000002
 21
1.000000
  0
LINE
  8
8
  6
CONTINUOUS
 10
118.000002
 20
1.000000
 11
118.000002
 21
82.999998
  0
LINE
  8
1
  6
CONTINUOUS
 10
0.000000
 20
83.999998
 11
119.000002
 21
83.999998
  0
LINE
  8
8
  6
CONTINUOUS
 10
2.500000
 20
82.999998
 11
118.000002
 21
82.999998
  0
LINE
  8
8
  6
CONTINUOUS
 10
2.500000
 20
82.999998
 11
2.500000
 21
1.000000
  0
LINE
  8
2
  6
CONTINUOUS
 10
102.650002
 20
17.625000
 11
102.650002
 21
18.125000
  0
LINE
  8
1
  6
CONTINUOUS
 10
101.700002
 20
18.200000
 11
118.000002
 21
18.200000
  0
LINE
  8
1
  6
CONTINUOUS
 10
101.700002
 20
17.700000
 11
118.000002
 21
17.700000
  0
LINE
  8
1
  6
CONTINUOUS
 10
102.200002
 20
17.700000
 11
118.000002
 21
17.700000
  0
LINE
  8
2
  6
CONTINUOUS
 10
102.650002
 20
17.125000
 11
102.650002
 21
17.625000
  0
LINE
  8
1
  6
CONTINUOUS
 10
102.200002
 20
17.700000
 11
118.000002
 21
17.700000
  0
LINE
  8
1
  6
CONTINUOUS
 10
101.700002
 20
17.200000
 11
118.000002
 21
17.200000
  0
LINE
  8
2
  6
CONTINUOUS
 10
102.650002
 20
16.700000
 11
102.650002
 21
17.200000
  0
LINE
  8
1
  6
CONTINUOUS
 10
116.008223
 20
16.000000
 11
116.008223
 21
22.200000
  0
LINE
  8
1
  6
CONTINUOUS
 10
104.850002
 20
16.000000
 11
104.850002
 21
22.200000
  0
LINE
  8
6
  6
CONTINUOUS
 10
101.700002
 20
16.000000
 11
118.000002
 21
16.000000
  0
LINE
  8
1
  6
CONTINUOUS
 10
102.650002
 20
16.000000
 11
102.650002
 21
16.700000
  0
LINE
  8
1
  6
CONTINUOUS
 10
102.200002
 20
17.200000
 11
118.000002
 21
17.200000
  0
LINE
  8
1
  6
CONTINUOUS
 10
101.700002
 20
16.700000
 11
118.000002
 21
16.700000
  0
LINE
  8
2
  6
CONTINUOUS
 10
102.650002
 20
18.625000
 11
102.650002
 21
22.200000
  0
LINE
  8
6
  6
CONTINUOUS
 10
101.700002
 20
22.200000
 11
118.000002
 21
22.200000
  0
LINE
  8
1
  6
CONTINUOUS
 10
101.700002
 20
18.700000
 11
118.000002
 21
18.700000
  0
LINE
  8
1
  6
CONTINUOUS
 10
102.200002
 20
18.700000
 11
118.000002
 21
18.700000
  0
LINE
  8
2
  6
CONTINUOUS
 10
102.650002
 20
18.125000
 11
102.650002
 21
18.625000
  0
LINE
  8
1
  6
CONTINUOUS
 10
102.200002
 20
18.700000
 11
118.000002
 21
18.700000
  0
LINE
  8
1
  6
CONTINUOUS
 10
102.200002
 20
18.200000
 11
118.000002
 21
18.200000
  0
LINE
  8
1
  6
CONTINUOUS
 10
102.200002
 20
18.200000
 11
118.000002
 21
18.200000
  0
LINE
  8
6
  6
CONTINUOUS
 10
101.700002
 20
6.600000
 11
118.000002
 21
6.600000
  0
LINE
  8
6
  6
CONTINUOUS
 10
101.700002
 20
8.500000
 11
118.000002
 21
8.500000
  0
LINE
  8
6
  6
CONTINUOUS
 10
101.700002
 20
1.000000
 11
101.700002
 21
8.500000
  0
LINE
  8
6
  6
CONTINUOUS
 10
101.700002
 20
16.000000
 11
101.700002
 21
22.200000
  0
LINE
  8
6
  6
CONTINUOUS
 10
101.700002
 20
15.900000
 11
118.000002
 21
15.900000
  0
LINE
  8
6
  6
CONTINUOUS
 10
101.700002
 20
11.400000
 11
101.700002
 21
15.900000
  0
LINE
  8
1
  6
CONTINUOUS
 10
101.700002
 20
14.400000
 11
118.000002
 21
14.400000
  0
LINE
  8
6
  6
CONTINUOUS
 10
101.700002
 20
3.000000
 11
118.000002
 21
3.000000
  0
LINE
  8
6
  6
CONTINUOUS
 10
105.024321
 20
3.000000
 11
105.024321
 21
1.000000
  0
LINE
  8
1
  6
CONTINUOUS
 10
101.700002
 20
12.900000
 11
118.000002
 21
12.900000
  0
POLYLINE
  8
1
  6
CONTINUOUS
 66
     1
  0
VERTEX
  8
1
  6
CONTINUOUS
 10
103.635546
 20
9.498246
  0
VERTEX
  8
1
  6
CONTINUOUS
 10
101.971546
 20
9.498246
  0
VERTEX
  8
1
  6
CONTINUOUS
 10
101.971546
 20
11.162246
  0
VERTEX
  8
1
  6
CONTINUOUS
 10
103.635546
 20
11.162246
  0
VERTEX
  8
1
  6
CONTINUOUS
 10
103.635546
 20
9.498246
  0
SEQEND
  8
1
  6
CONTINUOUS
  0
POLYLINE
  8
13
  6
CONTINUOUS
 66
     1
  0
VERTEX
  8
13
  6
CONTINUOUS
 10
102.095046
 20
10.244446
  0
VERTEX
  8
13
  6
CONTINUOUS
 10
102.095046
 20
9.498246
  0
VERTEX
  8
13
  6
CONTINUOUS
 10
101.971546
 20
9.498246
  0
VERTEX
  8
13
  6
CONTINUOUS
 10
101.971546
 20
11.162246
  0
VERTEX
  8
13
  6
CONTINUOUS
 10
102.095046
 20
11.162246
  0
VERTEX
  8
13
  6
CONTINUOUS
 10
102.095046
 20
10.244446
  0
SEQEND
  8
13
  6
CONTINUOUS
  0
POLYLINE
  8
13
  6
CONTINUOUS
 66
     1
  0
VERTEX
  8
13
  6
CONTINUOUS
 10
102.522746
 20
10.230979
  0
VERTEX
  8
13
  6
CONTINUOUS
 10
102.522746
 20
9.498246
  0
VERTEX
  8
13
  6
CONTINUOUS
 10
102.095046
 20
9.498246
  0
VERTEX
  8
13
  6
CONTINUOUS
 10
102.095046
 20
10.244446
  0
VERTEX
  8
13
  6
CONTINUOUS
 10
102.143544
 20
10.248642
  0
VERTEX
  8
13
  6
CONTINUOUS
 10
102.211078
 20
10.252071
  0
VERTEX
  8
13
  6
CONTINUOUS
 10
102.259959
 20
10.252484
  0
VERTEX
  8
13
  6
CONTINUOUS
 10
102.290321
 20
10.252141
  0
VERTEX
  8
13
  6
CONTINUOUS
 10
102.334203
 20
10.250668
  0
VERTEX
  8
13
  6
CONTINUOUS
 10
102.394518
 20
10.246747
  0
VERTEX
  8
13
  6
CONTINUOUS
 10
102.446340
 20
10.241621
  0
VERTEX
  8
13
  6
CONTINUOUS
 10
102.490083
 20
10.235974
  0
VERTEX
  8
13
  6
CONTINUOUS
 10
102.522746
 20
10.230979
  0
SEQEND
  8
13
  6
CONTINUOUS
  0
POLYLINE
  8
13
  6
CONTINUOUS
 66
     1
  0
VERTEX
  8
13
  6
CONTINUOUS
 10
102.594246
 20
10.217654
  0
VERTEX
  8
13
  6
CONTINUOUS
 10
102.594246
 20
9.498246
  0
VERTEX
  8
13
  6
CONTINUOUS
 10
103.021946
 20
9.498246
  0
VERTEX
  8
13
  6
CONTINUOUS
 10
103.021946
 20
10.064184
  0
VERTEX
  8
13
  6
CONTINUOUS
 10
103.003898
 20
10.073542
  0
VERTEX
  8
13
  6
CONTINUOUS
 10
102.981716
 20
10.084501
  0
VERTEX
  8
13
  6
CONTINUOUS
 10
102.953307
 20
10.098271
  0
VERTEX
  8
13
  6
CONTINUOUS
 10
102.912865
 20
10.116383
  0
VERTEX
  8
13
  6
CONTINUOUS
 10
102.885024
 20
10.128001
  0
VERTEX
  8
13
  6
CONTINUOUS
 10
102.844071
 20
10.144755
  0
VERTEX
  8
13
  6
CONTINUOUS
 10
102.813490
 20
10.155923
  0
VERTEX
  8
13
  6
CONTINUOUS
 10
102.778388
 20
10.168156
  0
VERTEX
  8
13
  6
CONTINUOUS
 10
102.744083
 20
10.178793
  0
VERTEX
  8
13
  6
CONTINUOUS
 10
102.703465
 20
10.191172
  0
VERTEX
  8
13
  6
CONTINUOUS
 10
102.665141
 20
10.201162
  0
VERTEX
  8
13
  6
CONTINUOUS
 10
102.624819
 20
10.210970
  0
VERTEX
  8
13
  6
CONTINUOUS
 10
102.594246
 20
10.217654
  0
SEQEND
  8
13
  6
CONTINUOUS
  0
POLYLINE
  8
13
  6
CONTINUOUS
 66
     1
  0
VERTEX
  8
13
  6
CONTINUOUS
 10
103.093446
 20
10.024343
  0
VERTEX
  8
13
  6
CONTINUOUS
 10
103.093446
 20
9.498246
  0
VERTEX
  8
13
  6
CONTINUOUS
 10
103.521146
 20
9.498246
  0
VERTEX
  8
13
  6
CONTINUOUS
 10
103.521146
 20
9.661030
  0
VERTEX
  8
13
  6
CONTINUOUS
 10
103.507797
 20
9.676793
  0
VERTEX
  8
13
  6
CONTINUOUS
 10
103.495964
 20
9.690528
  0
VERTEX
  8
13
  6
CONTINUOUS
 10
103.473877
 20
9.715277
  0
VERTEX
  8
13
  6
CONTINUOUS
 10
103.454164
 20
9.736530
  0
VERTEX
  8
13
  6
CONTINUOUS
 10
103.434048
 20
9.757502
  0
VERTEX
  8
13
  6
CONTINUOUS
 10
103.410015
 20
9.781535
  0
VERTEX
  8
13
  6
CONTINUOUS
 10
103.399294
 20
9.791943
  0
VERTEX
  8
13
  6
CONTINUOUS
 10
103.388429
 20
9.802406
  0
VERTEX
  8
13
  6
CONTINUOUS
 10
103.359952
 20
9.828752
  0
VERTEX
  8
13
  6
CONTINUOUS
 10
103.325139
 20
9.859181
  0
VERTEX
  8
13
  6
CONTINUOUS
 10
103.286846
 20
9.890826
  0
VERTEX
  8
13
  6
CONTINUOUS
 10
103.251036
 20
9.918745
  0
VERTEX
  8
13
  6
CONTINUOUS
 10
103.200839
 20
9.955427
  0
VERTEX
  8
13
  6
CONTINUOUS
 10
103.134352
 20
9.999676
  0
VERTEX
  8
13
  6
CONTINUOUS
 10
103.093446
 20
10.024343
  0
SEQEND
  8
13
  6
CONTINUOUS
  0
POLYLINE
  8
13
  6
CONTINUOUS
 66
     1
  0
VERTEX
  8
13
  6
CONTINUOUS
 10
102.522746
 20
10.635283
  0
VERTEX
  8
13
  6
CONTINUOUS
 10
102.522746
 20
11.162246
  0
VERTEX
  8
13
  6
CONTINUOUS
 10
102.095046
 20
11.162246
  0
VERTEX
  8
13
  6
CONTINUOUS
 10
102.095046
 20
10.995122
  0
VERTEX
  8
13
  6
CONTINUOUS
 10
102.153689
 20
10.929235
  0
VERTEX
  8
13
  6
CONTINUOUS
 10
102.237359
 20
10.846559
  0
VERTEX
  8
13
  6
CONTINUOUS
 10
102.308389
 20
10.784730
  0
VERTEX
  8
13
  6
CONTINUOUS
 10
102.366624
 20
10.739274
  0
VERTEX
  8
13
  6
CONTINUOUS
 10
102.406322
 20
10.710064
  0
VERTEX
  8
13
  6
CONTINUOUS
 10
102.455827
 20
10.676682
  0
VERTEX
  8
13
  6
CONTINUOUS
 10
102.493954
 20
10.652515
  0
VERTEX
  8
13
  6
CONTINUOUS
 10
102.522746
 20
10.635283
  0
SEQEND
  8
13
  6
CONTINUOUS
  0
POLYLINE
  8
13
  6
CONTINUOUS
 66
     1
  0
VERTEX
  8
13
  6
CONTINUOUS
 10
103.021946
 20
10.443678
  0
VERTEX
  8
13
  6
CONTINUOUS
 10
103.021946
 20
11.162246
  0
VERTEX
  8
13
  6
CONTINUOUS
 10
102.594246
 20
11.162246
  0
VERTEX
  8
13
  6
CONTINUOUS
 10
102.594246
 20
10.595859
  0
VERTEX
  8
13
  6
CONTINUOUS
 10
102.663800
 20
10.561766
  0
VERTEX
  8
13
  6
CONTINUOUS
 10
102.744359
 20
10.527375
  0
VERTEX
  8
13
  6
CONTINUOUS
 10
102.812197
 20
10.501464
  0
VERTEX
  8
13
  6
CONTINUOUS
 10
102.889458
 20
10.476967
  0
VERTEX
  8
13
  6
CONTINUOUS
 10
102.950702
 20
10.460007
  0
VERTEX
  8
13
  6
CONTINUOUS
 10
103.021946
 20
10.443678
  0
SEQEND
  8
13
  6
CONTINUOUS
  0
POLYLINE
  8
13
  6
CONTINUOUS
 66
     1
  0
VERTEX
  8
13
  6
CONTINUOUS
 10
103.093446
 20
10.430307
  0
VERTEX
  8
13
  6
CONTINUOUS
 10
103.093446
 20
11.162246
  0
VERTEX
  8
13
  6
CONTINUOUS
 10
103.521146
 20
11.162246
  0
VERTEX
  8
13
  6
CONTINUOUS
 10
103.521146
 20
10.417580
  0
VERTEX
  8
13
  6
CONTINUOUS
 10
103.476372
 20
10.413637
  0
VERTEX
  8
13
  6
CONTINUOUS
 10
103.416577
 20
10.410480
  0
VERTEX
  8
13
  6
CONTINUOUS
 10
103.366788
 20
10.409453
  0
VERTEX
  8
13
  6
CONTINUOUS
 10
103.336830
 20
10.409453
  0
VERTEX
  8
13
  6
CONTINUOUS
 10
103.286182
 20
10.410821
  0
VERTEX
  8
13
  6
CONTINUOUS
 10
103.241261
 20
10.413321
  0
VERTEX
  8
13
  6
CONTINUOUS
 10
103.205545
 20
10.416539
  0
VERTEX
  8
13
  6
CONTINUOUS
 10
103.155349
 20
10.421044
  0
VERTEX
  8
13
  6
CONTINUOUS
 10
103.093446
 20
10.430307
  0
SEQEND
  8
13
  6
CONTINUOUS
  0
POLYLINE
  8
13
  6
CONTINUOUS
 66
     1
  0
VERTEX
  8
13
  6
CONTINUOUS
 10
102.522746
 20
9.498246
  0
VERTEX
  8
13
  6
CONTINUOUS
 10
102.594246
 20
9.498246
  0
VERTEX
  8
13
  6
CONTINUOUS
 10
102.594246
 20
11.162246
  0
VERTEX
  8
13
  6
CONTINUOUS
 10
102.522746
 20
11.162246
  0
VERTEX
  8
13
  6
CONTINUOUS
 10
102.522746
 20
9.498246
  0
VERTEX
  8
13
  6
CONTINUOUS
 10
102.594246
 20
9.498246
  0
SEQEND
  8
13
  6
CONTINUOUS
  0
POLYLINE
  8
13
  6
CONTINUOUS
 66
     1
  0
VERTEX
  8
13
  6
CONTINUOUS
 10
103.021946
 20
11.162246
  0
VERTEX
  8
13
  6
CONTINUOUS
 10
103.093446
 20
11.162246
  0
VERTEX
  8
13
  6
CONTINUOUS
 10
103.093446
 20
9.498246
  0
VERTEX
  8
13
  6
CONTINUOUS
 10
103.021946
 20
9.498246
  0
VERTEX
  8
13
  6
CONTINUOUS
 10
103.021946
 20
11.162246
  0
SEQEND
  8
13
  6
CONTINUOUS
  0
POLYLINE
  8
13
  6
CONTINUOUS
 66
     1
  0
VERTEX
  8
13
  6
CONTINUOUS
 10
103.521146
 20
9.498246
  0
VERTEX
  8
13
  6
CONTINUOUS
 10
103.635546
 20
9.498246
  0
VERTEX
  8
13
  6
CONTINUOUS
 10
103.635546
 20
11.162246
  0
VERTEX
  8
13
  6
CONTINUOUS
 10
103.521146
 20
11.162246
  0
VERTEX
  8
13
  6
CONTINUOUS
 10
103.521146
 20
9.498246
  0
SEQEND
  8
13
  6
CONTINUOUS
  0
LINE
  8
6
  6
CONTINUOUS
 10
107.924321
 20
3.000000
 11
107.924321
 21
2.000000
  0
LINE
  8
6
  6
CONTINUOUS
 10
101.700002
 20
2.000000
 11
114.124321
 21
2.000000
  0
LINE
  8
6
  6
CONTINUOUS
 10
114.124321
 20
3.000000
 11
114.124321
 21
1.000000
  0
LINE
  8
6
  6
CONTINUOUS
 10
101.700002
 20
8.600000
 11
118.000002
 21
8.600000
  0
LINE
  8
6
  6
CONTINUOUS
 10
101.700002
 20
8.600000
 11
101.700002
 21
11.300000
  0
LINE
  8
6
  6
CONTINUOUS
 10
101.700002
 20
11.300000
 11
118.000002
 21
11.300000
  0
LINE
  8
6
  6
CONTINUOUS
 10
101.700002
 20
11.400000
 11
118.000002
 21
11.400000
  0
LINE
  8
1
  6
CONTINUOUS
 10
101.700002
 20
19.200000
 11
118.000002
 21
19.200000
  0
LINE
  8
1
  6
CONTINUOUS
 10
102.200002
 20
19.200000
 11
118.000002
 21
19.200000
  0
LINE
  8
1
  6
CONTINUOUS
 10
102.200002
 20
19.200000
 11
118.000002
 21
19.200000
  0
LINE
  8
1
  6
CONTINUOUS
 10
101.700002
 20
19.700000
 11
118.000002
 21
19.700000
  0
LINE
  8
1
  6
CONTINUOUS
 10
102.200002
 20
19.700000
 11
118.000002
 21
19.700000
  0
LINE
  8
1
  6
CONTINUOUS
 10
102.200002
 20
19.700000
 11
118.000002
 21
19.700000
  0
LINE
  8
1
  6
CONTINUOUS
 10
101.700002
 20
20.200000
 11
118.000002
 21
20.200000
  0
LINE
  8
1
  6
CONTINUOUS
 10
102.200002
 20
20.200000
 11
118.000002
 21
20.200000
  0
LINE
  8
1
  6
CONTINUOUS
 10
102.200002
 20
20.200000
 11
118.000002
 21
20.200000
  0
LINE
  8
1
  6
CONTINUOUS
 10
101.700002
 20
20.700000
 11
118.000002
 21
20.700000
  0
LINE
  8
1
  6
CONTINUOUS
 10
102.200002
 20
20.700000
 11
118.000002
 21
20.700000
  0
LINE
  8
1
  6
CONTINUOUS
 10
102.200002
 20
20.700000
 11
118.000002
 21
20.700000
  0
LINE
  8
1
  6
CONTINUOUS
 10
101.700002
 20
21.200000
 11
118.000002
 21
21.200000
  0
LINE
  8
1
  6
CONTINUOUS
 10
102.200002
 20
21.200000
 11
118.000002
 21
21.200000
  0
LINE
  8
1
  6
CONTINUOUS
 10
102.200002
 20
21.200000
 11
118.000002
 21
21.200000
  0
LINE
  8
1
  6
CONTINUOUS
 10
101.700002
 20
21.700000
 11
118.000002
 21
21.700000
  0
LINE
  8
6
  6
CONTINUOUS
 10
110.708935
 20
11.300000
 11
110.708935
 21
8.600000
  0
TEXT
  8
1
  6
CONTINUOUS
 10
97.971462
 20
79.847140
 40
0.220000
  1
CABO
  7
TQS_CALIBRI
  0
TEXT
  8
1
  6
CONTINUOUS
 10
105.035943
 20
80.137140
 40
0.220000
  1
COMPRIMENTO
  7
TQS_CALIBRI
  0
TEXT
  8
1
  6
CONTINUOUS
 10
108.030249
 20
79.637140
 40
0.220000
  1
TOTAL
  7
TQS_CALIBRI
  0
TEXT
  8
1
  6
CONTINUOUS
 10
110.860603
 20
79.637140
 40
0.220000
  1
A
  7
TQS_CALIBRI
  0
TEXT
  8
1
  6
CONTINUOUS
 10
111.905419
 20
79.637140
 40
0.220000
  1
P
  7
TQS_CALIBRI
  0
TEXT
  8
1
  6
CONTINUOUS
 10
112.950235
 20
79.637140
 40
0.220000
  1
I
  7
TQS_CALIBRI
  0
TEXT
  8
1
  6
CONTINUOUS
 10
110.877916
 20
80.137140
 40
0.220000
  1
ANCORAGENS
  7
TQS_CALIBRI
  0
TEXT
  8
1
  6
CONTINUOUS
 10
102.430423
 20
79.847140
 40
0.220000
  1
Q
  7
TQS_CALIBRI
  0
TEXT
  8
1
  6
CONTINUOUS
 10
99.130084
 20
80.797140
 40
0.400000
  1
PROTENSÃO: AÇO
  7
TQS_CALIBRI
  0
TEXT
  8
1
  6
CONTINUOUS
 10
104.448813
 20
79.637140
 40
0.220000
  1
UNITÁRIO
  7
TQS_CALIBRI
  0
TEXT
  8
1
  6
CONTINUOUS
 10
113.905298
 20
79.637140
 40
0.220000
  1
INI
  7
TQS_CALIBRI
  0
TEXT
  8
1
  6
CONTINUOUS
 10
115.472522
 20
79.637140
 40
0.220000
  1
FIN
  7
TQS_CALIBRI
  0
TEXT
  8
1
  6
CONTINUOUS
 10
100.359674
 20
79.849359
 40
0.220000
  1
%%c
  7
TQS_CALIBRI
  0
TEXT
  8
1
  6
CONTINUOUS
 10
113.999064
 20
80.137140
 40
0.220000
  1
ALONG
  7
TQS_CALIBRI
  0
TEXT
  8
1
  6
CONTINUOUS
 10
105.458314
 20
80.797140
 40
0.400000
  1
CP190 RB 12.7 - 12.7
  7
TQS_CALIBRI
  0
TEXT
  8
1
  6
CONTINUOUS
 10
100.644822
 20
79.849359
 40
0.220000
  1
(mm)
  7
TQS_CALIBRI
  0
TEXT
  8
1
  6
CONTINUOUS
 10
107.696019
 20
80.137140
 40
0.220000
  1
(m)
  7
TQS_CALIBRI
  0
TEXT
  8
1
  6
CONTINUOUS
 10
115.186560
 20
80.137140
 40
0.220000
  1
(mm)
  7
TQS_CALIBRI
  0
TEXT
  8
1
  6
CONTINUOUS
 10
97.616884
 20
79.137140
 40
0.220000
  1
C1 A C4
  7
TQS_CALIBRI
  0
TEXT
  8
1
  6
CONTINUOUS
 10
99.970365
 20
79.137140
 40
0.220000
  1
2 %%c 12.7
  7
TQS_CALIBRI
  0
TEXT
  8
1
  6
CONTINUOUS
 10
102.184762
 20
79.137140
 40
0.220000
  1
4
  7
TQS_CALIBRI
  0
TEXT
  8
1
  6
CONTINUOUS
 10
104.421345
 20
79.137140
 40
0.220000
  1
18.5
  7
TQS_CALIBRI
  0
TEXT
  8
1
  6
CONTINUOUS
 10
107.698178
 20
79.137140
 40
0.220000
  1
147.6
  7
TQS_CALIBRI
  0
TEXT
  8
1
  6
CONTINUOUS
 10
110.676150
 20
79.137140
 40
0.220000
  1
8
  7
TQS_CALIBRI
  0
TEXT
  8
1
  6
CONTINUOUS
 10
111.720966
 20
79.137140
 40
0.220000
  1
8
  7
TQS_CALIBRI
  0
TEXT
  8
1
  6
CONTINUOUS
 10
113.757789
 20
79.137140
 40
0.220000
  1
0
  7
TQS_CALIBRI
  0
TEXT
  8
1
  6
CONTINUOUS
 10
115.325013
 20
79.137140
 40
0.220000
  1
124
  7
TQS_CALIBRI
  0
TEXT
  8
1
  6
CONTINUOUS
 10
97.616884
 20
78.637139
 40
0.220000
  1
C5 A C19
  7
TQS_CALIBRI
  0
TEXT
  8
1
  6
CONTINUOUS
 10
99.970365
 20
78.637139
 40
0.220000
  1
4 %%c 12.7
  7
TQS_CALIBRI
  0
TEXT
  8
1
  6
CONTINUOUS
 10
102.184762
 20
78.637139
 40
0.220000
  1
15
  7
TQS_CALIBRI
  0
TEXT
  8
1
  6
CONTINUOUS
 10
104.421345
 20
78.637139
 40
0.220000
  1
18.5
  7
TQS_CALIBRI
  0
TEXT
  8
1
  6
CONTINUOUS
 10
107.698178
 20
78.637139
 40
0.220000
  1
1107.1
  7
TQS_CALIBRI
  0
TEXT
  8
1
  6
CONTINUOUS
 10
110.676150
 20
78.637139
 40
0.220000
  1
60
  7
TQS_CALIBRI
  0
TEXT
  8
1
  6
CONTINUOUS
 10
111.720966
 20
78.637139
 40
0.220000
  1
60
  7
TQS_CALIBRI
  0
TEXT
  8
1
  6
CONTINUOUS
 10
113.757789
 20
78.637139
 40
0.220000
  1
0
  7
TQS_CALIBRI
  0
TEXT
  8
1
  6
CONTINUOUS
 10
115.325013
 20
78.637139
 40
0.220000
  1
115
  7
TQS_CALIBRI
  0
TEXT
  8
1
  6
CONTINUOUS
 10
98.103025
 20
75.637138
 40
0.220000
  1
%%c
  7
TQS_CALIBRI
  0
TEXT
  8
1
  6
CONTINUOUS
 10
101.676563
 20
76.137138
 40
0.220000
  1
CABO
  7
TQS_CALIBRI
  0
TEXT
  8
1
  6
CONTINUOUS
 10
107.861123
 20
75.387139
 40
0.220000
  1
A
  7
TQS_CALIBRI
  0
TEXT
  8
1
  6
CONTINUOUS
 10
108.905938
 20
75.387139
 40
0.220000
  1
P
  7
TQS_CALIBRI
  0
TEXT
  8
1
  6
CONTINUOUS
 10
109.950755
 20
75.387139
 40
0.220000
  1
I
  7
TQS_CALIBRI
  0
TEXT
  8
1
  6
CONTINUOUS
 10
104.172322
 20
75.637138
 40
0.220000
  1
PESO
  7
TQS_CALIBRI
  0
TEXT
  8
1
  6
CONTINUOUS
 10
107.931302
 20
76.137139
 40
0.220000
  1
ANCORAGENS
  7
TQS_CALIBRI
  0
TEXT
  8
1
  6
CONTINUOUS
 10
100.010082
 20
77.220471
 40
0.400000
  1
RESUMO DE PROTENSÃO
  7
TQS_CALIBRI
  0
TEXT
  8
1
  6
CONTINUOUS
 10
99.548219
 20
76.657771
 40
0.300000
  1
Monocordoalhas não aderentes
  7
TQS_CALIBRI
  0
TEXT
  8
1
  6
CONTINUOUS
 10
99.939320
 20
75.637138
 40
0.220000
  1
COMPR
  7
TQS_CALIBRI
  0
TEXT
  8
1
  6
CONTINUOUS
 10
101.789108
 20
75.137139
 40
0.220000
  1
kgf/m
  7
TQS_CALIBRI
  0
TEXT
  8
1
  6
CONTINUOUS
 10
103.940885
 20
75.137139
 40
0.220000
  1
kgf
  7
TQS_CALIBRI
  0
TEXT
  8
1
  6
CONTINUOUS
 10
105.755277
 20
75.137139
 40
0.220000
  1
kgf+4%
  7
TQS_CALIBRI
  0
TEXT
  8
1
  6
CONTINUOUS
 10
99.943866
 20
75.137139
 40
0.220000
  1
m
  7
TQS_CALIBRI
  0
TEXT
  8
1
  6
CONTINUOUS
 10
98.081405
 20
75.137139
 40
0.220000
  1
mm
  7
TQS_CALIBRI
  0
TEXT
  8
1
  6
CONTINUOUS
 10
99.669182
 20
74.637138
 40
0.220000
  1
148
  7
TQS_CALIBRI
  0
TEXT
  8
1
  6
CONTINUOUS
 10
108.714779
 20
74.637138
 40
0.220000
  1
8
  7
TQS_CALIBRI
  0
TEXT
  8
1
  6
CONTINUOUS
 10
107.669962
 20
74.637138
 40
0.220000
  1
8
  7
TQS_CALIBRI
  0
TEXT
  8
1
  6
CONTINUOUS
 10
101.789108
 20
74.637138
 40
0.220000
  1
0.886
  7
TQS_CALIBRI
  0
TEXT
  8
1
  6
CONTINUOUS
 10
103.378437
 20
74.637138
 40
0.220000
  1
131
  7
TQS_CALIBRI
  0
TEXT
  8
1
  6
CONTINUOUS
 10
105.438435
 20
74.637138
 40
0.220000
  1
136
  7
TQS_CALIBRI
  0
TEXT
  8
1
  6
CONTINUOUS
 10
97.481249
 20
74.637138
 40
0.220000
  1
2 %%c 12.7
  7
TQS_CALIBRI
  0
TEXT
  8
1
  6
CONTINUOUS
 10
99.669182
 20
74.137137
 40
0.220000
  1
1107
  7
TQS_CALIBRI
  0
TEXT
  8
1
  6
CONTINUOUS
 10
108.714779
 20
74.137137
 40
0.220000
  1
60
  7
TQS_CALIBRI
  0
TEXT
  8
1
  6
CONTINUOUS
 10
107.669962
 20
74.137137
 40
0.220000
  1
60
  7
TQS_CALIBRI
  0
TEXT
  8
1
  6
CONTINUOUS
 10
101.789108
 20
74.137137
 40
0.220000
  1
0.886
  7
TQS_CALIBRI
  0
TEXT
  8
1
  6
CONTINUOUS
 10
103.378437
 20
74.137137
 40
0.220000
  1
981
  7
TQS_CALIBRI
  0
TEXT
  8
1
  6
CONTINUOUS
 10
105.438435
 20
74.137137
 40
0.220000
  1
1020
  7
TQS_CALIBRI
  0
TEXT
  8
1
  6
CONTINUOUS
 10
97.481249
 20
74.137137
 40
0.220000
  1
4 %%c 12.7
  7
TQS_CALIBRI
  0
TEXT
  8
1
  6
CONTINUOUS
 10
101.932386
 20
23.396411
 40
0.350000
  1
NOTAS:
  7
TQS_CALIBRI
  0
TEXT
  8
2
  6
CONTINUOUS
 10
101.965840
 20
22.812661
 40
0.240000
  1
1) CONFERIR INFORMAÇÕES DA TABELA ACIMA (TABELA DE FERRERAGEM) NA OBRA
  7
TQS_CALIBRI
  0
TEXT
  8
2
  6
CONTINUOUS
 10
101.965840
 20
22.343353
 40
0.240000
  1
ANTES DA COMPRA DAS ARMADURAS.
  7
TQS_CALIBRI
  0
TEXT
  8
1
  6
CONTINUOUS
 10
7.657984
 20
18.488738
 40
0.300000
  1
L25
  7
TQS_CALIBRI
  0
TEXT
  8
1
  6
CONTINUOUS
 10
17.424801
 20
28.040453
 40
0.300000
  1
L18
  7
TQS_CALIBRI
  0
TEXT
  8
1
  6
CONTINUOUS
 10
12.443313
 20
28.117250
 40
0.300000
  1
L17
  7
TQS_CALIBRI
  0
TEXT
  8
1
  6
CONTINUOUS
 10
12.601466
 20
37.978404
 40
0.300000
  1
L11
  7
TQS_CALIBRI
  0
TEXT
  8
1
  6
CONTINUOUS
 10
17.365878
 20
38.448630
 40
0.300000
  1
L7
  7
TQS_CALIBRI
  0
TEXT
  8
1
  6
CONTINUOUS
 10
38.762710
 20
38.428665
 40
0.300000
  1
L9
  7
TQS_CALIBRI
  0
TEXT
  8
1
  6
CONTINUOUS
 10
58.434990
 20
38.304235
 40
0.300000
  1
L10
  7
TQS_CALIBRI
  0
TEXT
  8
1
  6
CONTINUOUS
 10
39.023217
 20
15.633992
 40
0.300000
  1
L29
  7
TQS_CALIBRI
  0
TEXT
  8
1
  6
CONTINUOUS
 10
12.454351
 20
6.277355
 40
0.300000
  1
L32
  7
TQS_CALIBRI
  0
TEXT
  8
1
  6
CONTINUOUS
 10
17.649020
 20
6.299745
 40
0.300000
  1
L33
  7
TQS_CALIBRI
  0
TEXT
  8
1
  6
CONTINUOUS
 10
37.596326
 20
6.370056
 40
0.300000
  1
L35
  7
TQS_CALIBRI
  0
TEXT
  8
1
  6
CONTINUOUS
 10
58.342588
 20
6.238843
 40
0.300000
  1
L37
  7
TQS_CALIBRI
  0
TEXT
  8
1
  6
CONTINUOUS
 10
48.317760
 20
22.216373
 40
0.300000
  1
L22
  7
TQS_CALIBRI
  0
TEXT
  8
1
  6
CONTINUOUS
 10
48.429263
 20
38.092163
 40
0.300000
  1
L12
  7
TQS_CALIBRI
  0
TEXT
  8
1
  6
CONTINUOUS
 10
58.463291
 20
22.140080
 40
0.300000
  1
L23
  7
TQS_CALIBRI
  0
TEXT
  8
1
  6
CONTINUOUS
 10
48.697056
 20
6.272440
 40
0.300000
  1
L36
  7
TQS_CALIBRI
  0
TEXT
  8
1
  6
CONTINUOUS
 10
75.877873
 20
15.435154
 40
0.300000
  1
L30
  7
TQS_CALIBRI
  0
TEXT
  8
1
  6
CONTINUOUS
 10
75.724969
 20
24.223135
 40
0.300000
  1
L20
  7
TQS_CALIBRI
  0
TEXT
  8
1
  6
CONTINUOUS
 10
75.892968
 20
33.992981
 40
0.300000
  1
L15
  7
TQS_CALIBRI
  0
TEXT
  8
1
  6
CONTINUOUS
 10
17.504597
 20
16.217118
 40
0.300000
  1
L27
  7
TQS_CALIBRI
  0
TEXT
  8
1
  6
CONTINUOUS
 10
86.170209
 20
31.950398
 40
0.300000
  1
L16
  7
TQS_CALIBRI
  0
TEXT
  8
1
  6
CONTINUOUS
 10
81.556450
 20
65.184796
 40
0.300000
  1
L1
  7
TQS_CALIBRI
  0
TEXT
  8
1
  6
CONTINUOUS
 10
92.464338
 20
62.511456
 40
0.300000
  1
L2
  7
TQS_CALIBRI
  0
TEXT
  8
1
  6
CONTINUOUS
 10
79.423740
 20
47.728852
 40
0.300000
  1
L6
  7
TQS_CALIBRI
  0
TEXT
  8
1
  6
CONTINUOUS
 10
89.510998
 20
37.468443
 40
0.300000
  1
L14
  7
TQS_CALIBRI
  0
TEXT
  8
1
  6
CONTINUOUS
 10
86.912780
 20
48.468787
 40
0.300000
  1
L5
  7
TQS_CALIBRI
  0
TEXT
  8
1
  6
CONTINUOUS
 10
83.840490
 20
59.345599
 40
0.300000
  1
L3
  7
TQS_CALIBRI
  0
TEXT
  8
1
  6
CONTINUOUS
 10
83.347833
 20
54.471793
 40
0.300000
  1
L4
  7
TQS_CALIBRI
  0
TEXT
  8
1
  6
CONTINUOUS
 10
25.684827
 20
38.414389
 40
0.300000
  1
L8
  7
TQS_CALIBRI
  0
TEXT
  8
1
  6
CONTINUOUS
 10
25.570697
 20
6.226935
 40
0.300000
  1
L34
  7
TQS_CALIBRI
  0
TEXT
  8
1
  6
CONTINUOUS
 10
24.612329
 20
28.071319
 40
0.300000
  1
L19
  7
TQS_CALIBRI
  0
TEXT
  8
1
  6
CONTINUOUS
 10
25.508511
 20
16.232070
 40
0.300000
  1
L28
  7
TQS_CALIBRI
  0
TEXT
  8
1
  6
CONTINUOUS
 10
12.330104
 20
16.065899
 40
0.300000
  1
L26
  7
TQS_CALIBRI
  0
TEXT
  8
1
  6
CONTINUOUS
 10
86.225783
 20
15.397445
 40
0.300000
  1
L31
  7
TQS_CALIBRI
  0
TEXT
  8
1
  6
CONTINUOUS
 10
85.282021
 20
24.276692
 40
0.300000
  1
L21
  7
TQS_CALIBRI
  0
TEXT
  8
1
  6
CONTINUOUS
 10
86.198585
 20
6.141956
 40
0.300000
  1
L40
  7
TQS_CALIBRI
  0
TEXT
  8
1
  6
CONTINUOUS
 10
75.964242
 20
6.081493
 40
0.300000
  1
L39
  7
TQS_CALIBRI
  0
TEXT
  8
1
  6
CONTINUOUS
 10
67.635870
 20
38.300143
 40
0.300000
  1
L13
  7
TQS_CALIBRI
  0
TEXT
  8
1
  6
CONTINUOUS
 10
67.079242
 20
22.367266
 40
0.300000
  1
L24
  7
TQS_CALIBRI
  0
TEXT
  8
1
  6
CONTINUOUS
 10
67.431802
 20
6.052870
 40
0.300000
  1
L38
  7
TQS_CALIBRI
  0
TEXT
  8
1
  6
CONTINUOUS
 10
78.277756
 20
49.171195
 40
0.300000
  1
P187
  7
TQS_CALIBRI
  0
TEXT
  8
1
  6
CONTINUOUS
 10
13.545816
 20
33.381199
 40
0.300000
  1
PD1
  7
TQS_CALIBRI
  0
TEXT
  8
1
  6
CONTINUOUS
 10
13.538393
 20
8.821199
 40
0.300000
  1
PD4
  7
TQS_CALIBRI
  0
TEXT
  8
1
  6
CONTINUOUS
 10
45.761240
 20
8.821199
 40
0.300000
  1
PD5
  7
TQS_CALIBRI
  0
TEXT
  8
1
  6
CONTINUOUS
 10
73.175816
 20
8.831200
 40
0.300000
  1
PD6
  7
TQS_CALIBRI
  0
TEXT
  8
1
  6
CONTINUOUS
 10
73.175816
 20
33.371200
 40
0.300000
  1
PD3
  7
TQS_CALIBRI
  0
TEXT
  8
1
  6
CONTINUOUS
 10
45.761240
 20
33.371200
 40
0.300000
  1
PD2
  7
TQS_CALIBRI
  0
TEXT
  8
1
  6
CONTINUOUS
 10
78.277760
 20
39.681200
 40
0.300000
  1
P405
  7
TQS_CALIBRI
  0
TEXT
  8
1
  6
CONTINUOUS
 10
78.277756
 20
70.811062
 40
0.300000
  1
PC5
  7
TQS_CALIBRI
  0
TEXT
  8
1
  6
CONTINUOUS
 10
86.980873
 20
70.811062
 40
0.300000
  1
PC6
  7
TQS_CALIBRI
  0
TEXT
  8
1
  6
CONTINUOUS
 10
42.425028
 20
24.692357
 40
0.300000
  1
PC11
  7
TQS_CALIBRI
  0
TEXT
  8
1
  6
CONTINUOUS
 10
86.167760
 20
49.171190
 40
0.300000
  1
P188
  7
TQS_CALIBRI
  0
TEXT
  8
1
  6
CONTINUOUS
 10
86.167760
 20
60.311190
 40
0.300000
  1
P183
  7
TQS_CALIBRI
  0
TEXT
  8
1
  6
CONTINUOUS
 10
82.577756
 20
60.711195
 40
0.300000
  1
PC8
  7
TQS_CALIBRI
  0
TEXT
  8
1
  6
CONTINUOUS
 10
82.577756
 20
56.511195
 40
0.300000
  1
PC9
  7
TQS_CALIBRI
  0
TEXT
  8
1
  6
CONTINUOUS
 10
84.981296
 20
56.100772
 40
0.300000
  1
P185
  7
TQS_CALIBRI
  0
TEXT
  8
1
  6
CONTINUOUS
 10
78.277756
 20
56.511190
 40
0.300000
  1
PC7
  7
TQS_CALIBRI
  0
TEXT
  8
1
  6
CONTINUOUS
 10
92.343284
 20
4.886803
 40
0.300000
  1
P118C
  7
TQS_CALIBRI
  0
TEXT
  8
1
  6
CONTINUOUS
 10
93.035998
 20
15.575630
 40
0.300000
  1
P115C
  7
TQS_CALIBRI
  0
TEXT
  8
1
  6
CONTINUOUS
 10
94.075801
 20
27.861449
 40
0.300000
  1
P110C
  7
TQS_CALIBRI
  0
TEXT
  8
1
  6
CONTINUOUS
 10
96.745068
 20
59.797278
 40
0.300000
  1
P98C
  7
TQS_CALIBRI
  0
TEXT
  8
1
  6
CONTINUOUS
 10
95.981828
 20
50.779519
 40
0.300000
  1
P103C
  7
TQS_CALIBRI
  0
TEXT
  8
1
  6
CONTINUOUS
 10
89.577755
 20
49.615385
 40
0.300000
  1
P311
  7
TQS_CALIBRI
  0
TEXT
  8
1
  6
CONTINUOUS
 10
89.577755
 20
57.915323
 40
0.300000
  1
P310
  7
TQS_CALIBRI
  0
TEXT
  8
1
  6
CONTINUOUS
 10
11.235759
 20
3.877330
 40
0.300000
  1
P423
  7
TQS_CALIBRI
  0
TEXT
  8
1
  6
CONTINUOUS
 10
43.035759
 20
3.877330
 40
0.300000
  1
P425
  7
TQS_CALIBRI
  0
TEXT
  8
1
  6
CONTINUOUS
 10
59.035759
 20
3.877330
 40
0.300000
  1
P426
  7
TQS_CALIBRI
  0
TEXT
  8
1
  6
CONTINUOUS
 10
75.035759
 20
3.877330
 40
0.300000
  1
P427
  7
TQS_CALIBRI
  0
TEXT
  8
1
  6
CONTINUOUS
 10
10.835759
 20
19.281200
 40
0.300000
  1
P415
  7
TQS_CALIBRI
  0
TEXT
  8
1
  6
CONTINUOUS
 10
21.035759
 20
19.681200
 40
0.300000
  1
P416
  7
TQS_CALIBRI
  0
TEXT
  8
1
  6
CONTINUOUS
 10
33.145759
 20
15.682433
 40
0.300000
  1
P417
  7
TQS_CALIBRI
  0
TEXT
  8
1
  6
CONTINUOUS
 10
45.635023
 20
15.682433
 40
0.300000
  1
P418
  7
TQS_CALIBRI
  0
TEXT
  8
1
  6
CONTINUOUS
 10
54.715023
 20
12.191200
 40
0.300000
  1
P422
  7
TQS_CALIBRI
  0
TEXT
  8
1
  6
CONTINUOUS
 10
72.201072
 20
15.691200
 40
0.300000
  1
P420
  7
TQS_CALIBRI
  0
TEXT
  8
1
  6
CONTINUOUS
 10
80.856385
 20
15.491200
 40
0.300000
  1
P421
  7
TQS_CALIBRI
  0
TEXT
  8
1
  6
CONTINUOUS
 10
11.235759
 20
39.681200
 40
0.300000
  1
P401
  7
TQS_CALIBRI
  0
TEXT
  8
1
  6
CONTINUOUS
 10
27.035759
 20
39.681200
 40
0.300000
  1
P402
  7
TQS_CALIBRI
  0
TEXT
  8
1
  6
CONTINUOUS
 10
43.035759
 20
39.681200
 40
0.300000
  1
P403
  7
TQS_CALIBRI
  0
TEXT
  8
1
  6
CONTINUOUS
 10
59.035759
 20
39.681200
 40
0.300000
  1
P404
  7
TQS_CALIBRI
  0
TEXT
  8
1
  6
CONTINUOUS
 10
72.201072
 20
25.671200
 40
0.300000
  1
P411
  7
TQS_CALIBRI
  0
TEXT
  8
1
  6
CONTINUOUS
 10
80.856385
 20
28.102433
 40
0.300000
  1
P409
  7
TQS_CALIBRI
  0
TEXT
  8
1
  6
CONTINUOUS
 10
45.835023
 20
28.302433
 40
0.300000
  1
P408
  7
TQS_CALIBRI
  0
TEXT
  8
1
  6
CONTINUOUS
 10
54.715023
 20
24.682433
 40
0.300000
  1
P414
  7
TQS_CALIBRI
  0
TEXT
  8
1
  6
CONTINUOUS
 10
10.835759
 20
24.081200
 40
0.300000
  1
P412
  7
TQS_CALIBRI
  0
TEXT
  8
1
  6
CONTINUOUS
 10
21.035759
 20
24.081200
 40
0.300000
  1
P413
  7
TQS_CALIBRI
  0
TEXT
  8
1
  6
CONTINUOUS
 10
33.135759
 20
27.792433
 40
0.300000
  1
P407
  7
TQS_CALIBRI
  0
TEXT
  8
1
  6
CONTINUOUS
 10
90.551305
 20
65.410229
 40
0.300000
  1
P308
  7
TQS_CALIBRI
  0
TEXT
  8
1
  6
CONTINUOUS
 10
89.977755
 20
39.681200
 40
0.300000
  1
P406
  7
TQS_CALIBRI
  0
TEXT
  8
1
  6
CONTINUOUS
 10
86.167760
 20
39.281200
 40
0.300000
  1
P313
  7
TQS_CALIBRI
  0
TEXT
  8
1
  6
CONTINUOUS
 10
97.200427
 20
65.160079
 40
0.300000
  1
P309
  7
TQS_CALIBRI
  0
TEXT
  8
1
  6
CONTINUOUS
 10
42.448051
 20
21.509002
 40
0.300000
  1
PC10
  7
TQS_CALIBRI
  0
TEXT
  8
1
  6
CONTINUOUS
 10
63.995023
 20
26.071200
 40
0.300000
  1
P410
  7
TQS_CALIBRI
  0
TEXT
  8
1
  6
CONTINUOUS
 10
63.795023
 20
15.691200
 40
0.300000
  1
P419
  7
TQS_CALIBRI
  0
TEXT
  8
1
  6
CONTINUOUS
 10
27.035759
 20
3.877330
 40
0.300000
  1
P424
  7
TQS_CALIBRI
  0
TEXT
  8
1
  6
CONTINUOUS
 10
95.037600
 20
39.581580
 40
0.300000
  1
P105C
  7
TQS_CALIBRI
  0
TEXT
  8
4
  6
CONTINUOUS
 10
5.850759
 20
22.354265
 40
0.300000
 50
90.000000
  1
C1
  7
TQS_CALIBRI
  0
TEXT
  8
4
  6
CONTINUOUS
 10
7.090759
 20
22.354265
 40
0.300000
 50
90.000000
  1
C2
  7
TQS_CALIBRI
  0
TEXT
  8
4
  6
CONTINUOUS
 10
8.330759
 20
22.354265
 40
0.300000
 50
90.000000
  1
C3
  7
TQS_CALIBRI
  0
TEXT
  8
4
  6
CONTINUOUS
 10
9.570759
 20
22.354265
 40
0.300000
 50
90.000000
  1
C4
  7
TQS_CALIBRI
  0
TEXT
  8
4
  6
CONTINUOUS
 10
10.452076
 20
22.354265
 40
0.300000
 50
90.000000
  1
C5
  7
TQS_CALIBRI
  0
TEXT
  8
4
  6
CONTINUOUS
 10
10.832076
 20
22.354265
 40
0.300000
 50
90.000000
  1
C6
  7
TQS_CALIBRI
  0
TEXT
  8
4
  6
CONTINUOUS
 10
11.212076
 20
22.354265
 40
0.300000
 50
90.000000
  1
C7
  7
TQS_CALIBRI
  0
TEXT
  8
4
  6
CONTINUOUS
 10
11.592076
 20
22.354265
 40
0.300000
 50
90.000000
  1
C8
  7
TQS_CALIBRI
  0
TEXT
  8
4
  6
CONTINUOUS
 10
11.972076
 20
22.354265
 40
0.300000
 50
90.000000
  1
C9
  7
TQS_CALIBRI
  0
TEXT
  8
4
  6
CONTINUOUS
 10
12.352076
 20
22.354265
 40
0.300000
 50
90.000000
  1
C10
  7
TQS_CALIBRI
  0
TEXT
  8
4
  6
CONTINUOUS
 10
12.732076
 20
22.354265
 40
0.300000
 50
90.000000
  1
C11
  7
TQS_CALIBRI
  0
TEXT
  8
4
  6
CONTINUOUS
 10
13.112076
 20
22.354265
 40
0.300000
 50
90.000000
  1
C12
  7
TQS_CALIBRI
  0
TEXT
  8
4
  6
CONTINUOUS
 10
13.492076
 20
22.354265
 40
0.300000
 50
90.000000
  1
C13
  7
TQS_CALIBRI
  0
TEXT
  8
4
  6
CONTINUOUS
 10
13.872076
 20
22.354265
 40
0.300000
 50
90.000000
  1
C14
  7
TQS_CALIBRI
  0
TEXT
  8
4
  6
CONTINUOUS
 10
14.252076
 20
22.354265
 40
0.300000
 50
90.000000
  1
C15
  7
TQS_CALIBRI
  0
TEXT
  8
4
  6
CONTINUOUS
 10
14.632076
 20
22.354265
 40
0.300000
 50
90.000000
  1
C16
  7
TQS_CALIBRI
  0
TEXT
  8
4
  6
CONTINUOUS
 10
15.012076
 20
22.354265
 40
0.300000
 50
90.000000
  1
C17
  7
TQS_CALIBRI
  0
TEXT
  8
4
  6
CONTINUOUS
 10
15.392076
 20
22.354265
 40
0.300000
 50
90.000000
  1
C18
  7
TQS_CALIBRI
  0
TEXT
  8
4
  6
CONTINUOUS
 10
15.772076
 20
22.354265
 40
0.300000
 50
90.000000
  1
C19
  7
TQS_CALIBRI
  0
TEXT
  8
1
  6
CONTINUOUS
 10
102.073109
 20
8.835799
 40
0.455000
  1
ENGENHARIA
  7
TQS_CALIBRI
  0
TEXT
  8
1
  6
CONTINUOUS
 10
101.876737
 20
16.222571
 40
0.250000
  1
REV
  7
TQS_CALIBRI
  0
TEXT
  8
1
  6
CONTINUOUS
 10
103.356169
 20
16.222571
 40
0.250000
  1
DATA
  7
TQS_CALIBRI
  0
TEXT
  8
1
  6
CONTINUOUS
 10
105.030516
 20
16.222571
 40
0.250000
  1
ASSUNTO
  7
TQS_CALIBRI
  0
TEXT
  8
1
  6
CONTINUOUS
 10
101.832253
 20
14.047181
 40
0.250000
  1
PROPRIETÁRIO - 
  7
TQS_CALIBRI
  0
TEXT
  8
1
  6
CONTINUOUS
 10
108.042444
 20
2.579059
 40
0.250000
  1
ENGENHEIRO:
  7
TQS_CALIBRI
  0
TEXT
  8
1
  6
CONTINUOUS
 10
108.046365
 20
2.149652
 40
0.250000
  1
CREA REG.:
  7
TQS_CALIBRI
  0
TEXT
  8
1
  6
CONTINUOUS
 10
110.430567
 20
2.160333
 40
0.250000
  1
020930945-8
  7
TQS_CALIBRI
  0
TEXT
  8
1
  6
CONTINUOUS
 10
103.739739
 20
9.759850
 40
1.000000
  1
VGF
  7
TQS_CALIBRI
  0
TEXT
  8
1
  6
CONTINUOUS
 10
101.832253
 20
12.147181
 40
0.250000
  1
PROJETO              Eng. Civil - CREA:020930945-8
  7
TQS_CALIBRI
  0
TEXT
  8
1
  6
CONTINUOUS
 10
101.800510
 20
2.752624
 40
0.150000
  1
DATA:
  7
TQS_CALIBRI
  0
TEXT
  8
1
  6
CONTINUOUS
 10
101.788178
 20
1.752624
 40
0.150000
  1
FASE:
  7
TQS_CALIBRI
  0
TEXT
  8
1
  6
CONTINUOUS
 10
105.124829
 20
2.752624
 40
0.150000
  1
ESCALA:
  7
TQS_CALIBRI
  0
TEXT
  8
1
  6
CONTINUOUS
 10
105.112497
 20
1.752624
 40
0.150000
  1
PLANTA:
  7
TQS_CALIBRI
  0
TEXT
  8
1
  6
CONTINUOUS
 10
101.800510
 20
6.352624
 40
0.150000
  1
TÍTULO:
  7
TQS_CALIBRI
  0
TEXT
  8
1
  6
CONTINUOUS
 10
101.787482
 20
5.577767
 40
0.150000
  1
ELEMENTOS DA PRANCHA:
  7
TQS_CALIBRI
  0
TEXT
  8
1
  6
CONTINUOUS
 10
101.800510
 20
8.252624
 40
0.150000
  1
EMPREENDIMENTO/LOCAL:
  7
TQS_CALIBRI
  0
TEXT
  8
1
  6
CONTINUOUS
 10
106.761120
 20
11.025301
 40
0.150000
  1
CONTATOS:
  7
TQS_CALIBRI
  0
TEXT
  8
1
  6
CONTINUOUS
 10
114.224829
 20
2.752624
 40
0.150000
  1
PLANTA-REVISÃO:
  7
TQS_CALIBRI
  0
TEXT
  8
1
  6
CONTINUOUS
 10
102.041441
 20
16.843956
 40
0.200000
  1
00
  7
TQS_CALIBRI
  0
TEXT
  8
1
  6
CONTINUOUS
 10
102.041441
 20
17.343956
 40
0.200000
  1
01
  7
TQS_CALIBRI
  0
TEXT
  8
1
  6
CONTINUOUS
 10
102.041441
 20
17.843956
 40
0.200000
  1
02
  7
TQS_CALIBRI
  0
TEXT
  8
1
  6
CONTINUOUS
 10
102.041441
 20
18.343956
 40
0.200000
  1
03
  7
TQS_CALIBRI
  0
TEXT
  8
1
  6
CONTINUOUS
 10
102.041441
 20
18.843956
 40
0.200000
  1
04
  7
TQS_CALIBRI
  0
TEXT
  8
1
  6
CONTINUOUS
 10
102.041441
 20
19.343956
 40
0.200000
  1
05
  7
TQS_CALIBRI
  0
TEXT
  8
1
  6
CONTINUOUS
 10
102.041441
 20
19.843956
 40
0.200000
  1
06
  7
TQS_CALIBRI
  0
TEXT
  8
1
  6
CONTINUOUS
 10
102.041441
 20
20.343956
 40
0.200000
  1
07
  7
TQS_CALIBRI
  0
TEXT
  8
1
  6
CONTINUOUS
 10
102.041441
 20
20.843956
 40
0.200000
  1
08
  7
TQS_CALIBRI
  0
TEXT
  8
1
  6
CONTINUOUS
 10
102.041441
 20
21.343956
 40
0.200000
  1
09
  7
TQS_CALIBRI
  0
TEXT
  8
1
  6
CONTINUOUS
 10
102.041441
 20
21.843956
 40
0.200000
  1
10
  7
TQS_CALIBRI
  0
TEXT
  8
1
  6
CONTINUOUS
 10
116.437973
 20
16.222571
 40
0.250000
  1
AUTOR
  7
TQS_CALIBRI
  0
TEXT
  8
1
  6
CONTINUOUS
 10
106.749019
 20
10.335784
 40
0.195000
  1
Tel: 99928-2128
  7
TQS_CALIBRI
  0
TEXT
  8
1
  6
CONTINUOUS
 10
106.749019
 20
10.012284
 40
0.195000
  1
franciscogonca@hotmail.com 
  7
TQS_CALIBRI
  0
TEXT
  8
1
  6
CONTINUOUS
 10
106.749019
 20
9.680784
 40
0.195000
  1
Tel: 99981-6458
  7
TQS_CALIBRI
  0
TEXT
  8
1
  6
CONTINUOUS
 10
106.749019
 20
9.357284
 40
0.195000
  1
tiago@vgfengenharia.com.br 
  7
TQS_CALIBRI
  0
TEXT
  8
1
  6
CONTINUOUS
 10
106.749019
 20
9.025784
 40
0.195000
  1
Tel: 99912-8379
  7
TQS_CALIBRI
  0
TEXT
  8
1
  6
CONTINUOUS
 10
110.809443
 20
11.052624
 40
0.150000
  1
CLIENTE:
  7
TQS_CALIBRI
  0
TEXT
  8
1
  6
CONTINUOUS
 10
116.009770
 20
1.647683
 40
0.500000
  1
-R
  7
TQS_CALIBRI
  0
TEXT
  8
1
  6
CONTINUOUS
 10
101.832253
 20
12.547181
 40
0.250000
  1
RESPONSÁVEL -  Diego de Vasconcelos Gonçalves Ferreira
  7
TQS_CALIBRI
  0
TEXT
  8
1
  6
CONTINUOUS
 10
110.422141
 20
2.578345
 40
0.250000
  1
Diego Vasconcelos
  7
TQS_CALIBRI
  0
TEXT
  8
1
  6
CONTINUOUS
 10
106.749019
 20
10.667284
 40
0.195000
  1
diego@vgfengenharia.com.br 
  7
TQS_CALIBRI
  0
TEXT
  8
1
  6
CONTINUOUS
 10
104.982892
 20
16.853163
 40
0.200000
  1
Emissão inicial.
  7
TQS_CALIBRI
  0
TEXT
  8
1
  6
CONTINUOUS
 10
101.795719
 20
7.825700
 40
0.250000
  1
Assembléia Legislativa de Alagoas
  7
TQS_CALIBRI
  0
TEXT
  8
1
  6
CONTINUOUS
 10
104.517953
 20
14.045361
 40
0.250000
  1
ALA
  7
TQS_CALIBRI
  0
TEXT
  8
1
  6
CONTINUOUS
 10
101.789281
 20
2.263237
 40
0.250000
  1
27/02/2024
  7
TQS_CALIBRI
  0
TEXT
  8
1
  6
CONTINUOUS
 10
102.992347
 20
16.854551
 40
0.200000
  1
27/02/24
  7
TQS_CALIBRI
  0
TEXT
  8
1
  6
CONTINUOUS
 10
101.787954
 20
7.415393
 40
0.200000
  1
RUA SÁ E ALBUQUERQUE, NÚMERO 807, JARAGUÁ - MACEIÓ-AL
  7
TQS_CALIBRI
  0
TEXT
  8
1
  6
CONTINUOUS
 10
101.789859
 20
1.251887
 40
0.250000
  1
PE
  7
TQS_CALIBRI
  0
TEXT
  8
1
  6
CONTINUOUS
 10
105.114178
 20
1.251887
 40
0.250000
  1
CLA-EEM-EST-PE-0533-ARM-R00
  7
TQS_CALIBRI
  0
TEXT
  8
1
  6
CONTINUOUS
 10
116.547332
 20
16.842370
 40
0.200000
  1
DIEGO
  7
TQS_CALIBRI
  0
TEXT
  8
1
  6
CONTINUOUS
 10
114.396264
 20
1.644018
 40
0.500000
  1
0533
  7
TQS_CALIBRI
  0
TEXT
  8
1
  6
CONTINUOUS
 10
116.689770
 20
1.647683
 40
0.500000
  1
00
  7
TQS_CALIBRI
  0
TEXT
  8
1
  6
CONTINUOUS
 10
110.802729
 20
10.513659
 40
0.400000
  1
ALA
  7
TQS_CALIBRI
  0
TEXT
  8
1
  6
CONTINUOUS
 10
101.762319
 20
5.951739
 40
0.250000
  1
ARM. PROTENSÃO HORIZONTAL e VERTICAL (04-3Pavto) - 01 - I
  7
TQS_CALIBRI
  0
ENDSEC
  0
EOF
