  0
SECTION
  2
HEADER
  9
$ACADVER
  1
AC1002
  9
$USERI1
 70
0
  9
$INSBASE
 10
0.000000
 20
0.000000
  9
$EXTMIN
 10
0.000000
 20
0.000000
  9
$EXTMAX
 10
7.761771
 20
4.436620
  9
$LIMMIN
 10
0.000000
 20
0.000000
  9
$LIMMAX
 10
12.000000
 20
9.000000
  9
$VIEWCTR
 10
78.887138
 20
59.361758
  9
$VIEWSIZE
 40
127.522840
  9
$TEXTSIZE
 40
0.100000
  9
$TRACEWID
 40
0.010000
  9
$LTSCALE
 40
1.000000
  0
ENDSEC
  0
SECTION
  2
TABLES
  0
TABLE
  2
LTYPE
 70
     3
  0
LTYPE
  2
CONTINUOUS
 70
    64
  3
Solid line
 72
    65
 73
     0
 40
0.000000
  0
LTYPE
  2
ESTILO_TQS_0001
 70
    64
  3
-  -  -  -  -  -
 72
    65
 73
     2
 40
1.000000
 49
0.700000
 49
-0.300000
  0
LTYPE
  2
ESTILO_TQS_0002
 70
    64
  3
. . . . . . . .
 72
    65
 73
     2
 40
0.400000
 49
0.100000
 49
-0.300000
  0
LTYPE
  2
ESTILO_TQS_0003
 70
    64
  3
- . - . - . - .
 72
    65
 73
     4
 40
0.910000
 49
0.500000
 49
-0.200000
 49
0.010000
 49
-0.200000
  0
LTYPE
  2
ESTILO_TQS_0004
 70
    64
  3
- .. - .. - ..
 72
    65
 73
     6
 40
1.120000
 49
0.500000
 49
-0.200000
 49
0.010000
 49
-0.200000
 49
0.010000
 49
-0.200000
  0
LTYPE
  2
CONTINUOUS
 70
    64
  3
- - - - - - - -
 72
    65
 73
     2
 40
0.400000
 49
0.300000
 49
-0.100000
  0
ENDTAB
  0
TABLE
  2
LAYER
 70
    89
  0
LAYER
  2
0
 70
     0
 62
     7
  6
CONTINUOUS
  0
LAYER
  2
1
 70
     0
 62
     1
  6
CONTINUOUS
  0
LAYER
  2
2
 70
     0
 62
     2
  6
CONTINUOUS
  0
LAYER
  2
3
 70
     0
 62
     3
  6
CONTINUOUS
  0
LAYER
  2
4
 70
     0
 62
     4
  6
CONTINUOUS
  0
LAYER
  2
5
 70
     0
 62
     5
  6
CONTINUOUS
  0
LAYER
  2
6
 70
     0
 62
     6
  6
CONTINUOUS
  0
LAYER
  2
7
 70
     0
 62
     7
  6
CONTINUOUS
  0
LAYER
  2
8
 70
     0
 62
     8
  6
CONTINUOUS
  0
LAYER
  2
9
 70
     0
 62
     9
  6
CONTINUOUS
  0
LAYER
  2
10
 70
     0
 62
    10
  6
CONTINUOUS
  0
LAYER
  2
11
 70
     0
 62
    11
  6
CONTINUOUS
  0
LAYER
  2
12
 70
     0
 62
    12
  6
CONTINUOUS
  0
LAYER
  2
13
 70
     0
 62
    13
  6
CONTINUOUS
  0
LAYER
  2
14
 70
     0
 62
    14
  6
CONTINUOUS
  0
LAYER
  2
15
 70
     0
 62
    15
  6
CONTINUOUS
  0
LAYER
  2
16
 70
     0
 62
     7
  6
CONTINUOUS
  0
LAYER
  2
17
 70
     0
 62
     2
  6
CONTINUOUS
  0
LAYER
  2
18
 70
     0
 62
     4
  6
CONTINUOUS
  0
LAYER
  2
19
 70
     0
 62
     5
  6
CONTINUOUS
  0
LAYER
  2
20
 70
     0
 62
     4
  6
CONTINUOUS
  0
LAYER
  2
21
 70
     0
 62
     2
  6
CONTINUOUS
  0
LAYER
  2
22
 70
     0
 62
     1
  6
CONTINUOUS
  0
LAYER
  2
23
 70
     0
 62
     7
  6
CONTINUOUS
  0
LAYER
  2
24
 70
     0
 62
     6
  6
CONTINUOUS
  0
LAYER
  2
25
 70
     0
 62
     1
  6
CONTINUOUS
  0
LAYER
  2
26
 70
     0
 62
     3
  6
CONTINUOUS
  0
LAYER
  2
27
 70
     0
 62
     4
  6
CONTINUOUS
  0
LAYER
  2
28
 70
     0
 62
     4
  6
CONTINUOUS
  0
LAYER
  2
30
 70
     0
 62
     4
  6
CONTINUOUS
  0
LAYER
  2
100
 70
     0
 62
     1
  6
CONTINUOUS
  0
LAYER
  2
101
 70
     0
 62
     9
  6
CONTINUOUS
  0
LAYER
  2
102
 70
     0
 62
     7
  6
CONTINUOUS
  0
LAYER
  2
103
 70
     0
 62
     2
  6
CONTINUOUS
  0
LAYER
  2
104
 70
     0
 62
    11
  6
CONTINUOUS
  0
LAYER
  2
105
 70
     0
 62
     3
  6
CONTINUOUS
  0
LAYER
  2
106
 70
     0
 62
     5
  6
CONTINUOUS
  0
LAYER
  2
107
 70
     0
 62
     3
  6
CONTINUOUS
  0
LAYER
  2
108
 70
     0
 62
     5
  6
CONTINUOUS
  0
LAYER
  2
109
 70
     0
 62
     3
  6
CONTINUOUS
  0
LAYER
  2
197
 70
     0
 62
     3
  6
CONTINUOUS
  0
LAYER
  2
198
 70
     0
 62
     2
  6
CONTINUOUS
  0
LAYER
  2
199
 70
     0
 62
     6
  6
CONTINUOUS
  0
LAYER
  2
200
 70
     0
 62
     7
  6
ESTILO_TQS_0002
  0
LAYER
  2
201
 70
     0
 62
     7
  6
ESTILO_TQS_0001
  0
LAYER
  2
202
 70
     0
 62
     7
  6
CONTINUOUS
  0
LAYER
  2
203
 70
     0
 62
     7
  6
ESTILO_TQS_0001
  0
LAYER
  2
204
 70
     0
 62
     7
  6
ESTILO_TQS_0003
  0
LAYER
  2
205
 70
     0
 62
     5
  6
ESTILO_TQS_0004
  0
LAYER
  2
206
 70
     0
 62
    15
  6
CONTINUOUS
  0
LAYER
  2
207
 70
     0
 62
     2
  6
CONTINUOUS
  0
LAYER
  2
208
 70
     0
 62
     5
  6
CONTINUOUS
  0
LAYER
  2
210
 70
     0
 62
    15
  6
ESTILO_TQS_0002
  0
LAYER
  2
211
 70
     0
 62
     7
  6
ESTILO_TQS_0001
  0
LAYER
  2
214
 70
     0
 62
    15
  6
CONTINUOUS
  0
LAYER
  2
215
 70
     0
 62
     2
  6
CONTINUOUS
  0
LAYER
  2
216
 70
     0
 62
     3
  6
CONTINUOUS
  0
LAYER
  2
217
 70
     0
 62
     3
  6
CONTINUOUS
  0
LAYER
  2
218
 70
     0
 62
     2
  6
CONTINUOUS
  0
LAYER
  2
219
 70
     0
 62
    15
  6
CONTINUOUS
  0
LAYER
  2
220
 70
     0
 62
    10
  6
CONTINUOUS
  0
LAYER
  2
221
 70
     0
 62
    11
  6
CONTINUOUS
  0
LAYER
  2
222
 70
     0
 62
    12
  6
CONTINUOUS
  0
LAYER
  2
223
 70
     0
 62
     6
  6
CONTINUOUS
  0
LAYER
  2
224
 70
     0
 62
     1
  6
CONTINUOUS
  0
LAYER
  2
225
 70
     0
 62
    15
  6
CONTINUOUS
  0
LAYER
  2
226
 70
     0
 62
     2
  6
CONTINUOUS
  0
LAYER
  2
227
 70
     0
 62
    10
  6
CONTINUOUS
  0
LAYER
  2
228
 70
     0
 62
    11
  6
CONTINUOUS
  0
LAYER
  2
229
 70
     0
 62
    12
  6
CONTINUOUS
  0
LAYER
  2
230
 70
     0
 62
     6
  6
CONTINUOUS
  0
LAYER
  2
231
 70
     0
 62
     3
  6
CONTINUOUS
  0
LAYER
  2
232
 70
     0
 62
    12
  6
CONTINUOUS
  0
LAYER
  2
233
 70
     0
 62
     4
  6
CONTINUOUS
  0
LAYER
  2
234
 70
     0
 62
    13
  6
CONTINUOUS
  0
LAYER
  2
235
 70
     0
 62
     5
  6
CONTINUOUS
  0
LAYER
  2
236
 70
     0
 62
     2
  6
CONTINUOUS
  0
LAYER
  2
237
 70
     0
 62
     6
  6
CONTINUOUS
  0
LAYER
  2
238
 70
     0
 62
    12
  6
CONTINUOUS
  0
LAYER
  2
239
 70
     0
 62
    11
  6
CONTINUOUS
  0
LAYER
  2
240
 70
     0
 62
    11
  6
CONTINUOUS
  0
LAYER
  2
241
 70
     0
 62
    12
  6
CONTINUOUS
  0
ENDTAB
  0
TABLE
  2
STYLE
 70
     1
  0
STYLE
  2
STANDARD
 70
    64
 40
0.000000
 41
1.000000
 50
0.000000
 71
     0
 42
0.200000
  3
ROMANS.SHX
  4

  0
STYLE
  2
TQS_CALIBRI
 70
     0
 40
0.000000
 41
1.000000
 50
0.000000
 71
     0
 42
0.200000
  3
calibri.ttf
  0
STYLE
  2
TQS_CALIBRI_U
 70
     0
 40
0.000000
 41
1.000000
 50
0.000000
 71
     0
 42
0.200000
  3
calibri.ttf
  0
STYLE
  2
TQS_CALIBRI_I
 70
     0
 40
0.000000
 41
1.000000
 50
0.000000
 71
     0
 42
0.200000
  3
calibri.ttf
  0
STYLE
  2
TQS_CALIBRI_I_U
 70
     0
 40
0.000000
 41
1.000000
 50
0.000000
 71
     0
 42
0.200000
  3
calibri.ttf
  0
STYLE
  2
TQS_CALIBRI_B
 70
     0
 40
0.000000
 41
1.000000
 50
0.000000
 71
     0
 42
0.200000
  3
calibri.ttf
  0
STYLE
  2
TQS_CALIBRI_B_U
 70
     0
 40
0.000000
 41
1.000000
 50
0.000000
 71
     0
 42
0.200000
  3
calibri.ttf
  0
STYLE
  2
TQS_CALIBRI_B_I
 70
     0
 40
0.000000
 41
1.000000
 50
0.000000
 71
     0
 42
0.200000
  3
calibri.ttf
  0
STYLE
  2
TQS_CALIBRI_B_I_U
 70
     0
 40
0.000000
 41
1.000000
 50
0.000000
 71
     0
 42
0.200000
  3
calibri.ttf
  0
ENDTAB
  0
TABLE
  2
VIEW
 70
     0
  0
ENDTAB
  0
ENDSEC
  0
SECTION
  2
BLOCKS
  0
BLOCK
  8
0
  2
_PLWTQS
 70
    64
 10
0.000000
 20
0.000000
  0
TEXT
  8
0
  6
CONTINUOUS
 10
0.000000
 20
0.000000
 40
0.200000
  1
$PLWDWGGlBMVwAAAAAAAChABAAAAM6yCb6hufiVc4Ho9MHTpD1vyhvt7hJwnwE2bCTV2IpwvJI2iacX6uuOxCjmNvNiIeq6g71pYPn8PjQR5dE28B+9kNOSA9U7rtOIGGh00FsA1Y6fcuOJNkXE9AVP/UchdP6pZUXPysmy6RJLXSF1CoA=
  7
TQS_CALIBRI
  0
TEXT
  8
0
  6
CONTINUOUS
 10
0.000000
 20
-0.250000
 40
0.200000
  1
$PLWDWGBG83Vs05KLjkaNt+wFBl2IJYbOJvGklXgFG2hxq28RAdLjTtpQ3PMNyb5RRIKJ9FrEho2s2tcVmscb7yiJ2m3F4xMB0ZCgDZVPT9WOuuIsyC9kASAnYLpnXqigf7XSaSL2cnlHi3x/5u55uDfRQ6PzdclmgKv7uXJf2K+h5e82I=
  7
TQS_CALIBRI
  0
TEXT
  8
0
  6
CONTINUOUS
 10
0.000000
 20
-0.500000
 40
0.200000
  1
$PLWDWGKaPjAoL637PCgzzIjmrbV4CzVYDJWOWQ6hz9YEB2NHsAG/51o0qCWWMShcHJHo9WB0R63yxiD/K8ibbi/i0z+h7K9B16gfTuTwk24qHAqVvRVXGNav7Tb2S1iMhww8XvImrx8eGQiUdAopuMWrAvI2b/Puj7NTrdcAxQ8fc8NRo=
  7
TQS_CALIBRI
  0
TEXT
  8
0
  6
CONTINUOUS
 10
0.000000
 20
-0.750000
 40
0.200000
  1
$PLWDWGujgIjUHWGS8e/DcDQ3q2Z9ldfFlqoBYs5ROXRNr9AWL7XxUYq3G03Ug+PuTRMWVCxovhC6nSLrzKSVGFOi95HEt7SpcS7lXLVh2zQFqCyB8D3KhWvxdzAReMPKo+UYxhc9GVR5ZV4eLBTyGHDZizfIEnkYVGHQ+uv3K8KIEoHjM=
  7
TQS_CALIBRI
  0
TEXT
  8
0
  6
CONTINUOUS
 10
0.000000
 20
-1.000000
 40
0.200000
  1
$PLWDWGmQW/Me21WxSYKNAR/CGO9XwAS25VLEtQMT3L7IEsDV1Lv0fnwFn8uRHFF8Wjwou/4zUuJ9MVOxV99kaCuCcOWcAOu88SxuMqIWEiLqCzsF5AdLW/sA986x/Nl/DHURHkBB15e2hCO0yc5k00HHBAy38H0jTQyMuNUK8KQyRz1bQ=
  7
TQS_CALIBRI
  0
TEXT
  8
0
  6
CONTINUOUS
 10
0.000000
 20
-1.250000
 40
0.200000
  1
$PLWDWGjk7T30+qMtkmxKIsQIlNT2IxHET0dSQhq91KKOi8FNWUd+zQh1KgU3macAUN84ubL0N2AoWhUpKZJnojIuYCmRrCB3Aabco67N3869KOh8ML8r/mcLk5ROfyL7WJiyvEj8unBabim+XbpHyt8hQt4CKyzyXZrMGts7cz/1U2BaA=
  7
TQS_CALIBRI
  0
TEXT
  8
0
  6
CONTINUOUS
 10
0.000000
 20
-1.500000
 40
0.200000
  1
$PLWDWGu2KKd15ZMT6zOv8G95SapKZFuFXW7rI34Osk/7olmLE+f4E5vsO1xINLkD6A//pyYb9uUZQflcmyUcYYnvJ6+/VV/oscxMA4iWVZujHzyDordvX5Ld9sLDEchT9I+HHM/mLLDjlqIWREpy895NkJiJcgJUIyUGo7io9n9Fkl7TM=
  7
TQS_CALIBRI
  0
TEXT
  8
0
  6
CONTINUOUS
 10
0.000000
 20
-1.750000
 40
0.200000
  1
$PLWDWGdNsFvZ6ug02Wkyu+iE2K6wLIAo7n2tiCMsyoGkx0FltdYg1KVlgWvTjEQIpXeN9xmsHNUkysCTcAAAAAbqZgpquOr10EuSZlNXJshprBzVJMrAk3AAAAAA==
  7
TQS_CALIBRI
  0
ENDBLK
  8
0
  0
ENDSEC
  0
SECTION
  2
ENTITIES
  0
SOLID
  8
13
  6
CONTINUOUS
 10
102.095046
 20
10.244446
 11
102.095046
 21
9.498246
 12
101.971546
 22
9.498246
 13
101.971546
 23
9.498246
  0
SOLID
  8
13
  6
CONTINUOUS
 10
102.095046
 20
10.244446
 11
101.971546
 21
9.498246
 12
101.971546
 22
11.162246
 13
101.971546
 23
11.162246
  0
SOLID
  8
13
  6
CONTINUOUS
 10
102.095046
 20
10.244446
 11
101.971546
 21
11.162246
 12
102.095046
 22
11.162246
 13
102.095046
 23
11.162246
  0
SOLID
  8
13
  6
CONTINUOUS
 10
102.095046
 20
10.244446
 11
102.095046
 21
11.162246
 12
102.095046
 22
10.244446
 13
102.095046
 23
10.244446
  0
SOLID
  8
13
  6
CONTINUOUS
 10
102.522746
 20
10.230979
 11
102.522746
 21
9.498246
 12
102.095046
 22
9.498246
 13
102.095046
 23
9.498246
  0
SOLID
  8
13
  6
CONTINUOUS
 10
102.522746
 20
10.230979
 11
102.095046
 21
9.498246
 12
102.095046
 22
10.244446
 13
102.095046
 23
10.244446
  0
SOLID
  8
13
  6
CONTINUOUS
 10
102.522746
 20
10.230979
 11
102.095046
 21
10.244446
 12
102.143544
 22
10.248642
 13
102.143544
 23
10.248642
  0
SOLID
  8
13
  6
CONTINUOUS
 10
102.522746
 20
10.230979
 11
102.143544
 21
10.248642
 12
102.211078
 22
10.252071
 13
102.211078
 23
10.252071
  0
SOLID
  8
13
  6
CONTINUOUS
 10
102.522746
 20
10.230979
 11
102.211078
 21
10.252071
 12
102.259959
 22
10.252484
 13
102.259959
 23
10.252484
  0
SOLID
  8
13
  6
CONTINUOUS
 10
102.522746
 20
10.230979
 11
102.259959
 21
10.252484
 12
102.290321
 22
10.252141
 13
102.290321
 23
10.252141
  0
SOLID
  8
13
  6
CONTINUOUS
 10
102.522746
 20
10.230979
 11
102.290321
 21
10.252141
 12
102.334203
 22
10.250668
 13
102.334203
 23
10.250668
  0
SOLID
  8
13
  6
CONTINUOUS
 10
102.522746
 20
10.230979
 11
102.334203
 21
10.250668
 12
102.394518
 22
10.246747
 13
102.394518
 23
10.246747
  0
SOLID
  8
13
  6
CONTINUOUS
 10
102.522746
 20
10.230979
 11
102.394518
 21
10.246747
 12
102.446340
 22
10.241621
 13
102.446340
 23
10.241621
  0
SOLID
  8
13
  6
CONTINUOUS
 10
102.522746
 20
10.230979
 11
102.446340
 21
10.241621
 12
102.490083
 22
10.235974
 13
102.490083
 23
10.235974
  0
SOLID
  8
13
  6
CONTINUOUS
 10
102.522746
 20
10.230979
 11
102.490083
 21
10.235974
 12
102.522746
 22
10.230979
 13
102.522746
 23
10.230979
  0
SOLID
  8
13
  6
CONTINUOUS
 10
102.594246
 20
10.217654
 11
102.594246
 21
9.498246
 12
103.021946
 22
9.498246
 13
103.021946
 23
9.498246
  0
SOLID
  8
13
  6
CONTINUOUS
 10
102.594246
 20
10.217654
 11
103.021946
 21
9.498246
 12
103.021946
 22
10.064184
 13
103.021946
 23
10.064184
  0
SOLID
  8
13
  6
CONTINUOUS
 10
102.594246
 20
10.217654
 11
103.021946
 21
10.064184
 12
103.003898
 22
10.073542
 13
103.003898
 23
10.073542
  0
SOLID
  8
13
  6
CONTINUOUS
 10
102.594246
 20
10.217654
 11
103.003898
 21
10.073542
 12
102.981716
 22
10.084501
 13
102.981716
 23
10.084501
  0
SOLID
  8
13
  6
CONTINUOUS
 10
102.594246
 20
10.217654
 11
102.981716
 21
10.084501
 12
102.953307
 22
10.098271
 13
102.953307
 23
10.098271
  0
SOLID
  8
13
  6
CONTINUOUS
 10
102.594246
 20
10.217654
 11
102.953307
 21
10.098271
 12
102.912865
 22
10.116383
 13
102.912865
 23
10.116383
  0
SOLID
  8
13
  6
CONTINUOUS
 10
102.594246
 20
10.217654
 11
102.912865
 21
10.116383
 12
102.885024
 22
10.128001
 13
102.885024
 23
10.128001
  0
SOLID
  8
13
  6
CONTINUOUS
 10
102.594246
 20
10.217654
 11
102.885024
 21
10.128001
 12
102.844071
 22
10.144755
 13
102.844071
 23
10.144755
  0
SOLID
  8
13
  6
CONTINUOUS
 10
102.594246
 20
10.217654
 11
102.844071
 21
10.144755
 12
102.813490
 22
10.155923
 13
102.813490
 23
10.155923
  0
SOLID
  8
13
  6
CONTINUOUS
 10
102.594246
 20
10.217654
 11
102.813490
 21
10.155923
 12
102.778388
 22
10.168156
 13
102.778388
 23
10.168156
  0
SOLID
  8
13
  6
CONTINUOUS
 10
102.594246
 20
10.217654
 11
102.778388
 21
10.168156
 12
102.744083
 22
10.178793
 13
102.744083
 23
10.178793
  0
SOLID
  8
13
  6
CONTINUOUS
 10
102.594246
 20
10.217654
 11
102.744083
 21
10.178793
 12
102.703465
 22
10.191172
 13
102.703465
 23
10.191172
  0
SOLID
  8
13
  6
CONTINUOUS
 10
102.594246
 20
10.217654
 11
102.703465
 21
10.191172
 12
102.665141
 22
10.201162
 13
102.665141
 23
10.201162
  0
SOLID
  8
13
  6
CONTINUOUS
 10
102.594246
 20
10.217654
 11
102.665141
 21
10.201162
 12
102.624819
 22
10.210970
 13
102.624819
 23
10.210970
  0
SOLID
  8
13
  6
CONTINUOUS
 10
102.594246
 20
10.217654
 11
102.624819
 21
10.210970
 12
102.594246
 22
10.217654
 13
102.594246
 23
10.217654
  0
SOLID
  8
13
  6
CONTINUOUS
 10
103.093446
 20
10.024343
 11
103.093446
 21
9.498246
 12
103.521146
 22
9.498246
 13
103.521146
 23
9.498246
  0
SOLID
  8
13
  6
CONTINUOUS
 10
103.093446
 20
10.024343
 11
103.521146
 21
9.498246
 12
103.521146
 22
9.661030
 13
103.521146
 23
9.661030
  0
SOLID
  8
13
  6
CONTINUOUS
 10
103.093446
 20
10.024343
 11
103.521146
 21
9.661030
 12
103.507797
 22
9.676793
 13
103.507797
 23
9.676793
  0
SOLID
  8
13
  6
CONTINUOUS
 10
103.093446
 20
10.024343
 11
103.507797
 21
9.676793
 12
103.495964
 22
9.690528
 13
103.495964
 23
9.690528
  0
SOLID
  8
13
  6
CONTINUOUS
 10
103.093446
 20
10.024343
 11
103.495964
 21
9.690528
 12
103.473877
 22
9.715277
 13
103.473877
 23
9.715277
  0
SOLID
  8
13
  6
CONTINUOUS
 10
103.093446
 20
10.024343
 11
103.473877
 21
9.715277
 12
103.454164
 22
9.736530
 13
103.454164
 23
9.736530
  0
SOLID
  8
13
  6
CONTINUOUS
 10
103.093446
 20
10.024343
 11
103.454164
 21
9.736530
 12
103.434048
 22
9.757502
 13
103.434048
 23
9.757502
  0
SOLID
  8
13
  6
CONTINUOUS
 10
103.093446
 20
10.024343
 11
103.434048
 21
9.757502
 12
103.410015
 22
9.781535
 13
103.410015
 23
9.781535
  0
SOLID
  8
13
  6
CONTINUOUS
 10
103.093446
 20
10.024343
 11
103.410015
 21
9.781535
 12
103.399294
 22
9.791943
 13
103.399294
 23
9.791943
  0
SOLID
  8
13
  6
CONTINUOUS
 10
103.093446
 20
10.024343
 11
103.399294
 21
9.791943
 12
103.388429
 22
9.802406
 13
103.388429
 23
9.802406
  0
SOLID
  8
13
  6
CONTINUOUS
 10
103.093446
 20
10.024343
 11
103.388429
 21
9.802406
 12
103.359952
 22
9.828752
 13
103.359952
 23
9.828752
  0
SOLID
  8
13
  6
CONTINUOUS
 10
103.093446
 20
10.024343
 11
103.359952
 21
9.828752
 12
103.325139
 22
9.859181
 13
103.325139
 23
9.859181
  0
SOLID
  8
13
  6
CONTINUOUS
 10
103.093446
 20
10.024343
 11
103.325139
 21
9.859181
 12
103.286846
 22
9.890826
 13
103.286846
 23
9.890826
  0
SOLID
  8
13
  6
CONTINUOUS
 10
103.093446
 20
10.024343
 11
103.286846
 21
9.890826
 12
103.251036
 22
9.918745
 13
103.251036
 23
9.918745
  0
SOLID
  8
13
  6
CONTINUOUS
 10
103.093446
 20
10.024343
 11
103.251036
 21
9.918745
 12
103.200839
 22
9.955427
 13
103.200839
 23
9.955427
  0
SOLID
  8
13
  6
CONTINUOUS
 10
103.093446
 20
10.024343
 11
103.200839
 21
9.955427
 12
103.134352
 22
9.999676
 13
103.134352
 23
9.999676
  0
SOLID
  8
13
  6
CONTINUOUS
 10
103.093446
 20
10.024343
 11
103.134352
 21
9.999676
 12
103.093446
 22
10.024343
 13
103.093446
 23
10.024343
  0
SOLID
  8
13
  6
CONTINUOUS
 10
102.522746
 20
10.635283
 11
102.522746
 21
11.162246
 12
102.095046
 22
11.162246
 13
102.095046
 23
11.162246
  0
SOLID
  8
13
  6
CONTINUOUS
 10
102.522746
 20
10.635283
 11
102.095046
 21
11.162246
 12
102.095046
 22
10.995122
 13
102.095046
 23
10.995122
  0
SOLID
  8
13
  6
CONTINUOUS
 10
102.522746
 20
10.635283
 11
102.095046
 21
10.995122
 12
102.153689
 22
10.929235
 13
102.153689
 23
10.929235
  0
SOLID
  8
13
  6
CONTINUOUS
 10
102.522746
 20
10.635283
 11
102.153689
 21
10.929235
 12
102.237359
 22
10.846559
 13
102.237359
 23
10.846559
  0
SOLID
  8
13
  6
CONTINUOUS
 10
102.522746
 20
10.635283
 11
102.237359
 21
10.846559
 12
102.308389
 22
10.784730
 13
102.308389
 23
10.784730
  0
SOLID
  8
13
  6
CONTINUOUS
 10
102.522746
 20
10.635283
 11
102.308389
 21
10.784730
 12
102.366624
 22
10.739274
 13
102.366624
 23
10.739274
  0
SOLID
  8
13
  6
CONTINUOUS
 10
102.522746
 20
10.635283
 11
102.366624
 21
10.739274
 12
102.406322
 22
10.710064
 13
102.406322
 23
10.710064
  0
SOLID
  8
13
  6
CONTINUOUS
 10
102.522746
 20
10.635283
 11
102.406322
 21
10.710064
 12
102.455827
 22
10.676682
 13
102.455827
 23
10.676682
  0
SOLID
  8
13
  6
CONTINUOUS
 10
102.522746
 20
10.635283
 11
102.455827
 21
10.676682
 12
102.493954
 22
10.652515
 13
102.493954
 23
10.652515
  0
SOLID
  8
13
  6
CONTINUOUS
 10
102.522746
 20
10.635283
 11
102.493954
 21
10.652515
 12
102.522746
 22
10.635283
 13
102.522746
 23
10.635283
  0
SOLID
  8
13
  6
CONTINUOUS
 10
103.021946
 20
10.443678
 11
103.021946
 21
11.162246
 12
102.594246
 22
11.162246
 13
102.594246
 23
11.162246
  0
SOLID
  8
13
  6
CONTINUOUS
 10
103.021946
 20
10.443678
 11
102.594246
 21
11.162246
 12
102.594246
 22
10.595859
 13
102.594246
 23
10.595859
  0
SOLID
  8
13
  6
CONTINUOUS
 10
103.021946
 20
10.443678
 11
102.594246
 21
10.595859
 12
102.663800
 22
10.561766
 13
102.663800
 23
10.561766
  0
SOLID
  8
13
  6
CONTINUOUS
 10
103.021946
 20
10.443678
 11
102.663800
 21
10.561766
 12
102.744359
 22
10.527375
 13
102.744359
 23
10.527375
  0
SOLID
  8
13
  6
CONTINUOUS
 10
103.021946
 20
10.443678
 11
102.744359
 21
10.527375
 12
102.812197
 22
10.501464
 13
102.812197
 23
10.501464
  0
SOLID
  8
13
  6
CONTINUOUS
 10
103.021946
 20
10.443678
 11
102.812197
 21
10.501464
 12
102.889458
 22
10.476967
 13
102.889458
 23
10.476967
  0
SOLID
  8
13
  6
CONTINUOUS
 10
103.021946
 20
10.443678
 11
102.889458
 21
10.476967
 12
102.950702
 22
10.460007
 13
102.950702
 23
10.460007
  0
SOLID
  8
13
  6
CONTINUOUS
 10
103.021946
 20
10.443678
 11
102.950702
 21
10.460007
 12
103.021946
 22
10.443678
 13
103.021946
 23
10.443678
  0
SOLID
  8
13
  6
CONTINUOUS
 10
103.093446
 20
10.430307
 11
103.093446
 21
11.162246
 12
103.521146
 22
11.162246
 13
103.521146
 23
11.162246
  0
SOLID
  8
13
  6
CONTINUOUS
 10
103.093446
 20
10.430307
 11
103.521146
 21
11.162246
 12
103.521146
 22
10.417580
 13
103.521146
 23
10.417580
  0
SOLID
  8
13
  6
CONTINUOUS
 10
103.093446
 20
10.430307
 11
103.521146
 21
10.417580
 12
103.476372
 22
10.413637
 13
103.476372
 23
10.413637
  0
SOLID
  8
13
  6
CONTINUOUS
 10
103.093446
 20
10.430307
 11
103.476372
 21
10.413637
 12
103.416577
 22
10.410480
 13
103.416577
 23
10.410480
  0
SOLID
  8
13
  6
CONTINUOUS
 10
103.093446
 20
10.430307
 11
103.416577
 21
10.410480
 12
103.366788
 22
10.409453
 13
103.366788
 23
10.409453
  0
SOLID
  8
13
  6
CONTINUOUS
 10
103.093446
 20
10.430307
 11
103.366788
 21
10.409453
 12
103.336830
 22
10.409453
 13
103.336830
 23
10.409453
  0
SOLID
  8
13
  6
CONTINUOUS
 10
103.093446
 20
10.430307
 11
103.336830
 21
10.409453
 12
103.286182
 22
10.410821
 13
103.286182
 23
10.410821
  0
SOLID
  8
13
  6
CONTINUOUS
 10
103.093446
 20
10.430307
 11
103.286182
 21
10.410821
 12
103.241261
 22
10.413321
 13
103.241261
 23
10.413321
  0
SOLID
  8
13
  6
CONTINUOUS
 10
103.093446
 20
10.430307
 11
103.241261
 21
10.413321
 12
103.205545
 22
10.416539
 13
103.205545
 23
10.416539
  0
SOLID
  8
13
  6
CONTINUOUS
 10
103.093446
 20
10.430307
 11
103.205545
 21
10.416539
 12
103.155349
 22
10.421044
 13
103.155349
 23
10.421044
  0
SOLID
  8
13
  6
CONTINUOUS
 10
103.093446
 20
10.430307
 11
103.155349
 21
10.421044
 12
103.093446
 22
10.430307
 13
103.093446
 23
10.430307
  0
SOLID
  8
13
  6
CONTINUOUS
 10
102.594246
 20
9.498246
 11
102.594246
 21
11.162246
 12
102.522746
 22
11.162246
 13
102.522746
 23
11.162246
  0
SOLID
  8
13
  6
CONTINUOUS
 10
102.594246
 20
9.498246
 11
102.522746
 21
11.162246
 12
102.522746
 22
9.498246
 13
102.522746
 23
9.498246
  0
SOLID
  8
13
  6
CONTINUOUS
 10
102.594246
 20
9.498246
 11
102.522746
 21
9.498246
 12
102.522746
 22
9.498246
 13
102.522746
 23
9.498246
  0
SOLID
  8
13
  6
CONTINUOUS
 10
103.021946
 20
11.162246
 11
103.093446
 21
11.162246
 12
103.093446
 22
9.498246
 13
103.093446
 23
9.498246
  0
SOLID
  8
13
  6
CONTINUOUS
 10
103.021946
 20
11.162246
 11
103.093446
 21
9.498246
 12
103.021946
 22
9.498246
 13
103.021946
 23
9.498246
  0
SOLID
  8
13
  6
CONTINUOUS
 10
103.021946
 20
11.162246
 11
103.021946
 21
9.498246
 12
103.021946
 22
11.162246
 13
103.021946
 23
11.162246
  0
SOLID
  8
13
  6
CONTINUOUS
 10
103.521146
 20
9.498246
 11
103.635546
 21
9.498246
 12
103.635546
 22
11.162246
 13
103.635546
 23
11.162246
  0
SOLID
  8
13
  6
CONTINUOUS
 10
103.521146
 20
9.498246
 11
103.635546
 21
11.162246
 12
103.521146
 22
11.162246
 13
103.521146
 23
11.162246
  0
SOLID
  8
13
  6
CONTINUOUS
 10
103.521146
 20
9.498246
 11
103.521146
 21
11.162246
 12
103.521146
 22
9.498246
 13
103.521146
 23
9.498246
  0
POLYLINE
  8
1
  6
CONTINUOUS
 66
     1
  0
VERTEX
  8
1
  6
CONTINUOUS
 10
98.027148
 20
46.575288
  0
VERTEX
  8
1
  6
CONTINUOUS
 10
99.352372
 20
46.463129
  0
SEQEND
  8
1
  6
CONTINUOUS
  0
POLYLINE
  8
1
  6
CONTINUOUS
 66
     1
  0
VERTEX
  8
1
  6
CONTINUOUS
 10
99.394538
 20
46.961348
  0
VERTEX
  8
1
  6
CONTINUOUS
 10
98.069230
 20
47.073514
  0
SEQEND
  8
1
  6
CONTINUOUS
  0
POLYLINE
  8
1
  6
CONTINUOUS
 66
     1
  0
VERTEX
  8
1
  6
CONTINUOUS
 10
88.195781
 20
47.407359
  0
VERTEX
  8
1
  6
CONTINUOUS
 10
96.864637
 20
46.673676
  0
SEQEND
  8
1
  6
CONTINUOUS
  0
POLYLINE
  8
1
  6
CONTINUOUS
 66
     1
  0
VERTEX
  8
1
  6
CONTINUOUS
 10
96.906719
 20
47.171902
  0
VERTEX
  8
1
  6
CONTINUOUS
 10
88.237864
 20
47.905585
  0
SEQEND
  8
1
  6
CONTINUOUS
  0
POLYLINE
  8
1
  6
CONTINUOUS
 66
     1
  0
VERTEX
  8
1
  6
CONTINUOUS
 10
77.401040
 20
48.320964
  0
VERTEX
  8
1
  6
CONTINUOUS
 10
87.697562
 20
47.449525
  0
SEQEND
  8
1
  6
CONTINUOUS
  0
POLYLINE
  8
1
  6
CONTINUOUS
 66
     1
  0
VERTEX
  8
1
  6
CONTINUOUS
 10
87.739645
 20
47.947751
  0
VERTEX
  8
1
  6
CONTINUOUS
 10
77.443123
 20
48.819190
  0
SEQEND
  8
1
  6
CONTINUOUS
  0
POLYLINE
  8
1
  6
CONTINUOUS
 66
     1
  0
VERTEX
  8
1
  6
CONTINUOUS
 10
68.267028
 20
49.094014
  0
VERTEX
  8
1
  6
CONTINUOUS
 10
76.902821
 20
48.363130
  0
SEQEND
  8
1
  6
CONTINUOUS
  0
POLYLINE
  8
1
  6
CONTINUOUS
 66
     1
  0
VERTEX
  8
1
  6
CONTINUOUS
 10
76.944904
 20
48.861356
  0
VERTEX
  8
1
  6
CONTINUOUS
 10
68.309111
 20
49.592240
  0
SEQEND
  8
1
  6
CONTINUOUS
  0
POLYLINE
  8
1
  6
CONTINUOUS
 66
     1
  0
VERTEX
  8
1
  6
CONTINUOUS
 10
60.338274
 20
49.765059
  0
VERTEX
  8
1
  6
CONTINUOUS
 10
67.768810
 20
49.136181
  0
SEQEND
  8
1
  6
CONTINUOUS
  0
POLYLINE
  8
1
  6
CONTINUOUS
 66
     1
  0
VERTEX
  8
1
  6
CONTINUOUS
 10
67.810892
 20
49.634407
  0
VERTEX
  8
1
  6
CONTINUOUS
 10
60.380356
 20
50.263285
  0
SEQEND
  8
1
  6
CONTINUOUS
  0
POLYLINE
  8
1
  6
CONTINUOUS
 66
     1
  0
VERTEX
  8
1
  6
CONTINUOUS
 10
99.352372
 20
46.463129
  0
VERTEX
  8
1
  6
CONTINUOUS
 10
99.394538
 20
46.961348
  0
SEQEND
  8
1
  6
CONTINUOUS
  0
POLYLINE
  8
1
  6
CONTINUOUS
 66
     1
  0
VERTEX
  8
1
  6
CONTINUOUS
 10
27.349555
 20
52.556932
  0
VERTEX
  8
1
  6
CONTINUOUS
 10
35.653203
 20
51.854173
  0
SEQEND
  8
1
  6
CONTINUOUS
  0
POLYLINE
  8
1
  6
CONTINUOUS
 66
     1
  0
VERTEX
  8
1
  6
CONTINUOUS
 10
35.695285
 20
52.352399
  0
VERTEX
  8
1
  6
CONTINUOUS
 10
27.391637
 20
53.055158
  0
SEQEND
  8
1
  6
CONTINUOUS
  0
POLYLINE
  8
1
  6
CONTINUOUS
 66
     1
  0
VERTEX
  8
1
  6
CONTINUOUS
 10
17.764858
 20
53.368109
  0
VERTEX
  8
1
  6
CONTINUOUS
 10
26.851336
 20
52.599097
  0
SEQEND
  8
1
  6
CONTINUOUS
  0
POLYLINE
  8
1
  6
CONTINUOUS
 66
     1
  0
VERTEX
  8
1
  6
CONTINUOUS
 10
26.893418
 20
53.097323
  0
VERTEX
  8
1
  6
CONTINUOUS
 10
17.806940
 20
53.866335
  0
SEQEND
  8
1
  6
CONTINUOUS
  0
POLYLINE
  8
1
  6
CONTINUOUS
 66
     1
  0
VERTEX
  8
1
  6
CONTINUOUS
 10
8.962991
 20
54.113033
  0
VERTEX
  8
1
  6
CONTINUOUS
 10
17.266639
 20
53.410274
  0
SEQEND
  8
1
  6
CONTINUOUS
  0
POLYLINE
  8
1
  6
CONTINUOUS
 66
     1
  0
VERTEX
  8
1
  6
CONTINUOUS
 10
17.308721
 20
53.908500
  0
VERTEX
  8
1
  6
CONTINUOUS
 10
9.005073
 20
54.611259
  0
SEQEND
  8
1
  6
CONTINUOUS
  0
POLYLINE
  8
1
  6
CONTINUOUS
 66
     1
  0
VERTEX
  8
1
  6
CONTINUOUS
 10
6.720285
 20
54.302839
  0
VERTEX
  8
1
  6
CONTINUOUS
 10
7.800480
 20
54.211419
  0
SEQEND
  8
1
  6
CONTINUOUS
  0
POLYLINE
  8
1
  6
CONTINUOUS
 66
     1
  0
VERTEX
  8
1
  6
CONTINUOUS
 10
7.842562
 20
54.709645
  0
VERTEX
  8
1
  6
CONTINUOUS
 10
6.221365
 20
54.846851
  0
SEQEND
  8
1
  6
CONTINUOUS
  0
POLYLINE
  8
1
  6
CONTINUOUS
 66
     1
  0
VERTEX
  8
1
  6
CONTINUOUS
 10
94.435258
 20
4.143148
  0
VERTEX
  8
1
  6
CONTINUOUS
 10
95.760511
 20
4.030961
  0
SEQEND
  8
1
  6
CONTINUOUS
  0
POLYLINE
  8
1
  6
CONTINUOUS
 66
     1
  0
VERTEX
  8
1
  6
CONTINUOUS
 10
95.802686
 20
4.529179
  0
VERTEX
  8
1
  6
CONTINUOUS
 10
94.477436
 20
4.641366
  0
SEQEND
  8
1
  6
CONTINUOUS
  0
POLYLINE
  8
1
  6
CONTINUOUS
 66
     1
  0
VERTEX
  8
1
  6
CONTINUOUS
 10
81.539085
 20
5.234845
  0
VERTEX
  8
1
  6
CONTINUOUS
 10
93.937040
 20
4.185323
  0
SEQEND
  8
1
  6
CONTINUOUS
  0
POLYLINE
  8
1
  6
CONTINUOUS
 66
     1
  0
VERTEX
  8
1
  6
CONTINUOUS
 10
93.979218
 20
4.683541
  0
VERTEX
  8
1
  6
CONTINUOUS
 10
81.581263
 20
5.733063
  0
SEQEND
  8
1
  6
CONTINUOUS
  0
POLYLINE
  8
1
  6
CONTINUOUS
 66
     1
  0
VERTEX
  8
1
  6
CONTINUOUS
 10
71.574724
 20
6.078356
  0
VERTEX
  8
1
  6
CONTINUOUS
 10
81.040867
 20
5.277021
  0
SEQEND
  8
1
  6
CONTINUOUS
  0
POLYLINE
  8
1
  6
CONTINUOUS
 66
     1
  0
VERTEX
  8
1
  6
CONTINUOUS
 10
81.083045
 20
5.775239
  0
VERTEX
  8
1
  6
CONTINUOUS
 10
71.616902
 20
6.576574
  0
SEQEND
  8
1
  6
CONTINUOUS
  0
POLYLINE
  8
1
  6
CONTINUOUS
 66
     1
  0
VERTEX
  8
1
  6
CONTINUOUS
 10
61.516164
 20
6.929842
  0
VERTEX
  8
1
  6
CONTINUOUS
 10
71.076506
 20
6.120532
  0
SEQEND
  8
1
  6
CONTINUOUS
  0
POLYLINE
  8
1
  6
CONTINUOUS
 66
     1
  0
VERTEX
  8
1
  6
CONTINUOUS
 10
71.118684
 20
6.618750
  0
VERTEX
  8
1
  6
CONTINUOUS
 10
61.558334
 20
7.428060
  0
SEQEND
  8
1
  6
CONTINUOUS
  0
POLYLINE
  8
1
  6
CONTINUOUS
 66
     1
  0
VERTEX
  8
1
  6
CONTINUOUS
 10
95.760511
 20
4.030961
  0
VERTEX
  8
1
  6
CONTINUOUS
 10
95.802686
 20
4.529179
  0
SEQEND
  8
1
  6
CONTINUOUS
  0
POLYLINE
  8
1
  6
CONTINUOUS
 66
     1
  0
VERTEX
  8
1
  6
CONTINUOUS
 10
6.176850
 20
32.450666
  0
VERTEX
  8
1
  6
CONTINUOUS
 10
6.158233
 20
23.084017
  0
SEQEND
  8
1
  6
CONTINUOUS
  0
POLYLINE
  8
1
  6
CONTINUOUS
 66
     1
  0
VERTEX
  8
1
  6
CONTINUOUS
 10
6.658232
 20
23.083040
  0
VERTEX
  8
1
  6
CONTINUOUS
 10
6.676849
 20
32.449688
  0
SEQEND
  8
1
  6
CONTINUOUS
  0
POLYLINE
  8
1
  6
CONTINUOUS
 66
     1
  0
VERTEX
  8
1
  6
CONTINUOUS
 10
6.192353
 20
40.250650
  0
VERTEX
  8
1
  6
CONTINUOUS
 10
6.177844
 20
32.950665
  0
SEQEND
  8
1
  6
CONTINUOUS
  0
POLYLINE
  8
1
  6
CONTINUOUS
 66
     1
  0
VERTEX
  8
1
  6
CONTINUOUS
 10
6.677843
 20
32.949687
  0
VERTEX
  8
1
  6
CONTINUOUS
 10
6.692352
 20
40.249673
  0
SEQEND
  8
1
  6
CONTINUOUS
  0
POLYLINE
  8
1
  6
CONTINUOUS
 66
     1
  0
VERTEX
  8
1
  6
CONTINUOUS
 10
6.217033
 20
52.667292
  0
VERTEX
  8
1
  6
CONTINUOUS
 10
6.193347
 20
40.750649
  0
SEQEND
  8
1
  6
CONTINUOUS
  0
POLYLINE
  8
1
  6
CONTINUOUS
 66
     1
  0
VERTEX
  8
1
  6
CONTINUOUS
 10
6.693346
 20
40.749672
  0
VERTEX
  8
1
  6
CONTINUOUS
 10
6.717032
 20
52.666315
  0
SEQEND
  8
1
  6
CONTINUOUS
  0
POLYLINE
  8
1
  6
CONTINUOUS
 66
     1
  0
VERTEX
  8
1
  6
CONTINUOUS
 10
6.221365
 20
54.846851
  0
VERTEX
  8
1
  6
CONTINUOUS
 10
6.218027
 20
53.167291
  0
SEQEND
  8
1
  6
CONTINUOUS
  0
POLYLINE
  8
1
  6
CONTINUOUS
 66
     1
  0
VERTEX
  8
1
  6
CONTINUOUS
 10
6.718026
 20
53.166314
  0
VERTEX
  8
1
  6
CONTINUOUS
 10
6.720285
 20
54.302839
  0
SEQEND
  8
1
  6
CONTINUOUS
  0
POLYLINE
  8
1
  6
CONTINUOUS
 66
     1
  0
VERTEX
  8
1
  6
CONTINUOUS
 10
6.672646
 20
12.869188
  0
VERTEX
  8
1
  6
CONTINUOUS
 10
6.671159
 20
12.108460
  0
SEQEND
  8
1
  6
CONTINUOUS
  0
POLYLINE
  8
1
  6
CONTINUOUS
 66
     1
  0
VERTEX
  8
1
  6
CONTINUOUS
 10
7.138665
 20
12.537217
  0
VERTEX
  8
1
  6
CONTINUOUS
 10
7.139312
 20
12.868276
  0
SEQEND
  8
1
  6
CONTINUOUS
  0
POLYLINE
  8
1
  6
CONTINUOUS
 66
     1
  0
VERTEX
  8
1
  6
CONTINUOUS
 10
6.690592
 20
22.049642
  0
VERTEX
  8
1
  6
CONTINUOUS
 10
6.673624
 20
13.369187
  0
SEQEND
  8
1
  6
CONTINUOUS
  0
POLYLINE
  8
1
  6
CONTINUOUS
 66
     1
  0
VERTEX
  8
1
  6
CONTINUOUS
 10
7.140289
 20
13.368275
  0
VERTEX
  8
1
  6
CONTINUOUS
 10
7.157258
 20
22.048729
  0
SEQEND
  8
1
  6
CONTINUOUS
  0
POLYLINE
  8
1
  6
CONTINUOUS
 66
     1
  0
VERTEX
  8
1
  6
CONTINUOUS
 10
51.164929
 20
8.341590
  0
VERTEX
  8
1
  6
CONTINUOUS
 10
60.531509
 20
7.548610
  0
SEQEND
  8
1
  6
CONTINUOUS
  0
POLYLINE
  8
1
  6
CONTINUOUS
 66
     1
  0
VERTEX
  8
1
  6
CONTINUOUS
 10
60.570867
 20
8.013614
  0
VERTEX
  8
1
  6
CONTINUOUS
 10
51.204287
 20
8.806594
  0
SEQEND
  8
1
  6
CONTINUOUS
  0
POLYLINE
  8
1
  6
CONTINUOUS
 66
     1
  0
VERTEX
  8
1
  6
CONTINUOUS
 10
40.926758
 20
9.208360
  0
VERTEX
  8
1
  6
CONTINUOUS
 10
50.334566
 20
8.411889
  0
SEQEND
  8
1
  6
CONTINUOUS
  0
POLYLINE
  8
1
  6
CONTINUOUS
 66
     1
  0
VERTEX
  8
1
  6
CONTINUOUS
 10
50.373924
 20
8.876893
  0
VERTEX
  8
1
  6
CONTINUOUS
 10
40.966117
 20
9.673364
  0
SEQEND
  8
1
  6
CONTINUOUS
  0
POLYLINE
  8
1
  6
CONTINUOUS
 66
     1
  0
VERTEX
  8
1
  6
CONTINUOUS
 10
31.159751
 20
10.035241
  0
VERTEX
  8
1
  6
CONTINUOUS
 10
40.096396
 20
9.278659
  0
SEQEND
  8
1
  6
CONTINUOUS
  0
POLYLINE
  8
1
  6
CONTINUOUS
 66
     1
  0
VERTEX
  8
1
  6
CONTINUOUS
 10
40.135754
 20
9.743663
  0
VERTEX
  8
1
  6
CONTINUOUS
 10
31.199109
 20
10.500245
  0
SEQEND
  8
1
  6
CONTINUOUS
  0
POLYLINE
  8
1
  6
CONTINUOUS
 66
     1
  0
VERTEX
  8
1
  6
CONTINUOUS
 10
21.828412
 20
10.825238
  0
VERTEX
  8
1
  6
CONTINUOUS
 10
30.661534
 20
10.077420
  0
SEQEND
  8
1
  6
CONTINUOUS
  0
POLYLINE
  8
1
  6
CONTINUOUS
 66
     1
  0
VERTEX
  8
1
  6
CONTINUOUS
 10
30.700892
 20
10.542424
  0
VERTEX
  8
1
  6
CONTINUOUS
 10
21.867770
 20
11.290242
  0
SEQEND
  8
1
  6
CONTINUOUS
  0
POLYLINE
  8
1
  6
CONTINUOUS
 66
     1
  0
VERTEX
  8
1
  6
CONTINUOUS
 10
14.313627
 20
11.461444
  0
VERTEX
  8
1
  6
CONTINUOUS
 10
21.330194
 20
10.867417
  0
SEQEND
  8
1
  6
CONTINUOUS
  0
POLYLINE
  8
1
  6
CONTINUOUS
 66
     1
  0
VERTEX
  8
1
  6
CONTINUOUS
 10
21.369552
 20
11.332421
  0
VERTEX
  8
1
  6
CONTINUOUS
 10
14.352985
 20
11.926448
  0
SEQEND
  8
1
  6
CONTINUOUS
  0
POLYLINE
  8
1
  6
CONTINUOUS
 66
     1
  0
VERTEX
  8
1
  6
CONTINUOUS
 10
6.671159
 20
12.108460
  0
VERTEX
  8
1
  6
CONTINUOUS
 10
13.815410
 20
11.503624
  0
SEQEND
  8
1
  6
CONTINUOUS
  0
POLYLINE
  8
1
  6
CONTINUOUS
 66
     1
  0
VERTEX
  8
1
  6
CONTINUOUS
 10
13.854768
 20
11.968628
  0
VERTEX
  8
1
  6
CONTINUOUS
 10
7.138665
 20
12.537217
  0
SEQEND
  8
1
  6
CONTINUOUS
  0
POLYLINE
  8
1
  6
CONTINUOUS
 66
     1
  0
VERTEX
  8
1
  6
CONTINUOUS
 10
59.175855
 20
49.863355
  0
VERTEX
  8
1
  6
CONTINUOUS
 10
58.933263
 20
46.991237
  0
SEQEND
  8
1
  6
CONTINUOUS
  0
POLYLINE
  8
1
  6
CONTINUOUS
 66
     1
  0
VERTEX
  8
1
  6
CONTINUOUS
 10
59.265409
 20
46.963124
  0
VERTEX
  8
1
  6
CONTINUOUS
 10
59.508005
 20
49.835300
  0
SEQEND
  8
1
  6
CONTINUOUS
  0
POLYLINE
  8
1
  6
CONTINUOUS
 66
     1
  0
VERTEX
  8
1
  6
CONTINUOUS
 10
47.890414
 20
47.589446
  0
VERTEX
  8
1
  6
CONTINUOUS
 10
58.905150
 20
46.659091
  0
SEQEND
  8
1
  6
CONTINUOUS
  0
POLYLINE
  8
1
  6
CONTINUOUS
 66
     1
  0
VERTEX
  8
1
  6
CONTINUOUS
 10
58.933263
 20
46.991237
  0
VERTEX
  8
1
  6
CONTINUOUS
 10
47.918526
 20
47.921591
  0
SEQEND
  8
1
  6
CONTINUOUS
  0
POLYLINE
  8
1
  6
CONTINUOUS
 66
     1
  0
VERTEX
  8
1
  6
CONTINUOUS
 10
36.544691
 20
48.547756
  0
VERTEX
  8
1
  6
CONTINUOUS
 10
47.558263
 20
47.617500
  0
SEQEND
  8
1
  6
CONTINUOUS
  0
POLYLINE
  8
1
  6
CONTINUOUS
 66
     1
  0
VERTEX
  8
1
  6
CONTINUOUS
 10
47.586376
 20
47.949646
  0
VERTEX
  8
1
  6
CONTINUOUS
 10
36.572804
 20
48.879902
  0
SEQEND
  8
1
  6
CONTINUOUS
  0
POLYLINE
  8
1
  6
CONTINUOUS
 66
     1
  0
VERTEX
  8
1
  6
CONTINUOUS
 10
36.483570
 20
51.783925
  0
VERTEX
  8
1
  6
CONTINUOUS
 10
36.240658
 20
48.908013
  0
SEQEND
  8
1
  6
CONTINUOUS
  0
POLYLINE
  8
1
  6
CONTINUOUS
 66
     1
  0
VERTEX
  8
1
  6
CONTINUOUS
 10
36.572804
 20
48.879902
  0
VERTEX
  8
1
  6
CONTINUOUS
 10
36.815721
 20
51.755870
  0
SEQEND
  8
1
  6
CONTINUOUS
  0
LINE
  8
1
  6
CONTINUOUS
 10
95.802781
 20
4.529682
 11
99.352372
 21
46.463050
  0
LINE
  8
1
  6
CONTINUOUS
 10
61.060739
 20
7.470390
 11
61.026918
 21
7.473254
  0
LINE
  8
1
  6
CONTINUOUS
 10
61.026918
 20
7.473254
 11
61.029730
 21
7.506464
  0
LINE
  8
1
  6
CONTINUOUS
 10
6.691569
 20
22.549641
 11
6.658236
 21
22.549641
  0
LINE
  8
1
  6
CONTINUOUS
 10
6.658236
 20
22.549641
 11
6.658236
 21
22.583039
  0
LINE
  8
1
  6
CONTINUOUS
 10
78.084484
 20
16.482946
 11
78.084484
 21
16.482946
  0
POLYLINE
  8
1
  6
CONTINUOUS
 66
     1
  0
VERTEX
  8
1
  6
CONTINUOUS
 10
78.464525
 20
16.032623
  0
VERTEX
  8
1
  6
CONTINUOUS
 10
78.534807
 20
16.862987
  0
VERTEX
  8
1
  6
CONTINUOUS
 10
77.704443
 20
16.933269
  0
VERTEX
  8
1
  6
CONTINUOUS
 10
77.634161
 20
16.102905
  0
VERTEX
  8
1
  6
CONTINUOUS
 10
78.464525
 20
16.032623
  0
SEQEND
  8
1
  6
CONTINUOUS
  0
LINE
  8
1
  6
CONTINUOUS
 10
79.000459
 20
27.303905
 11
79.000459
 21
27.303905
  0
POLYLINE
  8
1
  6
CONTINUOUS
 66
     1
  0
VERTEX
  8
1
  6
CONTINUOUS
 10
79.380500
 20
26.853582
  0
VERTEX
  8
1
  6
CONTINUOUS
 10
79.450783
 20
27.683946
  0
VERTEX
  8
1
  6
CONTINUOUS
 10
78.620418
 20
27.754229
  0
VERTEX
  8
1
  6
CONTINUOUS
 10
78.550136
 20
26.923864
  0
VERTEX
  8
1
  6
CONTINUOUS
 10
79.380500
 20
26.853582
  0
SEQEND
  8
1
  6
CONTINUOUS
  0
LINE
  8
1
  6
CONTINUOUS
 10
79.876888
 20
37.657656
 11
79.876888
 21
37.657656
  0
POLYLINE
  8
1
  6
CONTINUOUS
 66
     1
  0
VERTEX
  8
1
  6
CONTINUOUS
 10
80.256929
 20
37.207332
  0
VERTEX
  8
1
  6
CONTINUOUS
 10
80.327211
 20
38.037697
  0
VERTEX
  8
1
  6
CONTINUOUS
 10
79.496847
 20
38.107979
  0
VERTEX
  8
1
  6
CONTINUOUS
 10
79.426564
 20
37.277615
  0
VERTEX
  8
1
  6
CONTINUOUS
 10
80.256929
 20
37.207332
  0
SEQEND
  8
1
  6
CONTINUOUS
  0
LINE
  8
1
  6
CONTINUOUS
 10
61.477209
 20
17.888719
 11
61.477209
 21
17.888719
  0
POLYLINE
  8
1
  6
CONTINUOUS
 66
     1
  0
VERTEX
  8
1
  6
CONTINUOUS
 10
61.857250
 20
17.438395
  0
VERTEX
  8
1
  6
CONTINUOUS
 10
61.927533
 20
18.268760
  0
VERTEX
  8
1
  6
CONTINUOUS
 10
61.097168
 20
18.339042
  0
VERTEX
  8
1
  6
CONTINUOUS
 10
61.026886
 20
17.508678
  0
VERTEX
  8
1
  6
CONTINUOUS
 10
61.857250
 20
17.438395
  0
SEQEND
  8
1
  6
CONTINUOUS
  0
LINE
  8
1
  6
CONTINUOUS
 10
62.566286
 20
28.778658
 11
62.566286
 21
28.778658
  0
POLYLINE
  8
1
  6
CONTINUOUS
 66
     1
  0
VERTEX
  8
1
  6
CONTINUOUS
 10
62.946327
 20
28.328335
  0
VERTEX
  8
1
  6
CONTINUOUS
 10
63.016609
 20
29.158699
  0
VERTEX
  8
1
  6
CONTINUOUS
 10
62.186245
 20
29.228981
  0
VERTEX
  8
1
  6
CONTINUOUS
 10
62.115962
 20
28.398617
  0
VERTEX
  8
1
  6
CONTINUOUS
 10
62.946327
 20
28.328335
  0
SEQEND
  8
1
  6
CONTINUOUS
  0
LINE
  8
1
  6
CONTINUOUS
 10
63.435685
 20
39.049372
 11
63.435685
 21
39.049372
  0
POLYLINE
  8
1
  6
CONTINUOUS
 66
     1
  0
VERTEX
  8
1
  6
CONTINUOUS
 10
63.815726
 20
38.599049
  0
VERTEX
  8
1
  6
CONTINUOUS
 10
63.886009
 20
39.429413
  0
VERTEX
  8
1
  6
CONTINUOUS
 10
63.055644
 20
39.499695
  0
VERTEX
  8
1
  6
CONTINUOUS
 10
62.985362
 20
38.669331
  0
VERTEX
  8
1
  6
CONTINUOUS
 10
63.815726
 20
38.599049
  0
SEQEND
  8
1
  6
CONTINUOUS
  0
LINE
  8
1
  6
CONTINUOUS
 10
44.993838
 20
18.782216
 11
44.993838
 21
18.782216
  0
POLYLINE
  8
1
  6
CONTINUOUS
 66
     1
  0
VERTEX
  8
1
  6
CONTINUOUS
 10
45.193749
 20
18.179877
  0
VERTEX
  8
1
  6
CONTINUOUS
 10
45.292145
 20
19.342387
  0
VERTEX
  8
1
  6
CONTINUOUS
 10
44.793926
 20
19.384556
  0
VERTEX
  8
1
  6
CONTINUOUS
 10
44.695531
 20
18.222046
  0
VERTEX
  8
1
  6
CONTINUOUS
 10
45.193749
 20
18.179877
  0
SEQEND
  8
1
  6
CONTINUOUS
  0
LINE
  8
1
  6
CONTINUOUS
 10
45.994152
 20
30.599613
 11
45.994152
 21
30.599613
  0
POLYLINE
  8
1
  6
CONTINUOUS
 66
     1
  0
VERTEX
  8
1
  6
CONTINUOUS
 10
46.194063
 20
29.997273
  0
VERTEX
  8
1
  6
CONTINUOUS
 10
46.292459
 20
31.159783
  0
VERTEX
  8
1
  6
CONTINUOUS
 10
45.794240
 20
31.201953
  0
VERTEX
  8
1
  6
CONTINUOUS
 10
45.695845
 20
30.039443
  0
VERTEX
  8
1
  6
CONTINUOUS
 10
46.194063
 20
29.997273
  0
SEQEND
  8
1
  6
CONTINUOUS
  0
LINE
  8
1
  6
CONTINUOUS
 10
46.870580
 20
40.953363
 11
46.870580
 21
40.953363
  0
POLYLINE
  8
1
  6
CONTINUOUS
 66
     1
  0
VERTEX
  8
1
  6
CONTINUOUS
 10
47.070492
 20
40.351023
  0
VERTEX
  8
1
  6
CONTINUOUS
 10
47.168887
 20
41.513533
  0
VERTEX
  8
1
  6
CONTINUOUS
 10
46.670668
 20
41.555703
  0
VERTEX
  8
1
  6
CONTINUOUS
 10
46.572273
 20
40.393193
  0
VERTEX
  8
1
  6
CONTINUOUS
 10
47.070492
 20
40.351023
  0
SEQEND
  8
1
  6
CONTINUOUS
  0
LINE
  8
1
  6
CONTINUOUS
 10
16.016773
 20
21.235043
 11
16.016773
 21
21.235043
  0
POLYLINE
  8
1
  6
CONTINUOUS
 66
     1
  0
VERTEX
  8
1
  6
CONTINUOUS
 10
16.216685
 20
20.632703
  0
VERTEX
  8
1
  6
CONTINUOUS
 10
16.315080
 20
21.795213
  0
VERTEX
  8
1
  6
CONTINUOUS
 10
15.816862
 20
21.837382
  0
VERTEX
  8
1
  6
CONTINUOUS
 10
15.718467
 20
20.674872
  0
VERTEX
  8
1
  6
CONTINUOUS
 10
16.216685
 20
20.632703
  0
SEQEND
  8
1
  6
CONTINUOUS
  0
LINE
  8
1
  6
CONTINUOUS
 10
17.017087
 20
33.052439
 11
17.017087
 21
33.052439
  0
POLYLINE
  8
1
  6
CONTINUOUS
 66
     1
  0
VERTEX
  8
1
  6
CONTINUOUS
 10
17.216999
 20
32.450100
  0
VERTEX
  8
1
  6
CONTINUOUS
 10
17.315394
 20
33.612610
  0
VERTEX
  8
1
  6
CONTINUOUS
 10
16.817176
 20
33.654779
  0
VERTEX
  8
1
  6
CONTINUOUS
 10
16.718781
 20
32.492269
  0
VERTEX
  8
1
  6
CONTINUOUS
 10
17.216999
 20
32.450100
  0
SEQEND
  8
1
  6
CONTINUOUS
  0
LINE
  8
1
  6
CONTINUOUS
 10
95.048569
 20
15.340467
 11
95.048569
 21
15.340467
  0
POLYLINE
  8
1
  6
CONTINUOUS
 66
     1
  0
VERTEX
  8
1
  6
CONTINUOUS
 10
95.352602
 20
14.980208
  0
VERTEX
  8
1
  6
CONTINUOUS
 10
95.408828
 20
15.644500
  0
VERTEX
  8
1
  6
CONTINUOUS
 10
94.744537
 20
15.700725
  0
VERTEX
  8
1
  6
CONTINUOUS
 10
94.688311
 20
15.036434
  0
VERTEX
  8
1
  6
CONTINUOUS
 10
95.352602
 20
14.980208
  0
SEQEND
  8
1
  6
CONTINUOUS
  0
LINE
  8
1
  6
CONTINUOUS
 10
95.920005
 20
25.636253
 11
95.920005
 21
25.636253
  0
POLYLINE
  8
1
  6
CONTINUOUS
 66
     1
  0
VERTEX
  8
1
  6
CONTINUOUS
 10
96.224038
 20
25.275995
  0
VERTEX
  8
1
  6
CONTINUOUS
 10
96.280264
 20
25.940286
  0
VERTEX
  8
1
  6
CONTINUOUS
 10
95.615972
 20
25.996512
  0
VERTEX
  8
1
  6
CONTINUOUS
 10
95.559747
 20
25.332221
  0
VERTEX
  8
1
  6
CONTINUOUS
 10
96.224038
 20
25.275995
  0
SEQEND
  8
1
  6
CONTINUOUS
  0
LINE
  8
1
  6
CONTINUOUS
 10
96.791503
 20
35.932769
 11
96.791503
 21
35.932769
  0
POLYLINE
  8
1
  6
CONTINUOUS
 66
     1
  0
VERTEX
  8
1
  6
CONTINUOUS
 10
97.095536
 20
35.572510
  0
VERTEX
  8
1
  6
CONTINUOUS
 10
97.151761
 20
36.236802
  0
VERTEX
  8
1
  6
CONTINUOUS
 10
96.487470
 20
36.293027
  0
VERTEX
  8
1
  6
CONTINUOUS
 10
96.431244
 20
35.628736
  0
VERTEX
  8
1
  6
CONTINUOUS
 10
97.095536
 20
35.572510
  0
SEQEND
  8
1
  6
CONTINUOUS
  0
LINE
  8
1
  6
CONTINUOUS
 10
14.084104
 20
11.713935
 11
14.084104
 21
11.713935
  0
POLYLINE
  8
1
  6
CONTINUOUS
 66
     1
  0
VERTEX
  8
1
  6
CONTINUOUS
 10
14.352893
 20
11.925352
  0
VERTEX
  8
1
  6
CONTINUOUS
 10
13.854674
 20
11.967522
  0
VERTEX
  8
1
  6
CONTINUOUS
 10
13.815316
 20
11.502518
  0
VERTEX
  8
1
  6
CONTINUOUS
 10
14.313535
 20
11.460348
  0
VERTEX
  8
1
  6
CONTINUOUS
 10
14.352893
 20
11.925352
  0
SEQEND
  8
1
  6
CONTINUOUS
  0
LINE
  8
1
  6
CONTINUOUS
 10
97.466919
 20
46.873419
 11
97.466919
 21
46.873419
  0
POLYLINE
  8
1
  6
CONTINUOUS
 66
     1
  0
VERTEX
  8
1
  6
CONTINUOUS
 10
98.027141
 20
46.575210
  0
VERTEX
  8
1
  6
CONTINUOUS
 10
98.069223
 20
47.073436
  0
VERTEX
  8
1
  6
CONTINUOUS
 10
96.906696
 20
47.171628
  0
VERTEX
  8
1
  6
CONTINUOUS
 10
96.864614
 20
46.673402
  0
VERTEX
  8
1
  6
CONTINUOUS
 10
98.027141
 20
46.575210
  0
SEQEND
  8
1
  6
CONTINUOUS
  0
LINE
  8
1
  6
CONTINUOUS
 10
87.967707
 20
47.677479
 11
87.967707
 21
47.677479
  0
POLYLINE
  8
1
  6
CONTINUOUS
 66
     1
  0
VERTEX
  8
1
  6
CONTINUOUS
 10
88.195778
 20
47.407325
  0
VERTEX
  8
1
  6
CONTINUOUS
 10
88.237861
 20
47.905551
  0
VERTEX
  8
1
  6
CONTINUOUS
 10
87.739635
 20
47.947634
  0
VERTEX
  8
1
  6
CONTINUOUS
 10
87.697552
 20
47.449408
  0
VERTEX
  8
1
  6
CONTINUOUS
 10
88.195778
 20
47.407325
  0
SEQEND
  8
1
  6
CONTINUOUS
  0
LINE
  8
1
  6
CONTINUOUS
 10
77.172966
 20
48.591094
 11
77.172966
 21
48.591094
  0
POLYLINE
  8
1
  6
CONTINUOUS
 66
     1
  0
VERTEX
  8
1
  6
CONTINUOUS
 10
77.401038
 20
48.320940
  0
VERTEX
  8
1
  6
CONTINUOUS
 10
77.443121
 20
48.819166
  0
VERTEX
  8
1
  6
CONTINUOUS
 10
76.944895
 20
48.861249
  0
VERTEX
  8
1
  6
CONTINUOUS
 10
76.902812
 20
48.363023
  0
VERTEX
  8
1
  6
CONTINUOUS
 10
77.401038
 20
48.320940
  0
SEQEND
  8
1
  6
CONTINUOUS
  0
LINE
  8
1
  6
CONTINUOUS
 10
68.038955
 20
49.364153
 11
68.038955
 21
49.364153
  0
POLYLINE
  8
1
  6
CONTINUOUS
 66
     1
  0
VERTEX
  8
1
  6
CONTINUOUS
 10
68.267027
 20
49.093999
  0
VERTEX
  8
1
  6
CONTINUOUS
 10
68.309110
 20
49.592225
  0
VERTEX
  8
1
  6
CONTINUOUS
 10
67.810884
 20
49.634308
  0
VERTEX
  8
1
  6
CONTINUOUS
 10
67.768801
 20
49.136082
  0
VERTEX
  8
1
  6
CONTINUOUS
 10
68.267027
 20
49.093999
  0
SEQEND
  8
1
  6
CONTINUOUS
  0
LINE
  8
1
  6
CONTINUOUS
 10
27.121495
 20
52.827225
 11
27.121495
 21
52.827225
  0
POLYLINE
  8
1
  6
CONTINUOUS
 66
     1
  0
VERTEX
  8
1
  6
CONTINUOUS
 10
27.349566
 20
52.557071
  0
VERTEX
  8
1
  6
CONTINUOUS
 10
27.391649
 20
53.055296
  0
VERTEX
  8
1
  6
CONTINUOUS
 10
26.893423
 20
53.097379
  0
VERTEX
  8
1
  6
CONTINUOUS
 10
26.851340
 20
52.599153
  0
VERTEX
  8
1
  6
CONTINUOUS
 10
27.349566
 20
52.557071
  0
SEQEND
  8
1
  6
CONTINUOUS
  0
LINE
  8
1
  6
CONTINUOUS
 10
17.536800
 20
53.638424
 11
17.536800
 21
53.638424
  0
POLYLINE
  8
1
  6
CONTINUOUS
 66
     1
  0
VERTEX
  8
1
  6
CONTINUOUS
 10
17.764872
 20
53.368270
  0
VERTEX
  8
1
  6
CONTINUOUS
 10
17.806954
 20
53.866496
  0
VERTEX
  8
1
  6
CONTINUOUS
 10
17.308728
 20
53.908579
  0
VERTEX
  8
1
  6
CONTINUOUS
 10
17.266646
 20
53.410353
  0
VERTEX
  8
1
  6
CONTINUOUS
 10
17.764872
 20
53.368270
  0
SEQEND
  8
1
  6
CONTINUOUS
  0
LINE
  8
1
  6
CONTINUOUS
 10
8.402792
 20
54.411526
 11
8.402792
 21
54.411526
  0
POLYLINE
  8
1
  6
CONTINUOUS
 66
     1
  0
VERTEX
  8
1
  6
CONTINUOUS
 10
8.963015
 20
54.113317
  0
VERTEX
  8
1
  6
CONTINUOUS
 10
9.005097
 20
54.611543
  0
VERTEX
  8
1
  6
CONTINUOUS
 10
7.842570
 20
54.709735
  0
VERTEX
  8
1
  6
CONTINUOUS
 10
7.800488
 20
54.211510
  0
VERTEX
  8
1
  6
CONTINUOUS
 10
8.963015
 20
54.113317
  0
SEQEND
  8
1
  6
CONTINUOUS
  0
LINE
  8
1
  6
CONTINUOUS
 10
6.924413
 20
22.299185
 11
6.924413
 21
22.299185
  0
POLYLINE
  8
1
  6
CONTINUOUS
 66
     1
  0
VERTEX
  8
1
  6
CONTINUOUS
 10
7.157258
 20
22.048729
  0
VERTEX
  8
1
  6
CONTINUOUS
 10
7.158235
 20
22.548728
  0
VERTEX
  8
1
  6
CONTINUOUS
 10
6.691569
 20
22.549641
  0
VERTEX
  8
1
  6
CONTINUOUS
 10
6.690592
 20
22.049642
  0
VERTEX
  8
1
  6
CONTINUOUS
 10
7.157258
 20
22.048729
  0
SEQEND
  8
1
  6
CONTINUOUS
  0
LINE
  8
1
  6
CONTINUOUS
 10
6.443349
 20
40.500160
 11
6.443349
 21
40.500160
  0
POLYLINE
  8
1
  6
CONTINUOUS
 66
     1
  0
VERTEX
  8
1
  6
CONTINUOUS
 10
6.692860
 20
40.249672
  0
VERTEX
  8
1
  6
CONTINUOUS
 10
6.693837
 20
40.749671
  0
VERTEX
  8
1
  6
CONTINUOUS
 10
6.193838
 20
40.750648
  0
VERTEX
  8
1
  6
CONTINUOUS
 10
6.192861
 20
40.250649
  0
VERTEX
  8
1
  6
CONTINUOUS
 10
6.692860
 20
40.249672
  0
SEQEND
  8
1
  6
CONTINUOUS
  0
LINE
  8
1
  6
CONTINUOUS
 10
6.467637
 20
52.916803
 11
6.467637
 21
52.916803
  0
POLYLINE
  8
1
  6
CONTINUOUS
 66
     1
  0
VERTEX
  8
1
  6
CONTINUOUS
 10
6.717148
 20
52.666315
  0
VERTEX
  8
1
  6
CONTINUOUS
 10
6.718125
 20
53.166314
  0
VERTEX
  8
1
  6
CONTINUOUS
 10
6.218126
 20
53.167291
  0
VERTEX
  8
1
  6
CONTINUOUS
 10
6.217149
 20
52.667292
  0
VERTEX
  8
1
  6
CONTINUOUS
 10
6.717148
 20
52.666315
  0
SEQEND
  8
1
  6
CONTINUOUS
  0
LINE
  8
1
  6
CONTINUOUS
 10
59.778061
 20
50.063380
 11
59.778061
 21
50.063380
  0
POLYLINE
  8
1
  6
CONTINUOUS
 66
     1
  0
VERTEX
  8
1
  6
CONTINUOUS
 10
60.338283
 20
49.765171
  0
VERTEX
  8
1
  6
CONTINUOUS
 10
60.380366
 20
50.263397
  0
VERTEX
  8
1
  6
CONTINUOUS
 10
59.217839
 20
50.361589
  0
VERTEX
  8
1
  6
CONTINUOUS
 10
59.175756
 20
49.863363
  0
VERTEX
  8
1
  6
CONTINUOUS
 10
60.338283
 20
49.765171
  0
SEQEND
  8
1
  6
CONTINUOUS
  0
LINE
  8
1
  6
CONTINUOUS
 10
21.598903
 20
11.077902
 11
21.598903
 21
11.077902
  0
POLYLINE
  8
1
  6
CONTINUOUS
 66
     1
  0
VERTEX
  8
1
  6
CONTINUOUS
 10
21.867692
 20
11.289319
  0
VERTEX
  8
1
  6
CONTINUOUS
 10
21.369473
 20
11.331488
  0
VERTEX
  8
1
  6
CONTINUOUS
 10
21.330115
 20
10.866484
  0
VERTEX
  8
1
  6
CONTINUOUS
 10
21.828334
 20
10.824315
  0
VERTEX
  8
1
  6
CONTINUOUS
 10
21.867692
 20
11.289319
  0
SEQEND
  8
1
  6
CONTINUOUS
  0
LINE
  8
1
  6
CONTINUOUS
 10
71.346697
 20
6.348470
 11
71.346697
 21
6.348470
  0
POLYLINE
  8
1
  6
CONTINUOUS
 66
     1
  0
VERTEX
  8
1
  6
CONTINUOUS
 10
71.616895
 20
6.576490
  0
VERTEX
  8
1
  6
CONTINUOUS
 10
71.118677
 20
6.618668
  0
VERTEX
  8
1
  6
CONTINUOUS
 10
71.076499
 20
6.120450
  0
VERTEX
  8
1
  6
CONTINUOUS
 10
71.574717
 20
6.078272
  0
VERTEX
  8
1
  6
CONTINUOUS
 10
71.616895
 20
6.576490
  0
SEQEND
  8
1
  6
CONTINUOUS
  0
LINE
  8
1
  6
CONTINUOUS
 10
81.311073
 20
5.505137
 11
81.311073
 21
5.505137
  0
POLYLINE
  8
1
  6
CONTINUOUS
 66
     1
  0
VERTEX
  8
1
  6
CONTINUOUS
 10
81.581271
 20
5.733157
  0
VERTEX
  8
1
  6
CONTINUOUS
 10
81.083053
 20
5.775335
  0
VERTEX
  8
1
  6
CONTINUOUS
 10
81.040875
 20
5.277117
  0
VERTEX
  8
1
  6
CONTINUOUS
 10
81.539093
 20
5.234939
  0
VERTEX
  8
1
  6
CONTINUOUS
 10
81.581271
 20
5.733157
  0
SEQEND
  8
1
  6
CONTINUOUS
  0
LINE
  8
1
  6
CONTINUOUS
 10
94.207241
 20
4.413375
 11
94.207241
 21
4.413375
  0
POLYLINE
  8
1
  6
CONTINUOUS
 66
     1
  0
VERTEX
  8
1
  6
CONTINUOUS
 10
94.477439
 20
4.641395
  0
VERTEX
  8
1
  6
CONTINUOUS
 10
93.979221
 20
4.683573
  0
VERTEX
  8
1
  6
CONTINUOUS
 10
93.937043
 20
4.185355
  0
VERTEX
  8
1
  6
CONTINUOUS
 10
94.435261
 20
4.143177
  0
VERTEX
  8
1
  6
CONTINUOUS
 10
94.477439
 20
4.641395
  0
SEQEND
  8
1
  6
CONTINUOUS
  0
LINE
  8
1
  6
CONTINUOUS
 10
36.255498
 20
52.054079
 11
36.255498
 21
52.054079
  0
POLYLINE
  8
1
  6
CONTINUOUS
 66
     1
  0
VERTEX
  8
1
  6
CONTINUOUS
 10
36.815721
 20
51.755870
  0
VERTEX
  8
1
  6
CONTINUOUS
 10
36.857803
 20
52.254096
  0
VERTEX
  8
1
  6
CONTINUOUS
 10
35.695276
 20
52.352288
  0
VERTEX
  8
1
  6
CONTINUOUS
 10
35.653194
 20
51.854062
  0
VERTEX
  8
1
  6
CONTINUOUS
 10
36.815721
 20
51.755870
  0
SEQEND
  8
1
  6
CONTINUOUS
  0
LINE
  8
1
  6
CONTINUOUS
 10
50.769405
 20
8.608987
 11
50.769405
 21
8.608987
  0
POLYLINE
  8
1
  6
CONTINUOUS
 66
     1
  0
VERTEX
  8
1
  6
CONTINUOUS
 10
51.204266
 20
8.806348
  0
VERTEX
  8
1
  6
CONTINUOUS
 10
50.373902
 20
8.876631
  0
VERTEX
  8
1
  6
CONTINUOUS
 10
50.334544
 20
8.411627
  0
VERTEX
  8
1
  6
CONTINUOUS
 10
51.164908
 20
8.341344
  0
VERTEX
  8
1
  6
CONTINUOUS
 10
51.204266
 20
8.806348
  0
SEQEND
  8
1
  6
CONTINUOUS
  0
LINE
  8
1
  6
CONTINUOUS
 10
31.610883
 20
19.804415
 11
31.610883
 21
19.804415
  0
POLYLINE
  8
1
  6
CONTINUOUS
 66
     1
  0
VERTEX
  8
1
  6
CONTINUOUS
 10
31.810795
 20
19.202075
  0
VERTEX
  8
1
  6
CONTINUOUS
 10
31.909190
 20
20.364585
  0
VERTEX
  8
1
  6
CONTINUOUS
 10
31.410971
 20
20.406755
  0
VERTEX
  8
1
  6
CONTINUOUS
 10
31.312576
 20
19.244245
  0
VERTEX
  8
1
  6
CONTINUOUS
 10
31.810795
 20
19.202075
  0
SEQEND
  8
1
  6
CONTINUOUS
  0
LINE
  8
1
  6
CONTINUOUS
 10
32.611046
 20
31.621824
 11
32.611046
 21
31.621824
  0
POLYLINE
  8
1
  6
CONTINUOUS
 66
     1
  0
VERTEX
  8
1
  6
CONTINUOUS
 10
32.810958
 20
31.019485
  0
VERTEX
  8
1
  6
CONTINUOUS
 10
32.909353
 20
32.181995
  0
VERTEX
  8
1
  6
CONTINUOUS
 10
32.411134
 20
32.224164
  0
VERTEX
  8
1
  6
CONTINUOUS
 10
32.312739
 20
31.061654
  0
VERTEX
  8
1
  6
CONTINUOUS
 10
32.810958
 20
31.019485
  0
SEQEND
  8
1
  6
CONTINUOUS
  0
LINE
  8
1
  6
CONTINUOUS
 10
33.243661
 20
39.096561
 11
33.243661
 21
39.096561
  0
POLYLINE
  8
1
  6
CONTINUOUS
 66
     1
  0
VERTEX
  8
1
  6
CONTINUOUS
 10
33.443573
 20
38.494221
  0
VERTEX
  8
1
  6
CONTINUOUS
 10
33.541968
 20
39.656731
  0
VERTEX
  8
1
  6
CONTINUOUS
 10
33.043749
 20
39.698900
  0
VERTEX
  8
1
  6
CONTINUOUS
 10
32.945354
 20
38.536390
  0
VERTEX
  8
1
  6
CONTINUOUS
 10
33.443573
 20
38.494221
  0
SEQEND
  8
1
  6
CONTINUOUS
  0
LINE
  8
1
  6
CONTINUOUS
 10
17.851349
 20
42.907994
 11
17.851349
 21
42.907994
  0
POLYLINE
  8
1
  6
CONTINUOUS
 66
     1
  0
VERTEX
  8
1
  6
CONTINUOUS
 10
18.051260
 20
42.305654
  0
VERTEX
  8
1
  6
CONTINUOUS
 10
18.149656
 20
43.468164
  0
VERTEX
  8
1
  6
CONTINUOUS
 10
17.651437
 20
43.510333
  0
VERTEX
  8
1
  6
CONTINUOUS
 10
17.553042
 20
42.347823
  0
VERTEX
  8
1
  6
CONTINUOUS
 10
18.051260
 20
42.305654
  0
SEQEND
  8
1
  6
CONTINUOUS
  0
LINE
  8
1
  6
CONTINUOUS
 10
61.288157
 20
7.200247
 11
61.288157
 21
7.200247
  0
POLYLINE
  8
1
  6
CONTINUOUS
 66
     1
  0
VERTEX
  8
1
  6
CONTINUOUS
 10
61.558351
 20
7.428272
  0
VERTEX
  8
1
  6
CONTINUOUS
 10
61.060133
 20
7.470441
  0
VERTEX
  8
1
  6
CONTINUOUS
 10
61.017964
 20
6.972223
  0
VERTEX
  8
1
  6
CONTINUOUS
 10
61.516182
 20
6.930053
  0
VERTEX
  8
1
  6
CONTINUOUS
 10
61.558351
 20
7.428272
  0
SEQEND
  8
1
  6
CONTINUOUS
  0
LINE
  8
1
  6
CONTINUOUS
 10
6.428090
 20
32.700175
 11
6.428090
 21
32.700175
  0
POLYLINE
  8
1
  6
CONTINUOUS
 66
     1
  0
VERTEX
  8
1
  6
CONTINUOUS
 10
6.677601
 20
32.449687
  0
VERTEX
  8
1
  6
CONTINUOUS
 10
6.678579
 20
32.949686
  0
VERTEX
  8
1
  6
CONTINUOUS
 10
6.178580
 20
32.950663
  0
VERTEX
  8
1
  6
CONTINUOUS
 10
6.177602
 20
32.450664
  0
VERTEX
  8
1
  6
CONTINUOUS
 10
6.677601
 20
32.449687
  0
SEQEND
  8
1
  6
CONTINUOUS
  0
LINE
  8
1
  6
CONTINUOUS
 10
60.800299
 20
7.760055
 11
60.800299
 21
7.760055
  0
POLYLINE
  8
1
  6
CONTINUOUS
 66
     1
  0
VERTEX
  8
1
  6
CONTINUOUS
 10
61.069088
 20
7.971472
  0
VERTEX
  8
1
  6
CONTINUOUS
 10
60.570869
 20
8.013641
  0
VERTEX
  8
1
  6
CONTINUOUS
 10
60.531511
 20
7.548637
  0
VERTEX
  8
1
  6
CONTINUOUS
 10
61.029730
 20
7.506468
  0
VERTEX
  8
1
  6
CONTINUOUS
 10
61.069088
 20
7.971472
  0
SEQEND
  8
1
  6
CONTINUOUS
  0
LINE
  8
1
  6
CONTINUOUS
 10
30.930292
 20
10.288480
 11
30.930292
 21
10.288480
  0
POLYLINE
  8
1
  6
CONTINUOUS
 66
     1
  0
VERTEX
  8
1
  6
CONTINUOUS
 10
31.199080
 20
10.499897
  0
VERTEX
  8
1
  6
CONTINUOUS
 10
30.700861
 20
10.542066
  0
VERTEX
  8
1
  6
CONTINUOUS
 10
30.661503
 20
10.077062
  0
VERTEX
  8
1
  6
CONTINUOUS
 10
31.159722
 20
10.034893
  0
VERTEX
  8
1
  6
CONTINUOUS
 10
31.199080
 20
10.499897
  0
SEQEND
  8
1
  6
CONTINUOUS
  0
LINE
  8
1
  6
CONTINUOUS
 10
6.408725
 20
22.833527
 11
6.408725
 21
22.833527
  0
POLYLINE
  8
1
  6
CONTINUOUS
 66
     1
  0
VERTEX
  8
1
  6
CONTINUOUS
 10
6.658236
 20
22.583039
  0
VERTEX
  8
1
  6
CONTINUOUS
 10
6.659213
 20
23.083038
  0
VERTEX
  8
1
  6
CONTINUOUS
 10
6.159214
 20
23.084015
  0
VERTEX
  8
1
  6
CONTINUOUS
 10
6.158237
 20
22.584016
  0
VERTEX
  8
1
  6
CONTINUOUS
 10
6.658236
 20
22.583039
  0
SEQEND
  8
1
  6
CONTINUOUS
  0
LINE
  8
1
  6
CONTINUOUS
 10
6.906455
 20
13.118731
 11
6.906455
 21
13.118731
  0
POLYLINE
  8
1
  6
CONTINUOUS
 66
     1
  0
VERTEX
  8
1
  6
CONTINUOUS
 10
7.139299
 20
12.868276
  0
VERTEX
  8
1
  6
CONTINUOUS
 10
7.140277
 20
13.368275
  0
VERTEX
  8
1
  6
CONTINUOUS
 10
6.673611
 20
13.369187
  0
VERTEX
  8
1
  6
CONTINUOUS
 10
6.672634
 20
12.869188
  0
VERTEX
  8
1
  6
CONTINUOUS
 10
7.139299
 20
12.868276
  0
SEQEND
  8
1
  6
CONTINUOUS
  0
LINE
  8
1
  6
CONTINUOUS
 10
36.392674
 20
48.727884
 11
36.392674
 21
48.727884
  0
POLYLINE
  8
1
  6
CONTINUOUS
 66
     1
  0
VERTEX
  8
1
  6
CONTINUOUS
 10
36.544690
 20
48.547754
  0
VERTEX
  8
1
  6
CONTINUOUS
 10
36.572803
 20
48.879900
  0
VERTEX
  8
1
  6
CONTINUOUS
 10
36.240658
 20
48.908013
  0
VERTEX
  8
1
  6
CONTINUOUS
 10
36.212545
 20
48.575867
  0
VERTEX
  8
1
  6
CONTINUOUS
 10
36.544690
 20
48.547754
  0
SEQEND
  8
1
  6
CONTINUOUS
  0
LINE
  8
1
  6
CONTINUOUS
 10
47.738392
 20
47.769517
 11
47.738392
 21
47.769517
  0
POLYLINE
  8
1
  6
CONTINUOUS
 66
     1
  0
VERTEX
  8
1
  6
CONTINUOUS
 10
47.890409
 20
47.589388
  0
VERTEX
  8
1
  6
CONTINUOUS
 10
47.918522
 20
47.921533
  0
VERTEX
  8
1
  6
CONTINUOUS
 10
47.586376
 20
47.949646
  0
VERTEX
  8
1
  6
CONTINUOUS
 10
47.558263
 20
47.617500
  0
VERTEX
  8
1
  6
CONTINUOUS
 10
47.890409
 20
47.589388
  0
SEQEND
  8
1
  6
CONTINUOUS
  0
LINE
  8
1
  6
CONTINUOUS
 10
59.085279
 20
46.811108
 11
59.085279
 21
46.811108
  0
POLYLINE
  8
1
  6
CONTINUOUS
 66
     1
  0
VERTEX
  8
1
  6
CONTINUOUS
 10
59.237296
 20
46.630978
  0
VERTEX
  8
1
  6
CONTINUOUS
 10
59.265409
 20
46.963124
  0
VERTEX
  8
1
  6
CONTINUOUS
 10
58.933263
 20
46.991237
  0
VERTEX
  8
1
  6
CONTINUOUS
 10
58.905150
 20
46.659091
  0
VERTEX
  8
1
  6
CONTINUOUS
 10
59.237296
 20
46.630978
  0
SEQEND
  8
1
  6
CONTINUOUS
  0
LINE
  8
1
  6
CONTINUOUS
 10
40.531233
 20
9.475741
 11
40.531233
 21
9.475741
  0
POLYLINE
  8
1
  6
CONTINUOUS
 66
     1
  0
VERTEX
  8
1
  6
CONTINUOUS
 10
40.966094
 20
9.673102
  0
VERTEX
  8
1
  6
CONTINUOUS
 10
40.135730
 20
9.743384
  0
VERTEX
  8
1
  6
CONTINUOUS
 10
40.096372
 20
9.278380
  0
VERTEX
  8
1
  6
CONTINUOUS
 10
40.926736
 20
9.208098
  0
VERTEX
  8
1
  6
CONTINUOUS
 10
40.966094
 20
9.673102
  0
SEQEND
  8
1
  6
CONTINUOUS
  0
LINE
  8
4
  6
CONTINUOUS
 10
14.815809
 20
12.974475
 11
14.731470
 21
11.978038
  0
LINE
  8
4
  6
CONTINUOUS
 10
14.631827
 20
11.986472
 11
14.831114
 21
11.969604
  0
LINE
  8
4
  6
CONTINUOUS
 10
14.633513
 20
12.006400
 11
14.832801
 21
11.989533
  0
LINE
  8
4
  6
CONTINUOUS
 10
14.635200
 20
12.026329
 11
14.834488
 21
12.009461
  0
LINE
  8
4
  6
CONTINUOUS
 10
18.252491
 20
53.577864
 11
18.315745
 21
54.325191
  0
LINE
  8
4
  6
CONTINUOUS
 10
18.396217
 20
53.942039
 11
18.172019
 21
53.961016
  0
LINE
  8
4
  6
CONTINUOUS
 10
18.402543
 20
54.016772
 11
18.178345
 21
54.035748
  0
LINE
  8
4
  6
CONTINUOUS
 10
18.408868
 20
54.091505
 11
18.184670
 21
54.110481
  0
LINE
  8
4
  6
CONTINUOUS
 10
18.415194
 20
54.166238
 11
18.190995
 21
54.185214
  0
LINE
  8
4
  6
CONTINUOUS
 10
18.371795
 20
54.320447
 11
18.259696
 21
54.329936
  0
LINE
  8
4
  6
CONTINUOUS
 10
18.371795
 20
54.320447
 11
18.378999
 21
55.072519
  0
LINE
  8
4
  6
CONTINUOUS
 10
18.259696
 20
54.329936
 11
18.378999
 21
55.072519
  0
POLYLINE
  8
4
  6
CONTINUOUS
 66
     1
  0
VERTEX
  8
4
  6
CONTINUOUS
 10
14.815809
 20
12.974475
  0
VERTEX
  8
4
  6
CONTINUOUS
 10
18.252491
 20
53.577864
  0
SEQEND
  8
4
  6
CONTINUOUS
  0
LINE
  8
4
  6
CONTINUOUS
 10
15.147955
 20
12.946362
 11
15.063616
 21
11.949925
  0
LINE
  8
4
  6
CONTINUOUS
 10
14.963972
 20
11.958359
 11
15.163260
 21
11.941491
  0
LINE
  8
4
  6
CONTINUOUS
 10
14.965659
 20
11.978288
 11
15.164947
 21
11.961420
  0
LINE
  8
4
  6
CONTINUOUS
 10
14.967346
 20
11.998216
 11
15.166633
 21
11.981349
  0
LINE
  8
4
  6
CONTINUOUS
 10
18.584637
 20
53.549751
 11
18.647891
 21
54.297079
  0
LINE
  8
4
  6
CONTINUOUS
 10
18.728363
 20
53.913927
 11
18.504165
 21
53.932903
  0
LINE
  8
4
  6
CONTINUOUS
 10
18.734689
 20
53.988659
 11
18.510490
 21
54.007636
  0
LINE
  8
4
  6
CONTINUOUS
 10
18.741014
 20
54.063392
 11
18.516816
 21
54.082368
  0
LINE
  8
4
  6
CONTINUOUS
 10
18.747339
 20
54.138125
 11
18.523141
 21
54.157101
  0
LINE
  8
4
  6
CONTINUOUS
 10
18.703941
 20
54.292335
 11
18.591841
 21
54.301823
  0
LINE
  8
4
  6
CONTINUOUS
 10
18.703941
 20
54.292335
 11
18.711145
 21
55.044406
  0
LINE
  8
4
  6
CONTINUOUS
 10
18.591841
 20
54.301823
 11
18.711145
 21
55.044406
  0
POLYLINE
  8
4
  6
CONTINUOUS
 66
     1
  0
VERTEX
  8
4
  6
CONTINUOUS
 10
15.147955
 20
12.946362
  0
VERTEX
  8
4
  6
CONTINUOUS
 10
18.584637
 20
53.549751
  0
SEQEND
  8
4
  6
CONTINUOUS
  0
LINE
  8
4
  6
CONTINUOUS
 10
15.480101
 20
12.918249
 11
15.395762
 21
11.921812
  0
LINE
  8
4
  6
CONTINUOUS
 10
15.296118
 20
11.930246
 11
15.495406
 21
11.913378
  0
LINE
  8
4
  6
CONTINUOUS
 10
15.297805
 20
11.950175
 11
15.497092
 21
11.933307
  0
LINE
  8
4
  6
CONTINUOUS
 10
15.299492
 20
11.970103
 11
15.498779
 21
11.953236
  0
LINE
  8
4
  6
CONTINUOUS
 10
18.916783
 20
53.521638
 11
18.980037
 21
54.268966
  0
LINE
  8
4
  6
CONTINUOUS
 10
19.060509
 20
53.885814
 11
18.836311
 21
53.904790
  0
LINE
  8
4
  6
CONTINUOUS
 10
19.066834
 20
53.960546
 11
18.842636
 21
53.979523
  0
LINE
  8
4
  6
CONTINUOUS
 10
19.073160
 20
54.035279
 11
18.848961
 21
54.054255
  0
LINE
  8
4
  6
CONTINUOUS
 10
19.079485
 20
54.110012
 11
18.855287
 21
54.128988
  0
LINE
  8
4
  6
CONTINUOUS
 10
19.036086
 20
54.264222
 11
18.923987
 21
54.273710
  0
LINE
  8
4
  6
CONTINUOUS
 10
19.036086
 20
54.264222
 11
19.043291
 21
55.016294
  0
LINE
  8
4
  6
CONTINUOUS
 10
18.923987
 20
54.273710
 11
19.043291
 21
55.016294
  0
POLYLINE
  8
4
  6
CONTINUOUS
 66
     1
  0
VERTEX
  8
4
  6
CONTINUOUS
 10
15.480101
 20
12.918249
  0
VERTEX
  8
4
  6
CONTINUOUS
 10
18.916783
 20
53.521638
  0
SEQEND
  8
4
  6
CONTINUOUS
  0
LINE
  8
4
  6
CONTINUOUS
 10
15.812246
 20
12.890136
 11
15.727908
 21
11.893699
  0
LINE
  8
4
  6
CONTINUOUS
 10
15.628264
 20
11.902133
 11
15.827551
 21
11.885265
  0
LINE
  8
4
  6
CONTINUOUS
 10
15.629951
 20
11.922062
 11
15.829238
 21
11.905194
  0
LINE
  8
4
  6
CONTINUOUS
 10
15.631637
 20
11.941991
 11
15.830925
 21
11.925123
  0
LINE
  8
4
  6
CONTINUOUS
 10
19.248928
 20
53.493525
 11
19.312182
 21
54.240853
  0
LINE
  8
4
  6
CONTINUOUS
 10
19.392655
 20
53.857701
 11
19.168456
 21
53.876677
  0
LINE
  8
4
  6
CONTINUOUS
 10
19.398980
 20
53.932433
 11
19.174782
 21
53.951410
  0
LINE
  8
4
  6
CONTINUOUS
 10
19.405305
 20
54.007166
 11
19.181107
 21
54.026142
  0
LINE
  8
4
  6
CONTINUOUS
 10
19.411631
 20
54.081899
 11
19.187432
 21
54.100875
  0
LINE
  8
4
  6
CONTINUOUS
 10
19.368232
 20
54.236109
 11
19.256133
 21
54.245597
  0
LINE
  8
4
  6
CONTINUOUS
 10
19.368232
 20
54.236109
 11
19.375436
 21
54.988181
  0
LINE
  8
4
  6
CONTINUOUS
 10
19.256133
 20
54.245597
 11
19.375436
 21
54.988181
  0
POLYLINE
  8
4
  6
CONTINUOUS
 66
     1
  0
VERTEX
  8
4
  6
CONTINUOUS
 10
15.812246
 20
12.890136
  0
VERTEX
  8
4
  6
CONTINUOUS
 10
19.248928
 20
53.493525
  0
SEQEND
  8
4
  6
CONTINUOUS
  0
LINE
  8
4
  6
CONTINUOUS
 10
30.366190
 20
11.423022
 11
30.281851
 21
10.426584
  0
LINE
  8
4
  6
CONTINUOUS
 10
30.182208
 20
10.435018
 11
30.381495
 21
10.418151
  0
LINE
  8
4
  6
CONTINUOUS
 10
30.183894
 20
10.454947
 11
30.383182
 21
10.438079
  0
LINE
  8
4
  6
CONTINUOUS
 10
30.185581
 20
10.474876
 11
30.384869
 21
10.458008
  0
LINE
  8
4
  6
CONTINUOUS
 10
33.822644
 20
52.260001
 11
33.885898
 21
53.007329
  0
LINE
  8
4
  6
CONTINUOUS
 10
33.966370
 20
52.624177
 11
33.742172
 21
52.643154
  0
LINE
  8
4
  6
CONTINUOUS
 10
33.972695
 20
52.698910
 11
33.748497
 21
52.717886
  0
LINE
  8
4
  6
CONTINUOUS
 10
33.979021
 20
52.773643
 11
33.754822
 21
52.792619
  0
LINE
  8
4
  6
CONTINUOUS
 10
33.985346
 20
52.848376
 11
33.761148
 21
52.867352
  0
LINE
  8
4
  6
CONTINUOUS
 10
33.941947
 20
53.002585
 11
33.829848
 21
53.012073
  0
LINE
  8
4
  6
CONTINUOUS
 10
33.941947
 20
53.002585
 11
33.949152
 21
53.754657
  0
LINE
  8
4
  6
CONTINUOUS
 10
33.829848
 20
53.012073
 11
33.949152
 21
53.754657
  0
POLYLINE
  8
4
  6
CONTINUOUS
 66
     1
  0
VERTEX
  8
4
  6
CONTINUOUS
 10
30.366190
 20
11.423022
  0
VERTEX
  8
4
  6
CONTINUOUS
 10
33.822644
 20
52.260001
  0
SEQEND
  8
4
  6
CONTINUOUS
  0
LINE
  8
4
  6
CONTINUOUS
 10
30.631907
 20
11.400531
 11
30.547568
 21
10.404094
  0
LINE
  8
4
  6
CONTINUOUS
 10
30.447924
 20
10.412528
 11
30.647212
 21
10.395660
  0
LINE
  8
4
  6
CONTINUOUS
 10
30.449611
 20
10.432457
 11
30.648898
 21
10.415589
  0
LINE
  8
4
  6
CONTINUOUS
 10
30.451298
 20
10.452386
 11
30.650585
 21
10.435518
  0
LINE
  8
4
  6
CONTINUOUS
 10
34.088360
 20
52.237511
 11
34.151614
 21
52.984839
  0
LINE
  8
4
  6
CONTINUOUS
 10
34.232086
 20
52.601687
 11
34.007888
 21
52.620663
  0
LINE
  8
4
  6
CONTINUOUS
 10
34.238412
 20
52.676420
 11
34.014214
 21
52.695396
  0
LINE
  8
4
  6
CONTINUOUS
 10
34.244737
 20
52.751153
 11
34.020539
 21
52.770129
  0
LINE
  8
4
  6
CONTINUOUS
 10
34.251063
 20
52.825885
 11
34.026864
 21
52.844862
  0
LINE
  8
4
  6
CONTINUOUS
 10
34.207664
 20
52.980095
 11
34.095565
 21
52.989583
  0
LINE
  8
4
  6
CONTINUOUS
 10
34.207664
 20
52.980095
 11
34.214868
 21
53.732167
  0
LINE
  8
4
  6
CONTINUOUS
 10
34.095565
 20
52.989583
 11
34.214868
 21
53.732167
  0
POLYLINE
  8
4
  6
CONTINUOUS
 66
     1
  0
VERTEX
  8
4
  6
CONTINUOUS
 10
30.631907
 20
11.400531
  0
VERTEX
  8
4
  6
CONTINUOUS
 10
34.088360
 20
52.237511
  0
SEQEND
  8
4
  6
CONTINUOUS
  0
LINE
  8
4
  6
CONTINUOUS
 10
30.897623
 20
11.378041
 11
30.813284
 21
10.381604
  0
LINE
  8
4
  6
CONTINUOUS
 10
30.713641
 20
10.390038
 11
30.912928
 21
10.373170
  0
LINE
  8
4
  6
CONTINUOUS
 10
30.715328
 20
10.409966
 11
30.914615
 21
10.393099
  0
LINE
  8
4
  6
CONTINUOUS
 10
30.717014
 20
10.429895
 11
30.916302
 21
10.413027
  0
LINE
  8
4
  6
CONTINUOUS
 10
34.354077
 20
52.215021
 11
34.417331
 21
52.962349
  0
LINE
  8
4
  6
CONTINUOUS
 10
34.497803
 20
52.579197
 11
34.273605
 21
52.598173
  0
LINE
  8
4
  6
CONTINUOUS
 10
34.504128
 20
52.653929
 11
34.279930
 21
52.672906
  0
LINE
  8
4
  6
CONTINUOUS
 10
34.510454
 20
52.728662
 11
34.286255
 21
52.747638
  0
LINE
  8
4
  6
CONTINUOUS
 10
34.516779
 20
52.803395
 11
34.292581
 21
52.822371
  0
LINE
  8
4
  6
CONTINUOUS
 10
34.473380
 20
52.957605
 11
34.361281
 21
52.967093
  0
LINE
  8
4
  6
CONTINUOUS
 10
34.473380
 20
52.957605
 11
34.480585
 21
53.709677
  0
LINE
  8
4
  6
CONTINUOUS
 10
34.361281
 20
52.967093
 11
34.480585
 21
53.709677
  0
POLYLINE
  8
4
  6
CONTINUOUS
 66
     1
  0
VERTEX
  8
4
  6
CONTINUOUS
 10
30.897623
 20
11.378041
  0
VERTEX
  8
4
  6
CONTINUOUS
 10
34.354077
 20
52.215021
  0
SEQEND
  8
4
  6
CONTINUOUS
  0
LINE
  8
4
  6
CONTINUOUS
 10
31.163340
 20
11.355551
 11
31.079001
 21
10.359114
  0
LINE
  8
4
  6
CONTINUOUS
 10
30.979357
 20
10.367547
 11
31.178645
 21
10.350680
  0
LINE
  8
4
  6
CONTINUOUS
 10
30.981044
 20
10.387476
 11
31.180332
 21
10.370608
  0
LINE
  8
4
  6
CONTINUOUS
 10
30.982731
 20
10.407405
 11
31.182018
 21
10.390537
  0
LINE
  8
4
  6
CONTINUOUS
 10
34.619793
 20
52.192530
 11
34.683047
 21
52.939858
  0
LINE
  8
4
  6
CONTINUOUS
 10
34.763520
 20
52.556706
 11
34.539321
 21
52.575683
  0
LINE
  8
4
  6
CONTINUOUS
 10
34.769845
 20
52.631439
 11
34.545647
 21
52.650415
  0
LINE
  8
4
  6
CONTINUOUS
 10
34.776170
 20
52.706172
 11
34.551972
 21
52.725148
  0
LINE
  8
4
  6
CONTINUOUS
 10
34.782496
 20
52.780905
 11
34.558297
 21
52.799881
  0
LINE
  8
4
  6
CONTINUOUS
 10
34.739097
 20
52.935114
 11
34.626998
 21
52.944602
  0
LINE
  8
4
  6
CONTINUOUS
 10
34.739097
 20
52.935114
 11
34.746301
 21
53.687186
  0
LINE
  8
4
  6
CONTINUOUS
 10
34.626998
 20
52.944602
 11
34.746301
 21
53.687186
  0
POLYLINE
  8
4
  6
CONTINUOUS
 66
     1
  0
VERTEX
  8
4
  6
CONTINUOUS
 10
31.163340
 20
11.355551
  0
VERTEX
  8
4
  6
CONTINUOUS
 10
34.619793
 20
52.192530
  0
SEQEND
  8
4
  6
CONTINUOUS
  0
LINE
  8
4
  6
CONTINUOUS
 10
31.429056
 20
11.333060
 11
31.344718
 21
10.336623
  0
LINE
  8
4
  6
CONTINUOUS
 10
31.245074
 20
10.345057
 11
31.444361
 21
10.328189
  0
LINE
  8
4
  6
CONTINUOUS
 10
31.246761
 20
10.364986
 11
31.446048
 21
10.348118
  0
LINE
  8
4
  6
CONTINUOUS
 10
31.248447
 20
10.384915
 11
31.447735
 21
10.368047
  0
LINE
  8
4
  6
CONTINUOUS
 10
34.885510
 20
52.170040
 11
34.948764
 21
52.917368
  0
LINE
  8
4
  6
CONTINUOUS
 10
35.029236
 20
52.534216
 11
34.805038
 21
52.553192
  0
LINE
  8
4
  6
CONTINUOUS
 10
35.035562
 20
52.608949
 11
34.811363
 21
52.627925
  0
LINE
  8
4
  6
CONTINUOUS
 10
35.041887
 20
52.683682
 11
34.817689
 21
52.702658
  0
LINE
  8
4
  6
CONTINUOUS
 10
35.048212
 20
52.758414
 11
34.824014
 21
52.777391
  0
LINE
  8
4
  6
CONTINUOUS
 10
35.004814
 20
52.912624
 11
34.892714
 21
52.922112
  0
LINE
  8
4
  6
CONTINUOUS
 10
35.004814
 20
52.912624
 11
35.012018
 21
53.664696
  0
LINE
  8
4
  6
CONTINUOUS
 10
34.892714
 20
52.922112
 11
35.012018
 21
53.664696
  0
POLYLINE
  8
4
  6
CONTINUOUS
 66
     1
  0
VERTEX
  8
4
  6
CONTINUOUS
 10
31.429056
 20
11.333060
  0
VERTEX
  8
4
  6
CONTINUOUS
 10
34.885510
 20
52.170040
  0
SEQEND
  8
4
  6
CONTINUOUS
  0
LINE
  8
4
  6
CONTINUOUS
 10
43.773341
 20
10.288735
 11
43.689003
 21
9.292298
  0
LINE
  8
4
  6
CONTINUOUS
 10
43.589359
 20
9.300732
 11
43.788646
 21
9.283864
  0
LINE
  8
4
  6
CONTINUOUS
 10
43.591046
 20
9.320661
 11
43.790333
 21
9.303793
  0
LINE
  8
4
  6
CONTINUOUS
 10
43.592733
 20
9.340589
 11
43.792020
 21
9.323722
  0
LINE
  8
4
  6
CONTINUOUS
 10
46.951358
 20
47.836110
 11
47.014612
 21
48.583438
  0
LINE
  8
4
  6
CONTINUOUS
 10
47.095084
 20
48.200286
 11
46.870886
 21
48.219262
  0
LINE
  8
4
  6
CONTINUOUS
 10
47.101409
 20
48.275019
 11
46.877211
 21
48.293995
  0
LINE
  8
4
  6
CONTINUOUS
 10
47.107735
 20
48.349751
 11
46.883536
 21
48.368728
  0
LINE
  8
4
  6
CONTINUOUS
 10
47.114060
 20
48.424484
 11
46.889862
 21
48.443460
  0
LINE
  8
4
  6
CONTINUOUS
 10
47.070661
 20
48.578694
 11
46.958562
 21
48.588182
  0
LINE
  8
4
  6
CONTINUOUS
 10
47.070661
 20
48.578694
 11
47.077866
 21
49.330766
  0
LINE
  8
4
  6
CONTINUOUS
 10
46.958562
 20
48.588182
 11
47.077866
 21
49.330766
  0
POLYLINE
  8
4
  6
CONTINUOUS
 66
     1
  0
VERTEX
  8
4
  6
CONTINUOUS
 10
43.773341
 20
10.288735
  0
VERTEX
  8
4
  6
CONTINUOUS
 10
46.951358
 20
47.836110
  0
SEQEND
  8
4
  6
CONTINUOUS
  0
LINE
  8
4
  6
CONTINUOUS
 10
44.105487
 20
10.260622
 11
44.021148
 21
9.264185
  0
LINE
  8
4
  6
CONTINUOUS
 10
43.921505
 20
9.272619
 11
44.120792
 21
9.255751
  0
LINE
  8
4
  6
CONTINUOUS
 10
43.923191
 20
9.292548
 11
44.122479
 21
9.275680
  0
LINE
  8
4
  6
CONTINUOUS
 10
43.924878
 20
9.312477
 11
44.124166
 21
9.295609
  0
LINE
  8
4
  6
CONTINUOUS
 10
47.283504
 20
47.807997
 11
47.346758
 21
48.555325
  0
LINE
  8
4
  6
CONTINUOUS
 10
47.427230
 20
48.172173
 11
47.203031
 21
48.191149
  0
LINE
  8
4
  6
CONTINUOUS
 10
47.433555
 20
48.246906
 11
47.209357
 21
48.265882
  0
LINE
  8
4
  6
CONTINUOUS
 10
47.439881
 20
48.321638
 11
47.215682
 21
48.340615
  0
LINE
  8
4
  6
CONTINUOUS
 10
47.446206
 20
48.396371
 11
47.222008
 21
48.415347
  0
LINE
  8
4
  6
CONTINUOUS
 10
47.402807
 20
48.550581
 11
47.290708
 21
48.560069
  0
LINE
  8
4
  6
CONTINUOUS
 10
47.402807
 20
48.550581
 11
47.410011
 21
49.302653
  0
LINE
  8
4
  6
CONTINUOUS
 10
47.290708
 20
48.560069
 11
47.410011
 21
49.302653
  0
POLYLINE
  8
4
  6
CONTINUOUS
 66
     1
  0
VERTEX
  8
4
  6
CONTINUOUS
 10
44.105487
 20
10.260622
  0
VERTEX
  8
4
  6
CONTINUOUS
 10
47.283504
 20
47.807997
  0
SEQEND
  8
4
  6
CONTINUOUS
  0
LINE
  8
4
  6
CONTINUOUS
 10
44.437633
 20
10.232509
 11
44.353294
 21
9.236072
  0
LINE
  8
4
  6
CONTINUOUS
 10
44.253650
 20
9.244506
 11
44.452938
 21
9.227638
  0
LINE
  8
4
  6
CONTINUOUS
 10
44.255337
 20
9.264435
 11
44.454625
 21
9.247567
  0
LINE
  8
4
  6
CONTINUOUS
 10
44.257024
 20
9.284364
 11
44.456311
 21
9.267496
  0
LINE
  8
4
  6
CONTINUOUS
 10
47.615649
 20
47.779884
 11
47.678903
 21
48.527212
  0
LINE
  8
4
  6
CONTINUOUS
 10
47.759375
 20
48.144060
 11
47.535177
 21
48.163036
  0
LINE
  8
4
  6
CONTINUOUS
 10
47.765701
 20
48.218793
 11
47.541502
 21
48.237769
  0
LINE
  8
4
  6
CONTINUOUS
 10
47.772026
 20
48.293526
 11
47.547828
 21
48.312502
  0
LINE
  8
4
  6
CONTINUOUS
 10
47.778352
 20
48.368258
 11
47.554153
 21
48.387235
  0
LINE
  8
4
  6
CONTINUOUS
 10
47.734953
 20
48.522468
 11
47.622854
 21
48.531956
  0
LINE
  8
4
  6
CONTINUOUS
 10
47.734953
 20
48.522468
 11
47.742157
 21
49.274540
  0
LINE
  8
4
  6
CONTINUOUS
 10
47.622854
 20
48.531956
 11
47.742157
 21
49.274540
  0
POLYLINE
  8
4
  6
CONTINUOUS
 66
     1
  0
VERTEX
  8
4
  6
CONTINUOUS
 10
44.437633
 20
10.232509
  0
VERTEX
  8
4
  6
CONTINUOUS
 10
47.615649
 20
47.779884
  0
SEQEND
  8
4
  6
CONTINUOUS
  0
LINE
  8
4
  6
CONTINUOUS
 10
44.769778
 20
10.204397
 11
44.685440
 21
9.207959
  0
LINE
  8
4
  6
CONTINUOUS
 10
44.585796
 20
9.216393
 11
44.785084
 21
9.199526
  0
LINE
  8
4
  6
CONTINUOUS
 10
44.587483
 20
9.236322
 11
44.786770
 21
9.219454
  0
LINE
  8
4
  6
CONTINUOUS
 10
44.589170
 20
9.256251
 11
44.788457
 21
9.239383
  0
LINE
  8
4
  6
CONTINUOUS
 10
47.947795
 20
47.751771
 11
48.011049
 21
48.499099
  0
LINE
  8
4
  6
CONTINUOUS
 10
48.091521
 20
48.115947
 11
47.867323
 21
48.134923
  0
LINE
  8
4
  6
CONTINUOUS
 10
48.097847
 20
48.190680
 11
47.873648
 21
48.209656
  0
LINE
  8
4
  6
CONTINUOUS
 10
48.104172
 20
48.265413
 11
47.879974
 21
48.284389
  0
LINE
  8
4
  6
CONTINUOUS
 10
48.110497
 20
48.340145
 11
47.886299
 21
48.359122
  0
LINE
  8
4
  6
CONTINUOUS
 10
48.067099
 20
48.494355
 11
47.954999
 21
48.503843
  0
LINE
  8
4
  6
CONTINUOUS
 10
48.067099
 20
48.494355
 11
48.074303
 21
49.246427
  0
LINE
  8
4
  6
CONTINUOUS
 10
47.954999
 20
48.503843
 11
48.074303
 21
49.246427
  0
POLYLINE
  8
4
  6
CONTINUOUS
 66
     1
  0
VERTEX
  8
4
  6
CONTINUOUS
 10
44.769778
 20
10.204397
  0
VERTEX
  8
4
  6
CONTINUOUS
 10
47.947795
 20
47.751771
  0
SEQEND
  8
4
  6
CONTINUOUS
  0
LINE
  8
4
  6
CONTINUOUS
 10
60.347291
 20
8.885604
 11
60.262952
 21
7.889167
  0
LINE
  8
4
  6
CONTINUOUS
 10
60.163309
 20
7.897601
 11
60.362596
 21
7.880733
  0
LINE
  8
4
  6
CONTINUOUS
 10
60.164995
 20
7.917530
 11
60.364283
 21
7.900662
  0
LINE
  8
4
  6
CONTINUOUS
 10
60.166682
 20
7.937459
 11
60.365970
 21
7.920591
  0
LINE
  8
4
  6
CONTINUOUS
 10
63.803728
 20
49.722394
 11
63.866982
 21
50.469722
  0
LINE
  8
4
  6
CONTINUOUS
 10
63.947454
 20
50.086570
 11
63.723256
 21
50.105546
  0
LINE
  8
4
  6
CONTINUOUS
 10
63.953780
 20
50.161303
 11
63.729581
 21
50.180279
  0
LINE
  8
4
  6
CONTINUOUS
 10
63.960105
 20
50.236035
 11
63.735907
 21
50.255012
  0
LINE
  8
4
  6
CONTINUOUS
 10
63.966430
 20
50.310768
 11
63.742232
 21
50.329744
  0
LINE
  8
4
  6
CONTINUOUS
 10
63.923032
 20
50.464978
 11
63.810932
 21
50.474466
  0
LINE
  8
4
  6
CONTINUOUS
 10
63.923032
 20
50.464978
 11
63.930236
 21
51.217050
  0
LINE
  8
4
  6
CONTINUOUS
 10
63.810932
 20
50.474466
 11
63.930236
 21
51.217050
  0
POLYLINE
  8
4
  6
CONTINUOUS
 66
     1
  0
VERTEX
  8
4
  6
CONTINUOUS
 10
60.347291
 20
8.885604
  0
VERTEX
  8
4
  6
CONTINUOUS
 10
63.803728
 20
49.722394
  0
SEQEND
  8
4
  6
CONTINUOUS
  0
LINE
  8
4
  6
CONTINUOUS
 10
60.613008
 20
8.863114
 11
60.528669
 21
7.866677
  0
LINE
  8
4
  6
CONTINUOUS
 10
60.429025
 20
7.875111
 11
60.628313
 21
7.858243
  0
LINE
  8
4
  6
CONTINUOUS
 10
60.430712
 20
7.895040
 11
60.629999
 21
7.878172
  0
LINE
  8
4
  6
CONTINUOUS
 10
60.432399
 20
7.914968
 11
60.631686
 21
7.898101
  0
LINE
  8
4
  6
CONTINUOUS
 10
64.069445
 20
49.699904
 11
64.132699
 21
50.447231
  0
LINE
  8
4
  6
CONTINUOUS
 10
64.213171
 20
50.064079
 11
63.988972
 21
50.083056
  0
LINE
  8
4
  6
CONTINUOUS
 10
64.219496
 20
50.138812
 11
63.995298
 21
50.157788
  0
LINE
  8
4
  6
CONTINUOUS
 10
64.225822
 20
50.213545
 11
64.001623
 21
50.232521
  0
LINE
  8
4
  6
CONTINUOUS
 10
64.232147
 20
50.288278
 11
64.007949
 21
50.307254
  0
LINE
  8
4
  6
CONTINUOUS
 10
64.188748
 20
50.442487
 11
64.076649
 21
50.451976
  0
LINE
  8
4
  6
CONTINUOUS
 10
64.188748
 20
50.442487
 11
64.195953
 21
51.194559
  0
LINE
  8
4
  6
CONTINUOUS
 10
64.076649
 20
50.451976
 11
64.195953
 21
51.194559
  0
POLYLINE
  8
4
  6
CONTINUOUS
 66
     1
  0
VERTEX
  8
4
  6
CONTINUOUS
 10
60.613008
 20
8.863114
  0
VERTEX
  8
4
  6
CONTINUOUS
 10
64.069445
 20
49.699904
  0
SEQEND
  8
4
  6
CONTINUOUS
  0
LINE
  8
4
  6
CONTINUOUS
 10
60.878724
 20
8.840624
 11
60.794385
 21
7.844187
  0
LINE
  8
4
  6
CONTINUOUS
 10
60.694742
 20
7.852620
 11
60.894029
 21
7.835753
  0
LINE
  8
4
  6
CONTINUOUS
 10
60.696428
 20
7.872549
 11
60.895716
 21
7.855681
  0
LINE
  8
4
  6
CONTINUOUS
 10
60.698115
 20
7.892478
 11
60.897403
 21
7.875610
  0
LINE
  8
4
  6
CONTINUOUS
 10
64.335161
 20
49.677413
 11
64.398415
 21
50.424741
  0
LINE
  8
4
  6
CONTINUOUS
 10
64.478887
 20
50.041589
 11
64.254689
 21
50.060565
  0
LINE
  8
4
  6
CONTINUOUS
 10
64.485213
 20
50.116322
 11
64.261014
 21
50.135298
  0
LINE
  8
4
  6
CONTINUOUS
 10
64.491538
 20
50.191055
 11
64.267340
 21
50.210031
  0
LINE
  8
4
  6
CONTINUOUS
 10
64.497864
 20
50.265787
 11
64.273665
 21
50.284764
  0
LINE
  8
4
  6
CONTINUOUS
 10
64.454465
 20
50.419997
 11
64.342366
 21
50.429485
  0
LINE
  8
4
  6
CONTINUOUS
 10
64.454465
 20
50.419997
 11
64.461669
 21
51.172069
  0
LINE
  8
4
  6
CONTINUOUS
 10
64.342366
 20
50.429485
 11
64.461669
 21
51.172069
  0
POLYLINE
  8
4
  6
CONTINUOUS
 66
     1
  0
VERTEX
  8
4
  6
CONTINUOUS
 10
60.878724
 20
8.840624
  0
VERTEX
  8
4
  6
CONTINUOUS
 10
64.335161
 20
49.677413
  0
SEQEND
  8
4
  6
CONTINUOUS
  0
LINE
  8
4
  6
CONTINUOUS
 10
61.144441
 20
8.818133
 11
61.060102
 21
7.821696
  0
LINE
  8
4
  6
CONTINUOUS
 10
60.960458
 20
7.830130
 11
61.159746
 21
7.813262
  0
LINE
  8
4
  6
CONTINUOUS
 10
60.962145
 20
7.850059
 11
61.161432
 21
7.833191
  0
LINE
  8
4
  6
CONTINUOUS
 10
60.963832
 20
7.869988
 11
61.163119
 21
7.853120
  0
LINE
  8
4
  6
CONTINUOUS
 10
64.600878
 20
49.654923
 11
64.664132
 21
50.402251
  0
LINE
  8
4
  6
CONTINUOUS
 10
64.744604
 20
50.019099
 11
64.520406
 21
50.038075
  0
LINE
  8
4
  6
CONTINUOUS
 10
64.750929
 20
50.093832
 11
64.526731
 21
50.112808
  0
LINE
  8
4
  6
CONTINUOUS
 10
64.757255
 20
50.168564
 11
64.533056
 21
50.187541
  0
LINE
  8
4
  6
CONTINUOUS
 10
64.763580
 20
50.243297
 11
64.539382
 21
50.262273
  0
LINE
  8
4
  6
CONTINUOUS
 10
64.720181
 20
50.397507
 11
64.608082
 21
50.406995
  0
LINE
  8
4
  6
CONTINUOUS
 10
64.720181
 20
50.397507
 11
64.727386
 21
51.149579
  0
LINE
  8
4
  6
CONTINUOUS
 10
64.608082
 20
50.406995
 11
64.727386
 21
51.149579
  0
POLYLINE
  8
4
  6
CONTINUOUS
 66
     1
  0
VERTEX
  8
4
  6
CONTINUOUS
 10
61.144441
 20
8.818133
  0
VERTEX
  8
4
  6
CONTINUOUS
 10
64.600878
 20
49.654923
  0
SEQEND
  8
4
  6
CONTINUOUS
  0
LINE
  8
4
  6
CONTINUOUS
 10
61.410157
 20
8.795643
 11
61.325819
 21
7.799206
  0
LINE
  8
4
  6
CONTINUOUS
 10
61.226175
 20
7.807640
 11
61.425462
 21
7.790772
  0
LINE
  8
4
  6
CONTINUOUS
 10
61.227862
 20
7.827569
 11
61.427149
 21
7.810701
  0
LINE
  8
4
  6
CONTINUOUS
 10
61.229548
 20
7.847497
 11
61.428836
 21
7.830630
  0
LINE
  8
4
  6
CONTINUOUS
 10
64.866594
 20
49.632433
 11
64.929848
 21
50.379760
  0
LINE
  8
4
  6
CONTINUOUS
 10
65.010320
 20
49.996608
 11
64.786122
 21
50.015585
  0
LINE
  8
4
  6
CONTINUOUS
 10
65.016646
 20
50.071341
 11
64.792448
 21
50.090317
  0
LINE
  8
4
  6
CONTINUOUS
 10
65.022971
 20
50.146074
 11
64.798773
 21
50.165050
  0
LINE
  8
4
  6
CONTINUOUS
 10
65.029297
 20
50.220807
 11
64.805098
 21
50.239783
  0
LINE
  8
4
  6
CONTINUOUS
 10
64.985898
 20
50.375016
 11
64.873799
 21
50.384505
  0
LINE
  8
4
  6
CONTINUOUS
 10
64.985898
 20
50.375016
 11
64.993102
 21
51.127088
  0
LINE
  8
4
  6
CONTINUOUS
 10
64.873799
 20
50.384505
 11
64.993102
 21
51.127088
  0
POLYLINE
  8
4
  6
CONTINUOUS
 66
     1
  0
VERTEX
  8
4
  6
CONTINUOUS
 10
61.410157
 20
8.795643
  0
VERTEX
  8
4
  6
CONTINUOUS
 10
64.866594
 20
49.632433
  0
SEQEND
  8
4
  6
CONTINUOUS
  0
LINE
  8
4
  6
CONTINUOUS
 10
76.744848
 20
6.979196
 11
76.660510
 21
5.982759
  0
LINE
  8
4
  6
CONTINUOUS
 10
76.560866
 20
5.991193
 11
76.760153
 21
5.974325
  0
LINE
  8
4
  6
CONTINUOUS
 10
76.562553
 20
6.011122
 11
76.761840
 21
5.994254
  0
LINE
  8
4
  6
CONTINUOUS
 10
76.564240
 20
6.031051
 11
76.763527
 21
6.014183
  0
LINE
  8
4
  6
CONTINUOUS
 10
80.244861
 20
48.330812
 11
80.308115
 21
49.078140
  0
LINE
  8
4
  6
CONTINUOUS
 10
80.388587
 20
48.694988
 11
80.164389
 21
48.713964
  0
LINE
  8
4
  6
CONTINUOUS
 10
80.394913
 20
48.769720
 11
80.170714
 21
48.788697
  0
LINE
  8
4
  6
CONTINUOUS
 10
80.401238
 20
48.844453
 11
80.177040
 21
48.863429
  0
LINE
  8
4
  6
CONTINUOUS
 10
80.407563
 20
48.919186
 11
80.183365
 21
48.938162
  0
LINE
  8
4
  6
CONTINUOUS
 10
80.364165
 20
49.073396
 11
80.252065
 21
49.082884
  0
LINE
  8
4
  6
CONTINUOUS
 10
80.364165
 20
49.073396
 11
80.371369
 21
49.825467
  0
LINE
  8
4
  6
CONTINUOUS
 10
80.252065
 20
49.082884
 11
80.371369
 21
49.825467
  0
POLYLINE
  8
4
  6
CONTINUOUS
 66
     1
  0
VERTEX
  8
4
  6
CONTINUOUS
 10
76.744848
 20
6.979196
  0
VERTEX
  8
4
  6
CONTINUOUS
 10
80.244861
 20
48.330812
  0
SEQEND
  8
4
  6
CONTINUOUS
  0
LINE
  8
4
  6
CONTINUOUS
 10
77.010565
 20
6.956706
 11
76.926226
 21
5.960269
  0
LINE
  8
4
  6
CONTINUOUS
 10
76.826583
 20
5.968703
 11
77.025870
 21
5.951835
  0
LINE
  8
4
  6
CONTINUOUS
 10
76.828269
 20
5.988632
 11
77.027557
 21
5.971764
  0
LINE
  8
4
  6
CONTINUOUS
 10
76.829956
 20
6.008560
 11
77.029244
 21
5.991693
  0
LINE
  8
4
  6
CONTINUOUS
 10
80.510578
 20
48.308321
 11
80.573832
 21
49.055649
  0
LINE
  8
4
  6
CONTINUOUS
 10
80.654304
 20
48.672497
 11
80.430105
 21
48.691473
  0
LINE
  8
4
  6
CONTINUOUS
 10
80.660629
 20
48.747230
 11
80.436431
 21
48.766206
  0
LINE
  8
4
  6
CONTINUOUS
 10
80.666955
 20
48.821963
 11
80.442756
 21
48.840939
  0
LINE
  8
4
  6
CONTINUOUS
 10
80.673280
 20
48.896696
 11
80.449082
 21
48.915672
  0
LINE
  8
4
  6
CONTINUOUS
 10
80.629881
 20
49.050905
 11
80.517782
 21
49.060393
  0
LINE
  8
4
  6
CONTINUOUS
 10
80.629881
 20
49.050905
 11
80.637086
 21
49.802977
  0
LINE
  8
4
  6
CONTINUOUS
 10
80.517782
 20
49.060393
 11
80.637086
 21
49.802977
  0
POLYLINE
  8
4
  6
CONTINUOUS
 66
     1
  0
VERTEX
  8
4
  6
CONTINUOUS
 10
77.010565
 20
6.956706
  0
VERTEX
  8
4
  6
CONTINUOUS
 10
80.510578
 20
48.308321
  0
SEQEND
  8
4
  6
CONTINUOUS
  0
LINE
  8
4
  6
CONTINUOUS
 10
77.276282
 20
6.934216
 11
77.191943
 21
5.937779
  0
LINE
  8
4
  6
CONTINUOUS
 10
77.092299
 20
5.946212
 11
77.291587
 21
5.929345
  0
LINE
  8
4
  6
CONTINUOUS
 10
77.093986
 20
5.966141
 11
77.293273
 21
5.949273
  0
LINE
  8
4
  6
CONTINUOUS
 10
77.095673
 20
5.986070
 11
77.294960
 21
5.969202
  0
LINE
  8
4
  6
CONTINUOUS
 10
80.776294
 20
48.285831
 11
80.839548
 21
49.033159
  0
LINE
  8
4
  6
CONTINUOUS
 10
80.920020
 20
48.650007
 11
80.695822
 21
48.668983
  0
LINE
  8
4
  6
CONTINUOUS
 10
80.926346
 20
48.724740
 11
80.702147
 21
48.743716
  0
LINE
  8
4
  6
CONTINUOUS
 10
80.932671
 20
48.799472
 11
80.708473
 21
48.818449
  0
LINE
  8
4
  6
CONTINUOUS
 10
80.938997
 20
48.874205
 11
80.714798
 21
48.893181
  0
LINE
  8
4
  6
CONTINUOUS
 10
80.895598
 20
49.028415
 11
80.783499
 21
49.037903
  0
LINE
  8
4
  6
CONTINUOUS
 10
80.895598
 20
49.028415
 11
80.902802
 21
49.780487
  0
LINE
  8
4
  6
CONTINUOUS
 10
80.783499
 20
49.037903
 11
80.902802
 21
49.780487
  0
POLYLINE
  8
4
  6
CONTINUOUS
 66
     1
  0
VERTEX
  8
4
  6
CONTINUOUS
 10
77.276282
 20
6.934216
  0
VERTEX
  8
4
  6
CONTINUOUS
 10
80.776294
 20
48.285831
  0
SEQEND
  8
4
  6
CONTINUOUS
  0
LINE
  8
4
  6
CONTINUOUS
 10
77.541998
 20
6.911725
 11
77.457659
 21
5.915288
  0
LINE
  8
4
  6
CONTINUOUS
 10
77.358016
 20
5.923722
 11
77.557303
 21
5.906854
  0
LINE
  8
4
  6
CONTINUOUS
 10
77.359703
 20
5.943651
 11
77.558990
 21
5.926783
  0
LINE
  8
4
  6
CONTINUOUS
 10
77.361389
 20
5.963580
 11
77.560677
 21
5.946712
  0
LINE
  8
4
  6
CONTINUOUS
 10
81.042011
 20
48.263341
 11
81.105265
 21
49.010669
  0
LINE
  8
4
  6
CONTINUOUS
 10
81.185737
 20
48.627517
 11
80.961539
 21
48.646493
  0
LINE
  8
4
  6
CONTINUOUS
 10
81.192062
 20
48.702249
 11
80.967864
 21
48.721226
  0
LINE
  8
4
  6
CONTINUOUS
 10
81.198388
 20
48.776982
 11
80.974189
 21
48.795958
  0
LINE
  8
4
  6
CONTINUOUS
 10
81.204713
 20
48.851715
 11
80.980515
 21
48.870691
  0
LINE
  8
4
  6
CONTINUOUS
 10
81.161314
 20
49.005925
 11
81.049215
 21
49.015413
  0
LINE
  8
4
  6
CONTINUOUS
 10
81.161314
 20
49.005925
 11
81.168519
 21
49.757996
  0
LINE
  8
4
  6
CONTINUOUS
 10
81.049215
 20
49.015413
 11
81.168519
 21
49.757996
  0
POLYLINE
  8
4
  6
CONTINUOUS
 66
     1
  0
VERTEX
  8
4
  6
CONTINUOUS
 10
77.541998
 20
6.911725
  0
VERTEX
  8
4
  6
CONTINUOUS
 10
81.042011
 20
48.263341
  0
SEQEND
  8
4
  6
CONTINUOUS
  0
LINE
  8
4
  6
CONTINUOUS
 10
77.807715
 20
6.889235
 11
77.723376
 21
5.892798
  0
LINE
  8
4
  6
CONTINUOUS
 10
77.623732
 20
5.901232
 11
77.823020
 21
5.884364
  0
LINE
  8
4
  6
CONTINUOUS
 10
77.625419
 20
5.921161
 11
77.824707
 21
5.904293
  0
LINE
  8
4
  6
CONTINUOUS
 10
77.627106
 20
5.941089
 11
77.826393
 21
5.924222
  0
LINE
  8
4
  6
CONTINUOUS
 10
81.307727
 20
48.240850
 11
81.370981
 21
48.988178
  0
LINE
  8
4
  6
CONTINUOUS
 10
81.451453
 20
48.605026
 11
81.227255
 21
48.624002
  0
LINE
  8
4
  6
CONTINUOUS
 10
81.457779
 20
48.679759
 11
81.233581
 21
48.698735
  0
LINE
  8
4
  6
CONTINUOUS
 10
81.464104
 20
48.754492
 11
81.239906
 21
48.773468
  0
LINE
  8
4
  6
CONTINUOUS
 10
81.470430
 20
48.829225
 11
81.246231
 21
48.848201
  0
LINE
  8
4
  6
CONTINUOUS
 10
81.427031
 20
48.983434
 11
81.314932
 21
48.992922
  0
LINE
  8
4
  6
CONTINUOUS
 10
81.427031
 20
48.983434
 11
81.434235
 21
49.735506
  0
LINE
  8
4
  6
CONTINUOUS
 10
81.314932
 20
48.992922
 11
81.434235
 21
49.735506
  0
POLYLINE
  8
4
  6
CONTINUOUS
 66
     1
  0
VERTEX
  8
4
  6
CONTINUOUS
 10
77.807715
 20
6.889235
  0
VERTEX
  8
4
  6
CONTINUOUS
 10
81.307727
 20
48.240850
  0
SEQEND
  8
4
  6
CONTINUOUS
  0
LINE
  8
4
  6
CONTINUOUS
 10
93.866955
 20
5.529976
 11
93.782616
 21
4.533539
  0
LINE
  8
4
  6
CONTINUOUS
 10
93.682973
 20
4.541973
 11
93.882260
 21
4.525105
  0
LINE
  8
4
  6
CONTINUOUS
 10
93.684659
 20
4.561902
 11
93.883947
 21
4.545034
  0
LINE
  8
4
  6
CONTINUOUS
 10
93.686346
 20
4.581831
 11
93.885634
 21
4.564963
  0
LINE
  8
4
  6
CONTINUOUS
 10
97.366967
 20
46.881592
 11
97.430222
 21
47.628920
  0
LINE
  8
4
  6
CONTINUOUS
 10
97.510694
 20
47.245768
 11
97.286495
 21
47.264744
  0
LINE
  8
4
  6
CONTINUOUS
 10
97.517019
 20
47.320500
 11
97.292821
 21
47.339477
  0
LINE
  8
4
  6
CONTINUOUS
 10
97.523345
 20
47.395233
 11
97.299146
 21
47.414209
  0
LINE
  8
4
  6
CONTINUOUS
 10
97.529670
 20
47.469966
 11
97.305472
 21
47.488942
  0
LINE
  8
4
  6
CONTINUOUS
 10
97.486271
 20
47.624176
 11
97.374172
 21
47.633664
  0
LINE
  8
4
  6
CONTINUOUS
 10
97.486271
 20
47.624176
 11
97.493476
 21
48.376247
  0
LINE
  8
4
  6
CONTINUOUS
 10
97.374172
 20
47.633664
 11
97.493476
 21
48.376247
  0
POLYLINE
  8
4
  6
CONTINUOUS
 66
     1
  0
VERTEX
  8
4
  6
CONTINUOUS
 10
93.866955
 20
5.529976
  0
VERTEX
  8
4
  6
CONTINUOUS
 10
97.366967
 20
46.881592
  0
SEQEND
  8
4
  6
CONTINUOUS
  0
LINE
  8
4
  6
CONTINUOUS
 10
94.298744
 20
5.493430
 11
94.214406
 21
4.496993
  0
LINE
  8
4
  6
CONTINUOUS
 10
94.114762
 20
4.505426
 11
94.314049
 21
4.488559
  0
LINE
  8
4
  6
CONTINUOUS
 10
94.116449
 20
4.525355
 11
94.315736
 21
4.508487
  0
LINE
  8
4
  6
CONTINUOUS
 10
94.118136
 20
4.545284
 11
94.317423
 21
4.528416
  0
LINE
  8
4
  6
CONTINUOUS
 10
97.798757
 20
46.845045
 11
97.862011
 21
47.592373
  0
LINE
  8
4
  6
CONTINUOUS
 10
97.942483
 20
47.209221
 11
97.718285
 21
47.228197
  0
LINE
  8
4
  6
CONTINUOUS
 10
97.948809
 20
47.283954
 11
97.724610
 21
47.302930
  0
LINE
  8
4
  6
CONTINUOUS
 10
97.955134
 20
47.358686
 11
97.730936
 21
47.377663
  0
LINE
  8
4
  6
CONTINUOUS
 10
97.961459
 20
47.433419
 11
97.737261
 21
47.452395
  0
LINE
  8
4
  6
CONTINUOUS
 10
97.918061
 20
47.587629
 11
97.805961
 21
47.597117
  0
LINE
  8
4
  6
CONTINUOUS
 10
97.918061
 20
47.587629
 11
97.925265
 21
48.339701
  0
LINE
  8
4
  6
CONTINUOUS
 10
97.805961
 20
47.597117
 11
97.925265
 21
48.339701
  0
POLYLINE
  8
4
  6
CONTINUOUS
 66
     1
  0
VERTEX
  8
4
  6
CONTINUOUS
 10
94.298744
 20
5.493430
  0
VERTEX
  8
4
  6
CONTINUOUS
 10
97.798757
 20
46.845045
  0
SEQEND
  8
4
  6
CONTINUOUS
  0
LINE
  8
4
  6
CONTINUOUS
 10
94.730534
 20
5.456883
 11
94.646195
 21
4.460446
  0
LINE
  8
4
  6
CONTINUOUS
 10
94.546551
 20
4.468880
 11
94.745839
 21
4.452012
  0
LINE
  8
4
  6
CONTINUOUS
 10
94.548238
 20
4.488808
 11
94.747526
 21
4.471941
  0
LINE
  8
4
  6
CONTINUOUS
 10
94.549925
 20
4.508737
 11
94.749212
 21
4.491869
  0
LINE
  8
4
  6
CONTINUOUS
 10
98.230546
 20
46.808498
 11
98.293800
 21
47.555826
  0
LINE
  8
4
  6
CONTINUOUS
 10
98.374273
 20
47.172674
 11
98.150074
 21
47.191650
  0
LINE
  8
4
  6
CONTINUOUS
 10
98.380598
 20
47.247407
 11
98.156400
 21
47.266383
  0
LINE
  8
4
  6
CONTINUOUS
 10
98.386923
 20
47.322140
 11
98.162725
 21
47.341116
  0
LINE
  8
4
  6
CONTINUOUS
 10
98.393249
 20
47.396872
 11
98.169050
 21
47.415849
  0
LINE
  8
4
  6
CONTINUOUS
 10
98.349850
 20
47.551082
 11
98.237751
 21
47.560570
  0
LINE
  8
4
  6
CONTINUOUS
 10
98.349850
 20
47.551082
 11
98.357054
 21
48.303154
  0
LINE
  8
4
  6
CONTINUOUS
 10
98.237751
 20
47.560570
 11
98.357054
 21
48.303154
  0
POLYLINE
  8
4
  6
CONTINUOUS
 66
     1
  0
VERTEX
  8
4
  6
CONTINUOUS
 10
94.730534
 20
5.456883
  0
VERTEX
  8
4
  6
CONTINUOUS
 10
98.230546
 20
46.808498
  0
SEQEND
  8
4
  6
CONTINUOUS
  0
LINE
  8
4
  6
CONTINUOUS
 10
7.473687
 20
13.386553
 11
7.471699
 21
12.386555
  0
LINE
  8
4
  6
CONTINUOUS
 10
7.371700
 20
12.386753
 11
7.571699
 21
12.386356
  0
LINE
  8
4
  6
CONTINUOUS
 10
7.371739
 20
12.406753
 11
7.571739
 21
12.406356
  0
LINE
  8
4
  6
CONTINUOUS
 10
7.371779
 20
12.426753
 11
7.571779
 21
12.426356
  0
LINE
  8
4
  6
CONTINUOUS
 10
7.555327
 20
54.461152
 11
7.556818
 21
55.211150
  0
LINE
  8
4
  6
CONTINUOUS
 10
7.613068
 20
55.211038
 11
7.500568
 21
55.211262
  0
LINE
  8
4
  6
CONTINUOUS
 10
7.613068
 20
55.211038
 11
7.558309
 21
55.961149
  0
LINE
  8
4
  6
CONTINUOUS
 10
7.500568
 20
55.211262
 11
7.558309
 21
55.961149
  0
LINE
  8
4
  6
CONTINUOUS
 10
7.669020
 20
55.060927
 11
7.444020
 21
55.061374
  0
LINE
  8
4
  6
CONTINUOUS
 10
7.668834
 20
54.967177
 11
7.443834
 21
54.967624
  0
LINE
  8
4
  6
CONTINUOUS
 10
7.668647
 20
54.873427
 11
7.443648
 21
54.873874
  0
POLYLINE
  8
4
  6
CONTINUOUS
 66
     1
  0
VERTEX
  8
4
  6
CONTINUOUS
 10
7.473687
 20
13.386553
  0
VERTEX
  8
4
  6
CONTINUOUS
 10
7.555327
 20
54.461152
  0
SEQEND
  8
4
  6
CONTINUOUS
  0
LINE
  8
4
  6
CONTINUOUS
 10
8.140352
 20
13.385228
 11
8.138365
 21
12.385230
  0
LINE
  8
4
  6
CONTINUOUS
 10
8.038365
 20
12.385428
 11
8.238364
 21
12.385031
  0
LINE
  8
4
  6
CONTINUOUS
 10
8.038405
 20
12.405428
 11
8.238404
 21
12.405031
  0
LINE
  8
4
  6
CONTINUOUS
 10
8.038444
 20
12.425428
 11
8.238444
 21
12.425031
  0
LINE
  8
4
  6
CONTINUOUS
 10
8.221993
 20
54.459827
 11
8.223484
 21
55.209825
  0
LINE
  8
4
  6
CONTINUOUS
 10
8.279733
 20
55.209713
 11
8.167234
 21
55.209937
  0
LINE
  8
4
  6
CONTINUOUS
 10
8.279733
 20
55.209713
 11
8.224974
 21
55.959824
  0
LINE
  8
4
  6
CONTINUOUS
 10
8.167234
 20
55.209937
 11
8.224974
 21
55.959824
  0
LINE
  8
4
  6
CONTINUOUS
 10
8.335685
 20
55.059602
 11
8.110686
 21
55.060049
  0
LINE
  8
4
  6
CONTINUOUS
 10
8.335499
 20
54.965852
 11
8.110499
 21
54.966299
  0
LINE
  8
4
  6
CONTINUOUS
 10
8.335313
 20
54.872102
 11
8.110313
 21
54.872549
  0
POLYLINE
  8
4
  6
CONTINUOUS
 66
     1
  0
VERTEX
  8
4
  6
CONTINUOUS
 10
8.140352
 20
13.385228
  0
VERTEX
  8
4
  6
CONTINUOUS
 10
8.221993
 20
54.459827
  0
SEQEND
  8
4
  6
CONTINUOUS
  0
LINE
  8
1
  6
CONTINUOUS
 10
9.828170
 20
72.911440
 11
29.251898
 21
72.911440
  0
LINE
  8
1
  6
CONTINUOUS
 10
9.828170
 20
72.911440
 11
9.828170
 21
71.911440
  0
LINE
  8
1
  6
CONTINUOUS
 10
9.828170
 20
71.911440
 11
26.117450
 21
71.911440
  0
LINE
  8
1
  6
CONTINUOUS
 10
9.828170
 20
71.911440
 11
9.828170
 21
70.911440
  0
LINE
  8
1
  6
CONTINUOUS
 10
12.317286
 20
71.911440
 11
12.317286
 21
70.911440
  0
LINE
  8
1
  6
CONTINUOUS
 10
14.454999
 20
71.911440
 11
14.454999
 21
70.911440
  0
LINE
  8
1
  6
CONTINUOUS
 10
15.830366
 20
71.911440
 11
15.830366
 21
70.911440
  0
LINE
  8
1
  6
CONTINUOUS
 10
19.994879
 20
71.411440
 11
19.994879
 21
70.911440
  0
LINE
  8
1
  6
CONTINUOUS
 10
22.983002
 20
71.911440
 11
22.983002
 21
70.911440
  0
LINE
  8
1
  6
CONTINUOUS
 10
24.027817
 20
71.411440
 11
24.027818
 21
70.911440
  0
LINE
  8
1
  6
CONTINUOUS
 10
25.072634
 20
71.411440
 11
25.072634
 21
70.911440
  0
LINE
  8
1
  6
CONTINUOUS
 10
26.117450
 20
71.911440
 11
26.117450
 21
70.911440
  0
LINE
  8
1
  6
CONTINUOUS
 10
9.828170
 20
70.911440
 11
29.251898
 21
70.911440
  0
LINE
  8
1
  6
CONTINUOUS
 10
15.830366
 20
71.411440
 11
19.994879
 21
71.411440
  0
LINE
  8
1
  6
CONTINUOUS
 10
19.994879
 20
71.411440
 11
22.983002
 21
71.411440
  0
LINE
  8
1
  6
CONTINUOUS
 10
22.983002
 20
71.411440
 11
24.027818
 21
71.411440
  0
LINE
  8
1
  6
CONTINUOUS
 10
24.027818
 20
71.411440
 11
25.072634
 21
71.411440
  0
LINE
  8
1
  6
CONTINUOUS
 10
25.072634
 20
71.411440
 11
29.251898
 21
71.411440
  0
LINE
  8
1
  6
CONTINUOUS
 10
29.251898
 20
70.911440
 11
29.251898
 21
72.911440
  0
LINE
  8
1
  6
CONTINUOUS
 10
27.684674
 20
71.411440
 11
27.684674
 21
70.911440
  0
LINE
  8
1
  6
CONTINUOUS
 10
26.117450
 20
71.911440
 11
29.251898
 21
71.911440
  0
LINE
  8
1
  6
CONTINUOUS
 10
9.828170
 20
70.911440
 11
9.828170
 21
70.411439
  0
LINE
  8
1
  6
CONTINUOUS
 10
9.828170
 20
70.411439
 11
29.251898
 21
70.411439
  0
LINE
  8
1
  6
CONTINUOUS
 10
12.317286
 20
70.911440
 11
12.317286
 21
70.411439
  0
LINE
  8
1
  6
CONTINUOUS
 10
14.454999
 20
70.911440
 11
14.454999
 21
70.411439
  0
LINE
  8
1
  6
CONTINUOUS
 10
15.830366
 20
70.911440
 11
15.830366
 21
70.411439
  0
LINE
  8
1
  6
CONTINUOUS
 10
19.994879
 20
70.911440
 11
19.994879
 21
70.411439
  0
LINE
  8
1
  6
CONTINUOUS
 10
22.983002
 20
70.911440
 11
22.983002
 21
70.411439
  0
LINE
  8
1
  6
CONTINUOUS
 10
24.027818
 20
70.911440
 11
24.027818
 21
70.411439
  0
LINE
  8
1
  6
CONTINUOUS
 10
25.072634
 20
70.911440
 11
25.072634
 21
70.411439
  0
LINE
  8
1
  6
CONTINUOUS
 10
26.117450
 20
70.911440
 11
26.117450
 21
70.411439
  0
LINE
  8
1
  6
CONTINUOUS
 10
26.117450
 20
70.411439
 11
26.117450
 21
70.911440
  0
LINE
  8
1
  6
CONTINUOUS
 10
26.117450
 20
70.911440
 11
26.117450
 21
70.411439
  0
LINE
  8
1
  6
CONTINUOUS
 10
27.684674
 20
70.911440
 11
27.684674
 21
70.411439
  0
LINE
  8
1
  6
CONTINUOUS
 10
29.251898
 20
70.911440
 11
29.251898
 21
70.411439
  0
LINE
  8
1
  6
CONTINUOUS
 10
9.828170
 20
70.411439
 11
9.828170
 21
69.911439
  0
LINE
  8
1
  6
CONTINUOUS
 10
9.828170
 20
69.911439
 11
29.251898
 21
69.911439
  0
LINE
  8
1
  6
CONTINUOUS
 10
12.317286
 20
70.411439
 11
12.317286
 21
69.911439
  0
LINE
  8
1
  6
CONTINUOUS
 10
14.454999
 20
70.411439
 11
14.454999
 21
69.911439
  0
LINE
  8
1
  6
CONTINUOUS
 10
15.830366
 20
70.411439
 11
15.830366
 21
69.911439
  0
LINE
  8
1
  6
CONTINUOUS
 10
19.994879
 20
70.411439
 11
19.994879
 21
69.911439
  0
LINE
  8
1
  6
CONTINUOUS
 10
22.983002
 20
70.411439
 11
22.983002
 21
69.911439
  0
LINE
  8
1
  6
CONTINUOUS
 10
24.027818
 20
70.411439
 11
24.027818
 21
69.911439
  0
LINE
  8
1
  6
CONTINUOUS
 10
25.072634
 20
70.411439
 11
25.072634
 21
69.911439
  0
LINE
  8
1
  6
CONTINUOUS
 10
26.117450
 20
70.411439
 11
26.117450
 21
69.911439
  0
LINE
  8
1
  6
CONTINUOUS
 10
26.117450
 20
69.911439
 11
26.117450
 21
70.411439
  0
LINE
  8
1
  6
CONTINUOUS
 10
26.117450
 20
70.411439
 11
26.117450
 21
69.911439
  0
LINE
  8
1
  6
CONTINUOUS
 10
27.684674
 20
70.411439
 11
27.684674
 21
69.911439
  0
LINE
  8
1
  6
CONTINUOUS
 10
29.251898
 20
70.411439
 11
29.251898
 21
69.911439
  0
LINE
  8
1
  6
CONTINUOUS
 10
9.828170
 20
69.911438
 11
9.828170
 21
69.411438
  0
LINE
  8
1
  6
CONTINUOUS
 10
9.828170
 20
69.411438
 11
29.251898
 21
69.411438
  0
LINE
  8
1
  6
CONTINUOUS
 10
12.317286
 20
69.911438
 11
12.317286
 21
69.411438
  0
LINE
  8
1
  6
CONTINUOUS
 10
14.454999
 20
69.911438
 11
14.454999
 21
69.411438
  0
LINE
  8
1
  6
CONTINUOUS
 10
15.830366
 20
69.911438
 11
15.830366
 21
69.411438
  0
LINE
  8
1
  6
CONTINUOUS
 10
19.994879
 20
69.911438
 11
19.994879
 21
69.411438
  0
LINE
  8
1
  6
CONTINUOUS
 10
22.983002
 20
69.911438
 11
22.983002
 21
69.411438
  0
LINE
  8
1
  6
CONTINUOUS
 10
24.027818
 20
69.911438
 11
24.027818
 21
69.411438
  0
LINE
  8
1
  6
CONTINUOUS
 10
25.072634
 20
69.911438
 11
25.072634
 21
69.411438
  0
LINE
  8
1
  6
CONTINUOUS
 10
26.117450
 20
69.911438
 11
26.117450
 21
69.411438
  0
LINE
  8
1
  6
CONTINUOUS
 10
26.117450
 20
69.411438
 11
26.117450
 21
69.911438
  0
LINE
  8
1
  6
CONTINUOUS
 10
26.117450
 20
69.911439
 11
26.117450
 21
69.411438
  0
LINE
  8
1
  6
CONTINUOUS
 10
27.684674
 20
69.911438
 11
27.684674
 21
69.411438
  0
LINE
  8
1
  6
CONTINUOUS
 10
29.251898
 20
69.911438
 11
29.251898
 21
69.411438
  0
LINE
  8
1
  6
CONTINUOUS
 10
9.828170
 20
69.411437
 11
9.828170
 21
68.911437
  0
LINE
  8
1
  6
CONTINUOUS
 10
9.828170
 20
68.911437
 11
29.251898
 21
68.911437
  0
LINE
  8
1
  6
CONTINUOUS
 10
12.317286
 20
69.411437
 11
12.317286
 21
68.911437
  0
LINE
  8
1
  6
CONTINUOUS
 10
14.454999
 20
69.411437
 11
14.454999
 21
68.911437
  0
LINE
  8
1
  6
CONTINUOUS
 10
15.830366
 20
69.411437
 11
15.830366
 21
68.911437
  0
LINE
  8
1
  6
CONTINUOUS
 10
19.994879
 20
69.411437
 11
19.994879
 21
68.911437
  0
LINE
  8
1
  6
CONTINUOUS
 10
22.983002
 20
69.411437
 11
22.983002
 21
68.911437
  0
LINE
  8
1
  6
CONTINUOUS
 10
24.027818
 20
69.411437
 11
24.027818
 21
68.911437
  0
LINE
  8
1
  6
CONTINUOUS
 10
25.072634
 20
69.411437
 11
25.072634
 21
68.911437
  0
LINE
  8
1
  6
CONTINUOUS
 10
26.117450
 20
69.411437
 11
26.117450
 21
68.911437
  0
LINE
  8
1
  6
CONTINUOUS
 10
26.117450
 20
68.911437
 11
26.117450
 21
69.411437
  0
LINE
  8
1
  6
CONTINUOUS
 10
26.117450
 20
69.411438
 11
26.117450
 21
68.911437
  0
LINE
  8
1
  6
CONTINUOUS
 10
27.684674
 20
69.411437
 11
27.684674
 21
68.911437
  0
LINE
  8
1
  6
CONTINUOUS
 10
29.251898
 20
69.411437
 11
29.251898
 21
68.911437
  0
LINE
  8
1
  6
CONTINUOUS
 10
9.828170
 20
68.911437
 11
9.828170
 21
68.411437
  0
LINE
  8
1
  6
CONTINUOUS
 10
9.828170
 20
68.411437
 11
29.251898
 21
68.411437
  0
LINE
  8
1
  6
CONTINUOUS
 10
12.317286
 20
68.911437
 11
12.317286
 21
68.411437
  0
LINE
  8
1
  6
CONTINUOUS
 10
14.454999
 20
68.911437
 11
14.454999
 21
68.411437
  0
LINE
  8
1
  6
CONTINUOUS
 10
15.830366
 20
68.911437
 11
15.830366
 21
68.411437
  0
LINE
  8
1
  6
CONTINUOUS
 10
19.994879
 20
68.911437
 11
19.994879
 21
68.411437
  0
LINE
  8
1
  6
CONTINUOUS
 10
22.983002
 20
68.911437
 11
22.983002
 21
68.411437
  0
LINE
  8
1
  6
CONTINUOUS
 10
24.027818
 20
68.911437
 11
24.027818
 21
68.411437
  0
LINE
  8
1
  6
CONTINUOUS
 10
25.072634
 20
68.911437
 11
25.072634
 21
68.411437
  0
LINE
  8
1
  6
CONTINUOUS
 10
26.117450
 20
68.911437
 11
26.117450
 21
68.411437
  0
LINE
  8
1
  6
CONTINUOUS
 10
26.117450
 20
68.411437
 11
26.117450
 21
68.911437
  0
LINE
  8
1
  6
CONTINUOUS
 10
26.117450
 20
68.911437
 11
26.117450
 21
68.411436
  0
LINE
  8
1
  6
CONTINUOUS
 10
27.684674
 20
68.911437
 11
27.684674
 21
68.411437
  0
LINE
  8
1
  6
CONTINUOUS
 10
29.251898
 20
68.911437
 11
29.251898
 21
68.411437
  0
LINE
  8
1
  6
CONTINUOUS
 10
9.828170
 20
68.411436
 11
9.828170
 21
67.911436
  0
LINE
  8
1
  6
CONTINUOUS
 10
9.828170
 20
67.911436
 11
29.251898
 21
67.911436
  0
LINE
  8
1
  6
CONTINUOUS
 10
12.317286
 20
68.411436
 11
12.317286
 21
67.911436
  0
LINE
  8
1
  6
CONTINUOUS
 10
14.454999
 20
68.411436
 11
14.454999
 21
67.911436
  0
LINE
  8
1
  6
CONTINUOUS
 10
15.830366
 20
68.411436
 11
15.830366
 21
67.911436
  0
LINE
  8
1
  6
CONTINUOUS
 10
19.994879
 20
68.411436
 11
19.994879
 21
67.911436
  0
LINE
  8
1
  6
CONTINUOUS
 10
22.983002
 20
68.411436
 11
22.983002
 21
67.911436
  0
LINE
  8
1
  6
CONTINUOUS
 10
24.027818
 20
68.411436
 11
24.027818
 21
67.911436
  0
LINE
  8
1
  6
CONTINUOUS
 10
25.072634
 20
68.411436
 11
25.072634
 21
67.911436
  0
LINE
  8
1
  6
CONTINUOUS
 10
26.117450
 20
68.411436
 11
26.117450
 21
67.911436
  0
LINE
  8
1
  6
CONTINUOUS
 10
26.117450
 20
67.911436
 11
26.117450
 21
68.411436
  0
LINE
  8
1
  6
CONTINUOUS
 10
26.117450
 20
68.411436
 11
26.117450
 21
67.911436
  0
LINE
  8
1
  6
CONTINUOUS
 10
27.684674
 20
68.411436
 11
27.684674
 21
67.911436
  0
LINE
  8
1
  6
CONTINUOUS
 10
29.251898
 20
68.411436
 11
29.251898
 21
67.911436
  0
LINE
  8
1
  6
CONTINUOUS
 10
9.828170
 20
67.911435
 11
9.828170
 21
67.411435
  0
LINE
  8
1
  6
CONTINUOUS
 10
9.828170
 20
67.411435
 11
29.251898
 21
67.411435
  0
LINE
  8
1
  6
CONTINUOUS
 10
12.317286
 20
67.911435
 11
12.317286
 21
67.411435
  0
LINE
  8
1
  6
CONTINUOUS
 10
14.454999
 20
67.911435
 11
14.454999
 21
67.411435
  0
LINE
  8
1
  6
CONTINUOUS
 10
15.830366
 20
67.911435
 11
15.830366
 21
67.411435
  0
LINE
  8
1
  6
CONTINUOUS
 10
19.994879
 20
67.911435
 11
19.994879
 21
67.411435
  0
LINE
  8
1
  6
CONTINUOUS
 10
22.983002
 20
67.911435
 11
22.983002
 21
67.411435
  0
LINE
  8
1
  6
CONTINUOUS
 10
24.027818
 20
67.911435
 11
24.027818
 21
67.411435
  0
LINE
  8
1
  6
CONTINUOUS
 10
25.072634
 20
67.911435
 11
25.072634
 21
67.411435
  0
LINE
  8
1
  6
CONTINUOUS
 10
26.117450
 20
67.911435
 11
26.117450
 21
67.411435
  0
LINE
  8
1
  6
CONTINUOUS
 10
26.117450
 20
67.411435
 11
26.117450
 21
67.911435
  0
LINE
  8
1
  6
CONTINUOUS
 10
26.117450
 20
67.911436
 11
26.117450
 21
67.411435
  0
LINE
  8
1
  6
CONTINUOUS
 10
27.684674
 20
67.911435
 11
27.684674
 21
67.411435
  0
LINE
  8
1
  6
CONTINUOUS
 10
29.251898
 20
67.911435
 11
29.251898
 21
67.411435
  0
LINE
  8
1
  6
CONTINUOUS
 10
9.828170
 20
66.774083
 11
23.111262
 21
66.774083
  0
LINE
  8
1
  6
CONTINUOUS
 10
9.828170
 20
65.411435
 11
23.111262
 21
65.411435
  0
LINE
  8
1
  6
CONTINUOUS
 10
9.828170
 20
64.911435
 11
18.749879
 21
64.911435
  0
LINE
  8
1
  6
CONTINUOUS
 10
18.749879
 20
64.911435
 11
20.938002
 21
64.911435
  0
LINE
  8
1
  6
CONTINUOUS
 10
20.317982
 20
64.911435
 11
21.362798
 21
64.911435
  0
LINE
  8
1
  6
CONTINUOUS
 10
21.362798
 20
64.911435
 11
23.027634
 21
64.911435
  0
LINE
  8
1
  6
CONTINUOUS
 10
23.027634
 20
64.911435
 11
23.111262
 21
64.911435
  0
LINE
  8
1
  6
CONTINUOUS
 10
9.828170
 20
66.774083
 11
9.828170
 21
63.911435
  0
LINE
  8
1
  6
CONTINUOUS
 10
9.828170
 20
63.911435
 11
23.111262
 21
63.911435
  0
LINE
  8
1
  6
CONTINUOUS
 10
11.965882
 20
64.911435
 11
11.965882
 21
63.911435
  0
LINE
  8
1
  6
CONTINUOUS
 10
14.154006
 20
63.911435
 11
14.154006
 21
64.911435
  0
LINE
  8
1
  6
CONTINUOUS
 10
21.021630
 20
64.911435
 11
21.021630
 21
63.911435
  0
LINE
  8
1
  6
CONTINUOUS
 10
22.066447
 20
64.911435
 11
22.066447
 21
63.911435
  0
LINE
  8
1
  6
CONTINUOUS
 10
15.856818
 20
63.911435
 11
15.856818
 21
64.411435
  0
LINE
  8
1
  6
CONTINUOUS
 10
23.111262
 20
63.911435
 11
23.111262
 21
66.774083
  0
LINE
  8
1
  6
CONTINUOUS
 10
14.154006
 20
64.411435
 11
19.976815
 21
64.411435
  0
LINE
  8
1
  6
CONTINUOUS
 10
19.976815
 20
63.911435
 11
19.976815
 21
65.411435
  0
LINE
  8
1
  6
CONTINUOUS
 10
17.916817
 20
63.911435
 11
17.916817
 21
64.411435
  0
LINE
  8
1
  6
CONTINUOUS
 10
9.828170
 20
63.911434
 11
9.828170
 21
63.411434
  0
LINE
  8
1
  6
CONTINUOUS
 10
11.965882
 20
63.911434
 11
11.965882
 21
63.411434
  0
LINE
  8
1
  6
CONTINUOUS
 10
14.154006
 20
63.911434
 11
14.154006
 21
63.411434
  0
LINE
  8
1
  6
CONTINUOUS
 10
9.828170
 20
63.411434
 11
23.111262
 21
63.411434
  0
LINE
  8
1
  6
CONTINUOUS
 10
19.976815
 20
63.911435
 11
19.976815
 21
63.411435
  0
LINE
  8
1
  6
CONTINUOUS
 10
21.021630
 20
63.911435
 11
21.021630
 21
63.411435
  0
LINE
  8
1
  6
CONTINUOUS
 10
22.066447
 20
63.911435
 11
22.066447
 21
63.411435
  0
LINE
  8
1
  6
CONTINUOUS
 10
15.856818
 20
63.911435
 11
15.856818
 21
63.411434
  0
LINE
  8
1
  6
CONTINUOUS
 10
17.916817
 20
63.411434
 11
17.916817
 21
63.911435
  0
LINE
  8
1
  6
CONTINUOUS
 10
19.976815
 20
63.411434
 11
19.976815
 21
63.911435
  0
LINE
  8
1
  6
CONTINUOUS
 10
23.111262
 20
63.911435
 11
23.111262
 21
63.411434
  0
LINE
  8
1
  6
CONTINUOUS
 10
9.828170
 20
63.411434
 11
9.828170
 21
62.911433
  0
LINE
  8
1
  6
CONTINUOUS
 10
11.965882
 20
63.411434
 11
11.965882
 21
62.911433
  0
LINE
  8
1
  6
CONTINUOUS
 10
14.154006
 20
63.411434
 11
14.154006
 21
62.911433
  0
LINE
  8
1
  6
CONTINUOUS
 10
9.828170
 20
62.911433
 11
23.111262
 21
62.911433
  0
LINE
  8
1
  6
CONTINUOUS
 10
19.976815
 20
63.411434
 11
19.976815
 21
62.911434
  0
LINE
  8
1
  6
CONTINUOUS
 10
21.021630
 20
63.411434
 11
21.021630
 21
62.911434
  0
LINE
  8
1
  6
CONTINUOUS
 10
22.066447
 20
63.411434
 11
22.066447
 21
62.911434
  0
LINE
  8
1
  6
CONTINUOUS
 10
15.856818
 20
63.411434
 11
15.856818
 21
62.911433
  0
LINE
  8
1
  6
CONTINUOUS
 10
17.916817
 20
62.911433
 11
17.916817
 21
63.411434
  0
LINE
  8
1
  6
CONTINUOUS
 10
19.976815
 20
62.911433
 11
19.976815
 21
63.411434
  0
LINE
  8
1
  6
CONTINUOUS
 10
23.111262
 20
63.411434
 11
23.111262
 21
62.911433
  0
LINE
  8
2
  6
CONTINUOUS
 10
101.700000
 20
23.900000
 11
101.700000
 21
23.900000
  0
LINE
  8
2
  6
CONTINUOUS
 10
118.000000
 20
23.900000
 11
118.000000
 21
23.900000
  0
LINE
  8
2
  6
CONTINUOUS
 10
118.000000
 20
23.900000
 11
101.700000
 21
23.900000
  0
LINE
  8
2
  6
CONTINUOUS
 10
118.000000
 20
22.200000
 11
101.700000
 21
22.200000
  0
LINE
  8
2
  6
CONTINUOUS
 10
101.700000
 20
23.900000
 11
101.700000
 21
22.200000
  0
LINE
  8
2
  6
CONTINUOUS
 10
118.000000
 20
22.200000
 11
118.000000
 21
23.900000
  0
LINE
  8
1
  6
CONTINUOUS
 10
118.000002
 20
29.700001
 11
119.000002
 21
29.700001
  0
LINE
  8
1
  6
CONTINUOUS
 10
118.000002
 20
59.400002
 11
119.000002
 21
59.400002
  0
LINE
  8
1
  6
CONTINUOUS
 10
0.000000
 20
29.700001
 11
2.500000
 21
29.700001
  0
LINE
  8
1
  6
CONTINUOUS
 10
0.000000
 20
59.400002
 11
2.500000
 21
59.400002
  0
LINE
  8
1
  6
CONTINUOUS
 10
100.500002
 20
82.999998
 11
100.500002
 21
83.999998
  0
LINE
  8
1
  6
CONTINUOUS
 10
82.000002
 20
82.999998
 11
82.000002
 21
83.999998
  0
LINE
  8
1
  6
CONTINUOUS
 10
63.500002
 20
82.999998
 11
63.500002
 21
83.999998
  0
LINE
  8
1
  6
CONTINUOUS
 10
45.000002
 20
82.999998
 11
45.000002
 21
83.999998
  0
LINE
  8
1
  6
CONTINUOUS
 10
33.050001
 20
82.999998
 11
33.050001
 21
83.999998
  0
LINE
  8
1
  6
CONTINUOUS
 10
21.100000
 20
82.999998
 11
21.100000
 21
83.999998
  0
LINE
  8
1
  6
CONTINUOUS
 10
100.500002
 20
0.000000
 11
100.500002
 21
1.000000
  0
LINE
  8
1
  6
CONTINUOUS
 10
82.000002
 20
0.000000
 11
82.000002
 21
1.000000
  0
LINE
  8
1
  6
CONTINUOUS
 10
63.500002
 20
0.000000
 11
63.500002
 21
1.000000
  0
LINE
  8
1
  6
CONTINUOUS
 10
45.000002
 20
0.000000
 11
45.000002
 21
1.000000
  0
LINE
  8
1
  6
CONTINUOUS
 10
33.050001
 20
0.000000
 11
33.050001
 21
1.000000
  0
LINE
  8
1
  6
CONTINUOUS
 10
21.100000
 20
0.000000
 11
21.100000
 21
1.000000
  0
LINE
  8
1
  6
CONTINUOUS
 10
0.000000
 20
0.000000
 11
119.000002
 21
0.000000
  0
LINE
  8
1
  6
CONTINUOUS
 10
119.000002
 20
0.000000
 11
119.000002
 21
83.999998
  0
LINE
  8
1
  6
CONTINUOUS
 10
0.000000
 20
0.000000
 11
0.000000
 21
83.999998
  0
LINE
  8
8
  6
CONTINUOUS
 10
2.500000
 20
1.000000
 11
118.000002
 21
1.000000
  0
LINE
  8
8
  6
CONTINUOUS
 10
118.000002
 20
1.000000
 11
118.000002
 21
82.999998
  0
LINE
  8
1
  6
CONTINUOUS
 10
0.000000
 20
83.999998
 11
119.000002
 21
83.999998
  0
LINE
  8
8
  6
CONTINUOUS
 10
2.500000
 20
82.999998
 11
118.000002
 21
82.999998
  0
LINE
  8
8
  6
CONTINUOUS
 10
2.500000
 20
82.999998
 11
2.500000
 21
1.000000
  0
LINE
  8
2
  6
CONTINUOUS
 10
102.650002
 20
17.625000
 11
102.650002
 21
18.125000
  0
LINE
  8
1
  6
CONTINUOUS
 10
101.700002
 20
18.200000
 11
118.000002
 21
18.200000
  0
LINE
  8
1
  6
CONTINUOUS
 10
101.700002
 20
17.700000
 11
118.000002
 21
17.700000
  0
LINE
  8
1
  6
CONTINUOUS
 10
102.200002
 20
17.700000
 11
118.000002
 21
17.700000
  0
LINE
  8
2
  6
CONTINUOUS
 10
102.650002
 20
17.125000
 11
102.650002
 21
17.625000
  0
LINE
  8
1
  6
CONTINUOUS
 10
102.200002
 20
17.700000
 11
118.000002
 21
17.700000
  0
LINE
  8
1
  6
CONTINUOUS
 10
101.700002
 20
17.200000
 11
118.000002
 21
17.200000
  0
LINE
  8
2
  6
CONTINUOUS
 10
102.650002
 20
16.700000
 11
102.650002
 21
17.200000
  0
LINE
  8
1
  6
CONTINUOUS
 10
116.008223
 20
16.000000
 11
116.008223
 21
22.200000
  0
LINE
  8
1
  6
CONTINUOUS
 10
104.850002
 20
16.000000
 11
104.850002
 21
22.200000
  0
LINE
  8
6
  6
CONTINUOUS
 10
101.700002
 20
16.000000
 11
118.000002
 21
16.000000
  0
LINE
  8
1
  6
CONTINUOUS
 10
102.650002
 20
16.000000
 11
102.650002
 21
16.700000
  0
LINE
  8
1
  6
CONTINUOUS
 10
102.200002
 20
17.200000
 11
118.000002
 21
17.200000
  0
LINE
  8
1
  6
CONTINUOUS
 10
101.700002
 20
16.700000
 11
118.000002
 21
16.700000
  0
LINE
  8
2
  6
CONTINUOUS
 10
102.650002
 20
18.625000
 11
102.650002
 21
22.200000
  0
LINE
  8
6
  6
CONTINUOUS
 10
101.700002
 20
22.200000
 11
118.000002
 21
22.200000
  0
LINE
  8
1
  6
CONTINUOUS
 10
101.700002
 20
18.700000
 11
118.000002
 21
18.700000
  0
LINE
  8
1
  6
CONTINUOUS
 10
102.200002
 20
18.700000
 11
118.000002
 21
18.700000
  0
LINE
  8
2
  6
CONTINUOUS
 10
102.650002
 20
18.125000
 11
102.650002
 21
18.625000
  0
LINE
  8
1
  6
CONTINUOUS
 10
102.200002
 20
18.700000
 11
118.000002
 21
18.700000
  0
LINE
  8
1
  6
CONTINUOUS
 10
102.200002
 20
18.200000
 11
118.000002
 21
18.200000
  0
LINE
  8
1
  6
CONTINUOUS
 10
102.200002
 20
18.200000
 11
118.000002
 21
18.200000
  0
LINE
  8
6
  6
CONTINUOUS
 10
101.700002
 20
6.600000
 11
118.000002
 21
6.600000
  0
LINE
  8
6
  6
CONTINUOUS
 10
101.700002
 20
8.500000
 11
118.000002
 21
8.500000
  0
LINE
  8
6
  6
CONTINUOUS
 10
101.700002
 20
1.000000
 11
101.700002
 21
8.500000
  0
LINE
  8
6
  6
CONTINUOUS
 10
101.700002
 20
16.000000
 11
101.700002
 21
22.200000
  0
LINE
  8
6
  6
CONTINUOUS
 10
101.700002
 20
15.900000
 11
118.000002
 21
15.900000
  0
LINE
  8
6
  6
CONTINUOUS
 10
101.700002
 20
11.400000
 11
101.700002
 21
15.900000
  0
LINE
  8
1
  6
CONTINUOUS
 10
101.700002
 20
14.400000
 11
118.000002
 21
14.400000
  0
LINE
  8
6
  6
CONTINUOUS
 10
101.700002
 20
3.000000
 11
118.000002
 21
3.000000
  0
LINE
  8
6
  6
CONTINUOUS
 10
105.024321
 20
3.000000
 11
105.024321
 21
1.000000
  0
LINE
  8
1
  6
CONTINUOUS
 10
101.700002
 20
12.900000
 11
118.000002
 21
12.900000
  0
POLYLINE
  8
1
  6
CONTINUOUS
 66
     1
  0
VERTEX
  8
1
  6
CONTINUOUS
 10
103.635546
 20
9.498246
  0
VERTEX
  8
1
  6
CONTINUOUS
 10
101.971546
 20
9.498246
  0
VERTEX
  8
1
  6
CONTINUOUS
 10
101.971546
 20
11.162246
  0
VERTEX
  8
1
  6
CONTINUOUS
 10
103.635546
 20
11.162246
  0
VERTEX
  8
1
  6
CONTINUOUS
 10
103.635546
 20
9.498246
  0
SEQEND
  8
1
  6
CONTINUOUS
  0
POLYLINE
  8
13
  6
CONTINUOUS
 66
     1
  0
VERTEX
  8
13
  6
CONTINUOUS
 10
102.095046
 20
10.244446
  0
VERTEX
  8
13
  6
CONTINUOUS
 10
102.095046
 20
9.498246
  0
VERTEX
  8
13
  6
CONTINUOUS
 10
101.971546
 20
9.498246
  0
VERTEX
  8
13
  6
CONTINUOUS
 10
101.971546
 20
11.162246
  0
VERTEX
  8
13
  6
CONTINUOUS
 10
102.095046
 20
11.162246
  0
VERTEX
  8
13
  6
CONTINUOUS
 10
102.095046
 20
10.244446
  0
SEQEND
  8
13
  6
CONTINUOUS
  0
POLYLINE
  8
13
  6
CONTINUOUS
 66
     1
  0
VERTEX
  8
13
  6
CONTINUOUS
 10
102.522746
 20
10.230979
  0
VERTEX
  8
13
  6
CONTINUOUS
 10
102.522746
 20
9.498246
  0
VERTEX
  8
13
  6
CONTINUOUS
 10
102.095046
 20
9.498246
  0
VERTEX
  8
13
  6
CONTINUOUS
 10
102.095046
 20
10.244446
  0
VERTEX
  8
13
  6
CONTINUOUS
 10
102.143544
 20
10.248642
  0
VERTEX
  8
13
  6
CONTINUOUS
 10
102.211078
 20
10.252071
  0
VERTEX
  8
13
  6
CONTINUOUS
 10
102.259959
 20
10.252484
  0
VERTEX
  8
13
  6
CONTINUOUS
 10
102.290321
 20
10.252141
  0
VERTEX
  8
13
  6
CONTINUOUS
 10
102.334203
 20
10.250668
  0
VERTEX
  8
13
  6
CONTINUOUS
 10
102.394518
 20
10.246747
  0
VERTEX
  8
13
  6
CONTINUOUS
 10
102.446340
 20
10.241621
  0
VERTEX
  8
13
  6
CONTINUOUS
 10
102.490083
 20
10.235974
  0
VERTEX
  8
13
  6
CONTINUOUS
 10
102.522746
 20
10.230979
  0
SEQEND
  8
13
  6
CONTINUOUS
  0
POLYLINE
  8
13
  6
CONTINUOUS
 66
     1
  0
VERTEX
  8
13
  6
CONTINUOUS
 10
102.594246
 20
10.217654
  0
VERTEX
  8
13
  6
CONTINUOUS
 10
102.594246
 20
9.498246
  0
VERTEX
  8
13
  6
CONTINUOUS
 10
103.021946
 20
9.498246
  0
VERTEX
  8
13
  6
CONTINUOUS
 10
103.021946
 20
10.064184
  0
VERTEX
  8
13
  6
CONTINUOUS
 10
103.003898
 20
10.073542
  0
VERTEX
  8
13
  6
CONTINUOUS
 10
102.981716
 20
10.084501
  0
VERTEX
  8
13
  6
CONTINUOUS
 10
102.953307
 20
10.098271
  0
VERTEX
  8
13
  6
CONTINUOUS
 10
102.912865
 20
10.116383
  0
VERTEX
  8
13
  6
CONTINUOUS
 10
102.885024
 20
10.128001
  0
VERTEX
  8
13
  6
CONTINUOUS
 10
102.844071
 20
10.144755
  0
VERTEX
  8
13
  6
CONTINUOUS
 10
102.813490
 20
10.155923
  0
VERTEX
  8
13
  6
CONTINUOUS
 10
102.778388
 20
10.168156
  0
VERTEX
  8
13
  6
CONTINUOUS
 10
102.744083
 20
10.178793
  0
VERTEX
  8
13
  6
CONTINUOUS
 10
102.703465
 20
10.191172
  0
VERTEX
  8
13
  6
CONTINUOUS
 10
102.665141
 20
10.201162
  0
VERTEX
  8
13
  6
CONTINUOUS
 10
102.624819
 20
10.210970
  0
VERTEX
  8
13
  6
CONTINUOUS
 10
102.594246
 20
10.217654
  0
SEQEND
  8
13
  6
CONTINUOUS
  0
POLYLINE
  8
13
  6
CONTINUOUS
 66
     1
  0
VERTEX
  8
13
  6
CONTINUOUS
 10
103.093446
 20
10.024343
  0
VERTEX
  8
13
  6
CONTINUOUS
 10
103.093446
 20
9.498246
  0
VERTEX
  8
13
  6
CONTINUOUS
 10
103.521146
 20
9.498246
  0
VERTEX
  8
13
  6
CONTINUOUS
 10
103.521146
 20
9.661030
  0
VERTEX
  8
13
  6
CONTINUOUS
 10
103.507797
 20
9.676793
  0
VERTEX
  8
13
  6
CONTINUOUS
 10
103.495964
 20
9.690528
  0
VERTEX
  8
13
  6
CONTINUOUS
 10
103.473877
 20
9.715277
  0
VERTEX
  8
13
  6
CONTINUOUS
 10
103.454164
 20
9.736530
  0
VERTEX
  8
13
  6
CONTINUOUS
 10
103.434048
 20
9.757502
  0
VERTEX
  8
13
  6
CONTINUOUS
 10
103.410015
 20
9.781535
  0
VERTEX
  8
13
  6
CONTINUOUS
 10
103.399294
 20
9.791943
  0
VERTEX
  8
13
  6
CONTINUOUS
 10
103.388429
 20
9.802406
  0
VERTEX
  8
13
  6
CONTINUOUS
 10
103.359952
 20
9.828752
  0
VERTEX
  8
13
  6
CONTINUOUS
 10
103.325139
 20
9.859181
  0
VERTEX
  8
13
  6
CONTINUOUS
 10
103.286846
 20
9.890826
  0
VERTEX
  8
13
  6
CONTINUOUS
 10
103.251036
 20
9.918745
  0
VERTEX
  8
13
  6
CONTINUOUS
 10
103.200839
 20
9.955427
  0
VERTEX
  8
13
  6
CONTINUOUS
 10
103.134352
 20
9.999676
  0
VERTEX
  8
13
  6
CONTINUOUS
 10
103.093446
 20
10.024343
  0
SEQEND
  8
13
  6
CONTINUOUS
  0
POLYLINE
  8
13
  6
CONTINUOUS
 66
     1
  0
VERTEX
  8
13
  6
CONTINUOUS
 10
102.522746
 20
10.635283
  0
VERTEX
  8
13
  6
CONTINUOUS
 10
102.522746
 20
11.162246
  0
VERTEX
  8
13
  6
CONTINUOUS
 10
102.095046
 20
11.162246
  0
VERTEX
  8
13
  6
CONTINUOUS
 10
102.095046
 20
10.995122
  0
VERTEX
  8
13
  6
CONTINUOUS
 10
102.153689
 20
10.929235
  0
VERTEX
  8
13
  6
CONTINUOUS
 10
102.237359
 20
10.846559
  0
VERTEX
  8
13
  6
CONTINUOUS
 10
102.308389
 20
10.784730
  0
VERTEX
  8
13
  6
CONTINUOUS
 10
102.366624
 20
10.739274
  0
VERTEX
  8
13
  6
CONTINUOUS
 10
102.406322
 20
10.710064
  0
VERTEX
  8
13
  6
CONTINUOUS
 10
102.455827
 20
10.676682
  0
VERTEX
  8
13
  6
CONTINUOUS
 10
102.493954
 20
10.652515
  0
VERTEX
  8
13
  6
CONTINUOUS
 10
102.522746
 20
10.635283
  0
SEQEND
  8
13
  6
CONTINUOUS
  0
POLYLINE
  8
13
  6
CONTINUOUS
 66
     1
  0
VERTEX
  8
13
  6
CONTINUOUS
 10
103.021946
 20
10.443678
  0
VERTEX
  8
13
  6
CONTINUOUS
 10
103.021946
 20
11.162246
  0
VERTEX
  8
13
  6
CONTINUOUS
 10
102.594246
 20
11.162246
  0
VERTEX
  8
13
  6
CONTINUOUS
 10
102.594246
 20
10.595859
  0
VERTEX
  8
13
  6
CONTINUOUS
 10
102.663800
 20
10.561766
  0
VERTEX
  8
13
  6
CONTINUOUS
 10
102.744359
 20
10.527375
  0
VERTEX
  8
13
  6
CONTINUOUS
 10
102.812197
 20
10.501464
  0
VERTEX
  8
13
  6
CONTINUOUS
 10
102.889458
 20
10.476967
  0
VERTEX
  8
13
  6
CONTINUOUS
 10
102.950702
 20
10.460007
  0
VERTEX
  8
13
  6
CONTINUOUS
 10
103.021946
 20
10.443678
  0
SEQEND
  8
13
  6
CONTINUOUS
  0
POLYLINE
  8
13
  6
CONTINUOUS
 66
     1
  0
VERTEX
  8
13
  6
CONTINUOUS
 10
103.093446
 20
10.430307
  0
VERTEX
  8
13
  6
CONTINUOUS
 10
103.093446
 20
11.162246
  0
VERTEX
  8
13
  6
CONTINUOUS
 10
103.521146
 20
11.162246
  0
VERTEX
  8
13
  6
CONTINUOUS
 10
103.521146
 20
10.417580
  0
VERTEX
  8
13
  6
CONTINUOUS
 10
103.476372
 20
10.413637
  0
VERTEX
  8
13
  6
CONTINUOUS
 10
103.416577
 20
10.410480
  0
VERTEX
  8
13
  6
CONTINUOUS
 10
103.366788
 20
10.409453
  0
VERTEX
  8
13
  6
CONTINUOUS
 10
103.336830
 20
10.409453
  0
VERTEX
  8
13
  6
CONTINUOUS
 10
103.286182
 20
10.410821
  0
VERTEX
  8
13
  6
CONTINUOUS
 10
103.241261
 20
10.413321
  0
VERTEX
  8
13
  6
CONTINUOUS
 10
103.205545
 20
10.416539
  0
VERTEX
  8
13
  6
CONTINUOUS
 10
103.155349
 20
10.421044
  0
VERTEX
  8
13
  6
CONTINUOUS
 10
103.093446
 20
10.430307
  0
SEQEND
  8
13
  6
CONTINUOUS
  0
POLYLINE
  8
13
  6
CONTINUOUS
 66
     1
  0
VERTEX
  8
13
  6
CONTINUOUS
 10
102.522746
 20
9.498246
  0
VERTEX
  8
13
  6
CONTINUOUS
 10
102.594246
 20
9.498246
  0
VERTEX
  8
13
  6
CONTINUOUS
 10
102.594246
 20
11.162246
  0
VERTEX
  8
13
  6
CONTINUOUS
 10
102.522746
 20
11.162246
  0
VERTEX
  8
13
  6
CONTINUOUS
 10
102.522746
 20
9.498246
  0
VERTEX
  8
13
  6
CONTINUOUS
 10
102.594246
 20
9.498246
  0
SEQEND
  8
13
  6
CONTINUOUS
  0
POLYLINE
  8
13
  6
CONTINUOUS
 66
     1
  0
VERTEX
  8
13
  6
CONTINUOUS
 10
103.021946
 20
11.162246
  0
VERTEX
  8
13
  6
CONTINUOUS
 10
103.093446
 20
11.162246
  0
VERTEX
  8
13
  6
CONTINUOUS
 10
103.093446
 20
9.498246
  0
VERTEX
  8
13
  6
CONTINUOUS
 10
103.021946
 20
9.498246
  0
VERTEX
  8
13
  6
CONTINUOUS
 10
103.021946
 20
11.162246
  0
SEQEND
  8
13
  6
CONTINUOUS
  0
POLYLINE
  8
13
  6
CONTINUOUS
 66
     1
  0
VERTEX
  8
13
  6
CONTINUOUS
 10
103.521146
 20
9.498246
  0
VERTEX
  8
13
  6
CONTINUOUS
 10
103.635546
 20
9.498246
  0
VERTEX
  8
13
  6
CONTINUOUS
 10
103.635546
 20
11.162246
  0
VERTEX
  8
13
  6
CONTINUOUS
 10
103.521146
 20
11.162246
  0
VERTEX
  8
13
  6
CONTINUOUS
 10
103.521146
 20
9.498246
  0
SEQEND
  8
13
  6
CONTINUOUS
  0
LINE
  8
6
  6
CONTINUOUS
 10
107.924321
 20
3.000000
 11
107.924321
 21
2.000000
  0
LINE
  8
6
  6
CONTINUOUS
 10
101.700002
 20
2.000000
 11
114.124321
 21
2.000000
  0
LINE
  8
6
  6
CONTINUOUS
 10
114.124321
 20
3.000000
 11
114.124321
 21
1.000000
  0
LINE
  8
6
  6
CONTINUOUS
 10
101.700002
 20
8.600000
 11
118.000002
 21
8.600000
  0
LINE
  8
6
  6
CONTINUOUS
 10
101.700002
 20
8.600000
 11
101.700002
 21
11.300000
  0
LINE
  8
6
  6
CONTINUOUS
 10
101.700002
 20
11.300000
 11
118.000002
 21
11.300000
  0
LINE
  8
6
  6
CONTINUOUS
 10
101.700002
 20
11.400000
 11
118.000002
 21
11.400000
  0
LINE
  8
1
  6
CONTINUOUS
 10
101.700002
 20
19.200000
 11
118.000002
 21
19.200000
  0
LINE
  8
1
  6
CONTINUOUS
 10
102.200002
 20
19.200000
 11
118.000002
 21
19.200000
  0
LINE
  8
1
  6
CONTINUOUS
 10
102.200002
 20
19.200000
 11
118.000002
 21
19.200000
  0
LINE
  8
1
  6
CONTINUOUS
 10
101.700002
 20
19.700000
 11
118.000002
 21
19.700000
  0
LINE
  8
1
  6
CONTINUOUS
 10
102.200002
 20
19.700000
 11
118.000002
 21
19.700000
  0
LINE
  8
1
  6
CONTINUOUS
 10
102.200002
 20
19.700000
 11
118.000002
 21
19.700000
  0
LINE
  8
1
  6
CONTINUOUS
 10
101.700002
 20
20.200000
 11
118.000002
 21
20.200000
  0
LINE
  8
1
  6
CONTINUOUS
 10
102.200002
 20
20.200000
 11
118.000002
 21
20.200000
  0
LINE
  8
1
  6
CONTINUOUS
 10
102.200002
 20
20.200000
 11
118.000002
 21
20.200000
  0
LINE
  8
1
  6
CONTINUOUS
 10
101.700002
 20
20.700000
 11
118.000002
 21
20.700000
  0
LINE
  8
1
  6
CONTINUOUS
 10
102.200002
 20
20.700000
 11
118.000002
 21
20.700000
  0
LINE
  8
1
  6
CONTINUOUS
 10
102.200002
 20
20.700000
 11
118.000002
 21
20.700000
  0
LINE
  8
1
  6
CONTINUOUS
 10
101.700002
 20
21.200000
 11
118.000002
 21
21.200000
  0
LINE
  8
1
  6
CONTINUOUS
 10
102.200002
 20
21.200000
 11
118.000002
 21
21.200000
  0
LINE
  8
1
  6
CONTINUOUS
 10
102.200002
 20
21.200000
 11
118.000002
 21
21.200000
  0
LINE
  8
1
  6
CONTINUOUS
 10
101.700002
 20
21.700000
 11
118.000002
 21
21.700000
  0
LINE
  8
6
  6
CONTINUOUS
 10
110.708935
 20
11.300000
 11
110.708935
 21
8.600000
  0
TEXT
  8
1
  6
CONTINUOUS
 10
53.256819
 20
29.710838
 40
0.250000
 50
90.000000
  1
L1
  7
TQS_CALIBRI
  0
TEXT
  8
1
  6
CONTINUOUS
 10
78.847307
 20
17.058269
 40
0.250000
 50
90.000000
  1
P125
  7
TQS_CALIBRI
  0
TEXT
  8
1
  6
CONTINUOUS
 10
79.763283
 20
27.879229
 40
0.250000
 50
90.000000
  1
P126
  7
TQS_CALIBRI
  0
TEXT
  8
1
  6
CONTINUOUS
 10
80.639711
 20
38.232979
 40
0.250000
 50
90.000000
  1
P127
  7
TQS_CALIBRI
  0
TEXT
  8
1
  6
CONTINUOUS
 10
62.240033
 20
18.464042
 40
0.250000
 50
90.000000
  1
P119
  7
TQS_CALIBRI
  0
TEXT
  8
1
  6
CONTINUOUS
 10
63.329109
 20
29.353981
 40
0.250000
 50
90.000000
  1
P120
  7
TQS_CALIBRI
  0
TEXT
  8
1
  6
CONTINUOUS
 10
64.198509
 20
39.624695
 40
0.250000
 50
90.000000
  1
P121
  7
TQS_CALIBRI
  0
TEXT
  8
1
  6
CONTINUOUS
 10
45.604645
 20
19.509556
 40
0.250000
 50
90.000000
  1
P111
  7
TQS_CALIBRI
  0
TEXT
  8
1
  6
CONTINUOUS
 10
46.604959
 20
31.326953
 40
0.250000
 50
90.000000
  1
P113
  7
TQS_CALIBRI
  0
TEXT
  8
1
  6
CONTINUOUS
 10
47.481387
 20
41.680703
 40
0.250000
 50
90.000000
  1
P114
  7
TQS_CALIBRI
  0
TEXT
  8
1
  6
CONTINUOUS
 10
16.627580
 20
21.962382
 40
0.250000
 50
90.000000
  1
P99
  7
TQS_CALIBRI
  0
TEXT
  8
1
  6
CONTINUOUS
 10
17.627894
 20
33.779779
 40
0.250000
 50
90.000000
  1
P100
  7
TQS_CALIBRI
  0
TEXT
  8
1
  6
CONTINUOUS
 10
95.721328
 20
15.825725
 40
0.250000
 50
90.000000
  1
P131
  7
TQS_CALIBRI
  0
TEXT
  8
1
  6
CONTINUOUS
 10
96.592764
 20
26.121512
 40
0.250000
 50
90.000000
  1
P132
  7
TQS_CALIBRI
  0
TEXT
  8
1
  6
CONTINUOUS
 10
97.464261
 20
36.418027
 40
0.250000
 50
90.000000
  1
P133
  7
TQS_CALIBRI
  0
TEXT
  8
1
  6
CONTINUOUS
 10
14.665393
 20
12.092522
 40
0.250000
 50
90.000000
  1
P98
  7
TQS_CALIBRI
  0
TEXT
  8
1
  6
CONTINUOUS
 10
98.381723
 20
47.296628
 40
0.250000
 50
90.000000
  1
P134
  7
TQS_CALIBRI
  0
TEXT
  8
1
  6
CONTINUOUS
 10
88.550361
 20
48.072634
 40
0.250000
 50
90.000000
  1
P129
  7
TQS_CALIBRI
  0
TEXT
  8
1
  6
CONTINUOUS
 10
77.755621
 20
48.986249
 40
0.250000
 50
90.000000
  1
P124
  7
TQS_CALIBRI
  0
TEXT
  8
1
  6
CONTINUOUS
 10
68.621610
 20
49.759308
 40
0.250000
 50
90.000000
  1
P122
  7
TQS_CALIBRI
  0
TEXT
  8
1
  6
CONTINUOUS
 10
27.704149
 20
53.222379
 40
0.250000
 50
90.000000
  1
P104
  7
TQS_CALIBRI
  0
TEXT
  8
1
  6
CONTINUOUS
 10
18.119454
 20
54.033579
 40
0.250000
 50
90.000000
  1
P101
  7
TQS_CALIBRI
  0
TEXT
  8
1
  6
CONTINUOUS
 10
9.317597
 20
54.834735
 40
0.250000
 50
90.000000
  1
P97
  7
TQS_CALIBRI
  0
TEXT
  8
1
  6
CONTINUOUS
 10
7.470735
 20
22.674641
 40
0.250000
 50
90.000000
  1
P93
  7
TQS_CALIBRI
  0
TEXT
  8
1
  6
CONTINUOUS
 10
7.006337
 20
40.875648
 40
0.250000
 50
90.000000
  1
P95
  7
TQS_CALIBRI
  0
TEXT
  8
1
  6
CONTINUOUS
 10
7.030625
 20
53.292291
 40
0.250000
 50
90.000000
  1
P96
  7
TQS_CALIBRI
  0
TEXT
  8
1
  6
CONTINUOUS
 10
60.692866
 20
50.486589
 40
0.250000
 50
90.000000
  1
P117
  7
TQS_CALIBRI
  0
TEXT
  8
1
  6
CONTINUOUS
 10
22.180192
 20
11.456488
 40
0.250000
 50
90.000000
  1
P103
  7
TQS_CALIBRI
  0
TEXT
  8
1
  6
CONTINUOUS
 10
71.929395
 20
6.743668
 40
0.250000
 50
90.000000
  1
P123
  7
TQS_CALIBRI
  0
TEXT
  8
1
  6
CONTINUOUS
 10
81.893771
 20
5.900335
 40
0.250000
 50
90.000000
  1
P128
  7
TQS_CALIBRI
  0
TEXT
  8
1
  6
CONTINUOUS
 10
94.789939
 20
4.808573
 40
0.250000
 50
90.000000
  1
P130
  7
TQS_CALIBRI
  0
TEXT
  8
1
  6
CONTINUOUS
 10
37.170303
 20
52.477288
 40
0.250000
 50
90.000000
  1
P109
  7
TQS_CALIBRI
  0
TEXT
  8
1
  6
CONTINUOUS
 10
51.516766
 20
9.001631
 40
0.250000
 50
90.000000
  1
P115
  7
TQS_CALIBRI
  0
TEXT
  8
1
  6
CONTINUOUS
 10
32.221690
 20
20.531755
 40
0.250000
 50
90.000000
  1
P106
  7
TQS_CALIBRI
  0
TEXT
  8
1
  6
CONTINUOUS
 10
33.221853
 20
32.349164
 40
0.250000
 50
90.000000
  1
P107
  7
TQS_CALIBRI
  0
TEXT
  8
1
  6
CONTINUOUS
 10
33.854468
 20
39.823900
 40
0.250000
 50
90.000000
  1
P108
  7
TQS_CALIBRI
  0
TEXT
  8
1
  6
CONTINUOUS
 10
18.462156
 20
43.635333
 40
0.250000
 50
90.000000
  1
P102
  7
TQS_CALIBRI
  0
TEXT
  8
1
  6
CONTINUOUS
 10
61.501938
 20
5.730801
 40
0.250000
 50
90.000000
  1
P304
  7
TQS_CALIBRI
  0
TEXT
  8
1
  6
CONTINUOUS
 10
6.991079
 20
33.075663
 40
0.250000
 50
90.000000
  1
P302
  7
TQS_CALIBRI
  0
TEXT
  8
1
  6
CONTINUOUS
 10
60.908051
 20
8.218601
 40
0.250000
 50
90.000000
  1
P118
  7
TQS_CALIBRI
  0
TEXT
  8
1
  6
CONTINUOUS
 10
31.511580
 20
10.667066
 40
0.250000
 50
90.000000
  1
P105
  7
TQS_CALIBRI
  0
TEXT
  8
1
  6
CONTINUOUS
 10
6.971713
 20
23.209015
 40
0.250000
 50
90.000000
  1
P301
  7
TQS_CALIBRI
  0
TEXT
  8
1
  6
CONTINUOUS
 10
7.452777
 20
13.494187
 40
0.250000
 50
90.000000
  1
P92
  7
TQS_CALIBRI
  0
TEXT
  8
1
  6
CONTINUOUS
 10
36.885303
 20
49.033013
 40
0.250000
 50
90.000000
  1
P305
  7
TQS_CALIBRI
  0
TEXT
  8
1
  6
CONTINUOUS
 10
48.231022
 20
48.074646
 40
0.250000
 50
90.000000
  1
P306
  7
TQS_CALIBRI
  0
TEXT
  8
1
  6
CONTINUOUS
 10
59.577909
 20
47.116237
 40
0.250000
 50
90.000000
  1
P307
  7
TQS_CALIBRI
  0
TEXT
  8
1
  6
CONTINUOUS
 10
39.993734
 20
8.024239
 40
0.250000
 50
90.000000
  1
P110
  7
TQS_CALIBRI
  0
TEXT
  8
4
  6
CONTINUOUS
 10
16.426189
 20
32.741704
 40
0.250000
 50
445.162000
  1
C3
  7
TQS_CALIBRI
  0
TEXT
  8
4
  6
CONTINUOUS
 10
16.758335
 20
32.713591
 40
0.250000
 50
445.162000
  1
C4
  7
TQS_CALIBRI
  0
TEXT
  8
4
  6
CONTINUOUS
 10
17.090481
 20
32.685478
 40
0.250000
 50
445.162000
  1
C5
  7
TQS_CALIBRI
  0
TEXT
  8
4
  6
CONTINUOUS
 10
17.422627
 20
32.657365
 40
0.250000
 50
445.162000
  1
C6
  7
TQS_CALIBRI
  0
TEXT
  8
4
  6
CONTINUOUS
 10
31.986456
 20
31.307046
 40
0.250000
 50
445.162000
  1
C7
  7
TQS_CALIBRI
  0
TEXT
  8
4
  6
CONTINUOUS
 10
32.252173
 20
31.284556
 40
0.250000
 50
445.162000
  1
C8
  7
TQS_CALIBRI
  0
TEXT
  8
4
  6
CONTINUOUS
 10
32.517889
 20
31.262065
 40
0.250000
 50
445.162000
  1
C9
  7
TQS_CALIBRI
  0
TEXT
  8
4
  6
CONTINUOUS
 10
32.783606
 20
31.239575
 40
0.250000
 50
445.162000
  1
C10
  7
TQS_CALIBRI
  0
TEXT
  8
4
  6
CONTINUOUS
 10
33.049322
 20
31.217085
 40
0.250000
 50
445.162000
  1
C11
  7
TQS_CALIBRI
  0
TEXT
  8
4
  6
CONTINUOUS
 10
45.254389
 20
28.527957
 40
0.250000
 50
445.162006
  1
C12
  7
TQS_CALIBRI
  0
TEXT
  8
4
  6
CONTINUOUS
 10
45.586535
 20
28.499844
 40
0.250000
 50
445.162006
  1
C13
  7
TQS_CALIBRI
  0
TEXT
  8
4
  6
CONTINUOUS
 10
45.918680
 20
28.471731
 40
0.250000
 50
445.162006
  1
C14
  7
TQS_CALIBRI
  0
TEXT
  8
4
  6
CONTINUOUS
 10
46.250826
 20
28.443618
 40
0.250000
 50
445.162006
  1
C15
  7
TQS_CALIBRI
  0
TEXT
  8
4
  6
CONTINUOUS
 10
61.967549
 20
28.769534
 40
0.250000
 50
445.162001
  1
C16
  7
TQS_CALIBRI
  0
TEXT
  8
4
  6
CONTINUOUS
 10
62.233265
 20
28.747043
 40
0.250000
 50
445.162001
  1
C17
  7
TQS_CALIBRI
  0
TEXT
  8
4
  6
CONTINUOUS
 10
62.498982
 20
28.724553
 40
0.250000
 50
445.162001
  1
C18
  7
TQS_CALIBRI
  0
TEXT
  8
4
  6
CONTINUOUS
 10
62.764698
 20
28.702063
 40
0.250000
 50
445.162001
  1
C19
  7
TQS_CALIBRI
  0
TEXT
  8
4
  6
CONTINUOUS
 10
63.030415
 20
28.679572
 40
0.250000
 50
445.162001
  1
C20
  7
TQS_CALIBRI
  0
TEXT
  8
4
  6
CONTINUOUS
 10
78.386894
 20
27.120538
 40
0.250000
 50
445.162000
  1
C21
  7
TQS_CALIBRI
  0
TEXT
  8
4
  6
CONTINUOUS
 10
78.652611
 20
27.098048
 40
0.250000
 50
445.162000
  1
C22
  7
TQS_CALIBRI
  0
TEXT
  8
4
  6
CONTINUOUS
 10
78.918327
 20
27.075558
 40
0.250000
 50
445.162000
  1
C23
  7
TQS_CALIBRI
  0
TEXT
  8
4
  6
CONTINUOUS
 10
79.184044
 20
27.053067
 40
0.250000
 50
445.162000
  1
C24
  7
TQS_CALIBRI
  0
TEXT
  8
4
  6
CONTINUOUS
 10
79.449760
 20
27.030577
 40
0.250000
 50
445.162000
  1
C25
  7
TQS_CALIBRI
  0
TEXT
  8
4
  6
CONTINUOUS
 10
95.509000
 20
25.671318
 40
0.250000
 50
445.162000
  1
C26
  7
TQS_CALIBRI
  0
TEXT
  8
4
  6
CONTINUOUS
 10
95.940790
 20
25.634772
 40
0.250000
 50
445.162000
  1
C27
  7
TQS_CALIBRI
  0
TEXT
  8
4
  6
CONTINUOUS
 10
96.372579
 20
25.598225
 40
0.250000
 50
445.162000
  1
C28
  7
TQS_CALIBRI
  0
TEXT
  8
4
  6
CONTINUOUS
 10
7.450931
 20
33.382311
 40
0.250000
 50
449.886118
  1
C1
  7
TQS_CALIBRI
  0
TEXT
  8
4
  6
CONTINUOUS
 10
8.117596
 20
33.380986
 40
0.250000
 50
449.886118
  1
C2
  7
TQS_CALIBRI
  0
TEXT
  8
1
  6
CONTINUOUS
 10
10.557072
 20
71.261440
 40
0.220000
  1
CABO
  7
TQS_CALIBRI
  0
TEXT
  8
1
  6
CONTINUOUS
 10
17.621553
 20
71.551440
 40
0.220000
  1
COMPRIMENTO
  7
TQS_CALIBRI
  0
TEXT
  8
1
  6
CONTINUOUS
 10
20.615859
 20
71.051440
 40
0.220000
  1
TOTAL
  7
TQS_CALIBRI
  0
TEXT
  8
1
  6
CONTINUOUS
 10
23.446213
 20
71.051440
 40
0.220000
  1
A
  7
TQS_CALIBRI
  0
TEXT
  8
1
  6
CONTINUOUS
 10
24.491029
 20
71.051440
 40
0.220000
  1
P
  7
TQS_CALIBRI
  0
TEXT
  8
1
  6
CONTINUOUS
 10
25.535845
 20
71.051440
 40
0.220000
  1
I
  7
TQS_CALIBRI
  0
TEXT
  8
1
  6
CONTINUOUS
 10
23.463526
 20
71.551440
 40
0.220000
  1
ANCORAGENS
  7
TQS_CALIBRI
  0
TEXT
  8
1
  6
CONTINUOUS
 10
15.016033
 20
71.261440
 40
0.220000
  1
Q
  7
TQS_CALIBRI
  0
TEXT
  8
1
  6
CONTINUOUS
 10
11.715694
 20
72.211440
 40
0.400000
  1
PROTENSÃO: AÇO
  7
TQS_CALIBRI
  0
TEXT
  8
1
  6
CONTINUOUS
 10
17.034423
 20
71.051440
 40
0.220000
  1
UNITÁRIO
  7
TQS_CALIBRI
  0
TEXT
  8
1
  6
CONTINUOUS
 10
26.490908
 20
71.051440
 40
0.220000
  1
INI
  7
TQS_CALIBRI
  0
TEXT
  8
1
  6
CONTINUOUS
 10
28.058132
 20
71.051440
 40
0.220000
  1
FIN
  7
TQS_CALIBRI
  0
TEXT
  8
1
  6
CONTINUOUS
 10
12.945284
 20
71.263659
 40
0.220000
  1
%%c
  7
TQS_CALIBRI
  0
TEXT
  8
1
  6
CONTINUOUS
 10
26.584674
 20
71.551440
 40
0.220000
  1
ALONG
  7
TQS_CALIBRI
  0
TEXT
  8
1
  6
CONTINUOUS
 10
18.043924
 20
72.211440
 40
0.400000
  1
CP190 RB 12.7 - 12.7
  7
TQS_CALIBRI
  0
TEXT
  8
1
  6
CONTINUOUS
 10
13.230432
 20
71.263659
 40
0.220000
  1
(mm)
  7
TQS_CALIBRI
  0
TEXT
  8
1
  6
CONTINUOUS
 10
20.281629
 20
71.551440
 40
0.220000
  1
(m)
  7
TQS_CALIBRI
  0
TEXT
  8
1
  6
CONTINUOUS
 10
27.772170
 20
71.551440
 40
0.220000
  1
(mm)
  7
TQS_CALIBRI
  0
TEXT
  8
1
  6
CONTINUOUS
 10
10.202494
 20
70.551440
 40
0.220000
  1
C1 A C2
  7
TQS_CALIBRI
  0
TEXT
  8
1
  6
CONTINUOUS
 10
12.555975
 20
70.551440
 40
0.220000
  1
3 %%c 12.7
  7
TQS_CALIBRI
  0
TEXT
  8
1
  6
CONTINUOUS
 10
14.770372
 20
70.551440
 40
0.220000
  1
2
  7
TQS_CALIBRI
  0
TEXT
  8
1
  6
CONTINUOUS
 10
17.006955
 20
70.551440
 40
0.220000
  1
25.8
  7
TQS_CALIBRI
  0
TEXT
  8
1
  6
CONTINUOUS
 10
20.283788
 20
70.551440
 40
0.220000
  1
155.1
  7
TQS_CALIBRI
  0
TEXT
  8
1
  6
CONTINUOUS
 10
23.261760
 20
70.551440
 40
0.220000
  1
6
  7
TQS_CALIBRI
  0
TEXT
  8
1
  6
CONTINUOUS
 10
24.306576
 20
70.551440
 40
0.220000
  1
6
  7
TQS_CALIBRI
  0
TEXT
  8
1
  6
CONTINUOUS
 10
26.343399
 20
70.551440
 40
0.220000
  1
0
  7
TQS_CALIBRI
  0
TEXT
  8
1
  6
CONTINUOUS
 10
27.910623
 20
70.551440
 40
0.220000
  1
176
  7
TQS_CALIBRI
  0
TEXT
  8
1
  6
CONTINUOUS
 10
10.202494
 20
70.051439
 40
0.220000
  1
C3 A C6
  7
TQS_CALIBRI
  0
TEXT
  8
1
  6
CONTINUOUS
 10
12.555975
 20
70.051439
 40
0.220000
  1
4 %%c 12.7
  7
TQS_CALIBRI
  0
TEXT
  8
1
  6
CONTINUOUS
 10
14.770372
 20
70.051439
 40
0.220000
  1
4
  7
TQS_CALIBRI
  0
TEXT
  8
1
  6
CONTINUOUS
 10
17.006955
 20
70.051439
 40
0.220000
  1
25.6
  7
TQS_CALIBRI
  0
TEXT
  8
1
  6
CONTINUOUS
 10
20.283788
 20
70.051439
 40
0.220000
  1
410.4
  7
TQS_CALIBRI
  0
TEXT
  8
1
  6
CONTINUOUS
 10
23.261760
 20
70.051439
 40
0.220000
  1
16
  7
TQS_CALIBRI
  0
TEXT
  8
1
  6
CONTINUOUS
 10
24.306576
 20
70.051439
 40
0.220000
  1
16
  7
TQS_CALIBRI
  0
TEXT
  8
1
  6
CONTINUOUS
 10
26.343399
 20
70.051439
 40
0.220000
  1
0
  7
TQS_CALIBRI
  0
TEXT
  8
1
  6
CONTINUOUS
 10
27.910623
 20
70.051439
 40
0.220000
  1
170
  7
TQS_CALIBRI
  0
TEXT
  8
1
  6
CONTINUOUS
 10
10.202494
 20
69.551438
 40
0.220000
  1
C7 A C11
  7
TQS_CALIBRI
  0
TEXT
  8
1
  6
CONTINUOUS
 10
12.555975
 20
69.551438
 40
0.220000
  1
   "
  7
TQS_CALIBRI
  0
TEXT
  8
1
  6
CONTINUOUS
 10
14.770372
 20
69.551438
 40
0.220000
  1
5
  7
TQS_CALIBRI
  0
TEXT
  8
1
  6
CONTINUOUS
 10
17.006955
 20
69.551438
 40
0.220000
  1
25.8
  7
TQS_CALIBRI
  0
TEXT
  8
1
  6
CONTINUOUS
 10
20.283788
 20
69.551438
 40
0.220000
  1
515.8
  7
TQS_CALIBRI
  0
TEXT
  8
1
  6
CONTINUOUS
 10
23.261760
 20
69.551438
 40
0.220000
  1
20
  7
TQS_CALIBRI
  0
TEXT
  8
1
  6
CONTINUOUS
 10
24.306576
 20
69.551438
 40
0.220000
  1
20
  7
TQS_CALIBRI
  0
TEXT
  8
1
  6
CONTINUOUS
 10
26.343399
 20
69.551438
 40
0.220000
  1
0
  7
TQS_CALIBRI
  0
TEXT
  8
1
  6
CONTINUOUS
 10
27.910623
 20
69.551438
 40
0.220000
  1
172
  7
TQS_CALIBRI
  0
TEXT
  8
1
  6
CONTINUOUS
 10
10.202494
 20
69.051437
 40
0.220000
  1
C12 A C15
  7
TQS_CALIBRI
  0
TEXT
  8
1
  6
CONTINUOUS
 10
12.555975
 20
69.051437
 40
0.220000
  1
   "
  7
TQS_CALIBRI
  0
TEXT
  8
1
  6
CONTINUOUS
 10
14.770372
 20
69.051437
 40
0.220000
  1
4
  7
TQS_CALIBRI
  0
TEXT
  8
1
  6
CONTINUOUS
 10
17.006955
 20
69.051437
 40
0.220000
  1
23.8
  7
TQS_CALIBRI
  0
TEXT
  8
1
  6
CONTINUOUS
 10
20.283788
 20
69.051437
 40
0.220000
  1
380.9
  7
TQS_CALIBRI
  0
TEXT
  8
1
  6
CONTINUOUS
 10
23.261760
 20
69.051437
 40
0.220000
  1
16
  7
TQS_CALIBRI
  0
TEXT
  8
1
  6
CONTINUOUS
 10
24.306576
 20
69.051437
 40
0.220000
  1
16
  7
TQS_CALIBRI
  0
TEXT
  8
1
  6
CONTINUOUS
 10
26.343399
 20
69.051437
 40
0.220000
  1
0
  7
TQS_CALIBRI
  0
TEXT
  8
1
  6
CONTINUOUS
 10
27.910623
 20
69.051437
 40
0.220000
  1
159
  7
TQS_CALIBRI
  0
TEXT
  8
1
  6
CONTINUOUS
 10
10.202494
 20
68.551437
 40
0.220000
  1
C16 A C20
  7
TQS_CALIBRI
  0
TEXT
  8
1
  6
CONTINUOUS
 10
12.555975
 20
68.551437
 40
0.220000
  1
   "
  7
TQS_CALIBRI
  0
TEXT
  8
1
  6
CONTINUOUS
 10
14.770372
 20
68.551437
 40
0.220000
  1
5
  7
TQS_CALIBRI
  0
TEXT
  8
1
  6
CONTINUOUS
 10
17.006955
 20
68.551437
 40
0.220000
  1
25.8
  7
TQS_CALIBRI
  0
TEXT
  8
1
  6
CONTINUOUS
 10
20.283788
 20
68.551437
 40
0.220000
  1
515.8
  7
TQS_CALIBRI
  0
TEXT
  8
1
  6
CONTINUOUS
 10
23.261760
 20
68.551437
 40
0.220000
  1
20
  7
TQS_CALIBRI
  0
TEXT
  8
1
  6
CONTINUOUS
 10
24.306576
 20
68.551437
 40
0.220000
  1
20
  7
TQS_CALIBRI
  0
TEXT
  8
1
  6
CONTINUOUS
 10
26.343399
 20
68.551437
 40
0.220000
  1
0
  7
TQS_CALIBRI
  0
TEXT
  8
1
  6
CONTINUOUS
 10
27.910623
 20
68.551437
 40
0.220000
  1
171
  7
TQS_CALIBRI
  0
TEXT
  8
1
  6
CONTINUOUS
 10
10.202494
 20
68.051436
 40
0.220000
  1
C21 A C25
  7
TQS_CALIBRI
  0
TEXT
  8
1
  6
CONTINUOUS
 10
12.555975
 20
68.051436
 40
0.220000
  1
   "
  7
TQS_CALIBRI
  0
TEXT
  8
1
  6
CONTINUOUS
 10
14.770372
 20
68.051436
 40
0.220000
  1
5
  7
TQS_CALIBRI
  0
TEXT
  8
1
  6
CONTINUOUS
 10
17.006955
 20
68.051436
 40
0.220000
  1
26.1
  7
TQS_CALIBRI
  0
TEXT
  8
1
  6
CONTINUOUS
 10
20.283788
 20
68.051436
 40
0.220000
  1
522
  7
TQS_CALIBRI
  0
TEXT
  8
1
  6
CONTINUOUS
 10
23.261760
 20
68.051436
 40
0.220000
  1
20
  7
TQS_CALIBRI
  0
TEXT
  8
1
  6
CONTINUOUS
 10
24.306576
 20
68.051436
 40
0.220000
  1
20
  7
TQS_CALIBRI
  0
TEXT
  8
1
  6
CONTINUOUS
 10
26.343399
 20
68.051436
 40
0.220000
  1
0
  7
TQS_CALIBRI
  0
TEXT
  8
1
  6
CONTINUOUS
 10
27.910623
 20
68.051436
 40
0.220000
  1
174
  7
TQS_CALIBRI
  0
TEXT
  8
1
  6
CONTINUOUS
 10
10.202494
 20
67.551435
 40
0.220000
  1
C26 A C28
  7
TQS_CALIBRI
  0
TEXT
  8
1
  6
CONTINUOUS
 10
12.555975
 20
67.551435
 40
0.220000
  1
   "
  7
TQS_CALIBRI
  0
TEXT
  8
1
  6
CONTINUOUS
 10
14.770372
 20
67.551435
 40
0.220000
  1
3
  7
TQS_CALIBRI
  0
TEXT
  8
1
  6
CONTINUOUS
 10
17.006955
 20
67.551435
 40
0.220000
  1
26.1
  7
TQS_CALIBRI
  0
TEXT
  8
1
  6
CONTINUOUS
 10
20.283788
 20
67.551435
 40
0.220000
  1
313.2
  7
TQS_CALIBRI
  0
TEXT
  8
1
  6
CONTINUOUS
 10
23.261760
 20
67.551435
 40
0.220000
  1
12
  7
TQS_CALIBRI
  0
TEXT
  8
1
  6
CONTINUOUS
 10
24.306576
 20
67.551435
 40
0.220000
  1
12
  7
TQS_CALIBRI
  0
TEXT
  8
1
  6
CONTINUOUS
 10
26.343399
 20
67.551435
 40
0.220000
  1
0
  7
TQS_CALIBRI
  0
TEXT
  8
1
  6
CONTINUOUS
 10
27.910623
 20
67.551435
 40
0.220000
  1
173
  7
TQS_CALIBRI
  0
TEXT
  8
1
  6
CONTINUOUS
 10
10.688635
 20
64.551435
 40
0.220000
  1
%%c
  7
TQS_CALIBRI
  0
TEXT
  8
1
  6
CONTINUOUS
 10
14.262173
 20
65.051435
 40
0.220000
  1
CABO
  7
TQS_CALIBRI
  0
TEXT
  8
1
  6
CONTINUOUS
 10
20.446733
 20
64.301435
 40
0.220000
  1
A
  7
TQS_CALIBRI
  0
TEXT
  8
1
  6
CONTINUOUS
 10
21.491548
 20
64.301435
 40
0.220000
  1
P
  7
TQS_CALIBRI
  0
TEXT
  8
1
  6
CONTINUOUS
 10
22.536365
 20
64.301435
 40
0.220000
  1
I
  7
TQS_CALIBRI
  0
TEXT
  8
1
  6
CONTINUOUS
 10
16.757932
 20
64.551435
 40
0.220000
  1
PESO
  7
TQS_CALIBRI
  0
TEXT
  8
1
  6
CONTINUOUS
 10
20.516912
 20
65.051435
 40
0.220000
  1
ANCORAGENS
  7
TQS_CALIBRI
  0
TEXT
  8
1
  6
CONTINUOUS
 10
12.595692
 20
66.134767
 40
0.400000
  1
RESUMO DE PROTENSÃO
  7
TQS_CALIBRI
  0
TEXT
  8
1
  6
CONTINUOUS
 10
12.133829
 20
65.572068
 40
0.300000
  1
Monocordoalhas não aderentes
  7
TQS_CALIBRI
  0
TEXT
  8
1
  6
CONTINUOUS
 10
12.524930
 20
64.551435
 40
0.220000
  1
COMPR
  7
TQS_CALIBRI
  0
TEXT
  8
1
  6
CONTINUOUS
 10
14.374718
 20
64.051435
 40
0.220000
  1
kgf/m
  7
TQS_CALIBRI
  0
TEXT
  8
1
  6
CONTINUOUS
 10
16.526495
 20
64.051435
 40
0.220000
  1
kgf
  7
TQS_CALIBRI
  0
TEXT
  8
1
  6
CONTINUOUS
 10
18.340887
 20
64.051435
 40
0.220000
  1
kgf+4%
  7
TQS_CALIBRI
  0
TEXT
  8
1
  6
CONTINUOUS
 10
12.529476
 20
64.051435
 40
0.220000
  1
m
  7
TQS_CALIBRI
  0
TEXT
  8
1
  6
CONTINUOUS
 10
10.667015
 20
64.051435
 40
0.220000
  1
mm
  7
TQS_CALIBRI
  0
TEXT
  8
1
  6
CONTINUOUS
 10
12.254792
 20
63.551434
 40
0.220000
  1
155
  7
TQS_CALIBRI
  0
TEXT
  8
1
  6
CONTINUOUS
 10
21.300389
 20
63.551435
 40
0.220000
  1
6
  7
TQS_CALIBRI
  0
TEXT
  8
1
  6
CONTINUOUS
 10
20.255572
 20
63.551435
 40
0.220000
  1
6
  7
TQS_CALIBRI
  0
TEXT
  8
1
  6
CONTINUOUS
 10
14.374718
 20
63.551434
 40
0.220000
  1
0.886
  7
TQS_CALIBRI
  0
TEXT
  8
1
  6
CONTINUOUS
 10
15.964047
 20
63.551434
 40
0.220000
  1
137
  7
TQS_CALIBRI
  0
TEXT
  8
1
  6
CONTINUOUS
 10
18.024045
 20
63.551434
 40
0.220000
  1
143
  7
TQS_CALIBRI
  0
TEXT
  8
1
  6
CONTINUOUS
 10
10.066859
 20
63.551434
 40
0.220000
  1
3 %%c 12.7
  7
TQS_CALIBRI
  0
TEXT
  8
1
  6
CONTINUOUS
 10
12.254792
 20
63.051433
 40
0.220000
  1
2658
  7
TQS_CALIBRI
  0
TEXT
  8
1
  6
CONTINUOUS
 10
21.300389
 20
63.051434
 40
0.220000
  1
104
  7
TQS_CALIBRI
  0
TEXT
  8
1
  6
CONTINUOUS
 10
20.255572
 20
63.051434
 40
0.220000
  1
104
  7
TQS_CALIBRI
  0
TEXT
  8
1
  6
CONTINUOUS
 10
14.374718
 20
63.051433
 40
0.220000
  1
0.886
  7
TQS_CALIBRI
  0
TEXT
  8
1
  6
CONTINUOUS
 10
15.964047
 20
63.051433
 40
0.220000
  1
2355
  7
TQS_CALIBRI
  0
TEXT
  8
1
  6
CONTINUOUS
 10
18.024045
 20
63.051433
 40
0.220000
  1
2449
  7
TQS_CALIBRI
  0
TEXT
  8
1
  6
CONTINUOUS
 10
10.066859
 20
63.051433
 40
0.220000
  1
4 %%c 12.7
  7
TQS_CALIBRI
  0
TEXT
  8
1
  6
CONTINUOUS
 10
101.932386
 20
23.396411
 40
0.350000
  1
NOTAS:
  7
TQS_CALIBRI
  0
TEXT
  8
2
  6
CONTINUOUS
 10
101.965840
 20
22.812661
 40
0.240000
  1
1) CONFERIR INFORMAÇÕES DA TABELA ACIMA (TABELA DE FERRERAGEM) NA OBRA
  7
TQS_CALIBRI
  0
TEXT
  8
2
  6
CONTINUOUS
 10
101.965840
 20
22.343353
 40
0.240000
  1
ANTES DA COMPRA DAS ARMADURAS.
  7
TQS_CALIBRI
  0
TEXT
  8
1
  6
CONTINUOUS
 10
102.073109
 20
8.835799
 40
0.455000
  1
ENGENHARIA
  7
TQS_CALIBRI
  0
TEXT
  8
1
  6
CONTINUOUS
 10
101.876737
 20
16.222571
 40
0.250000
  1
REV
  7
TQS_CALIBRI
  0
TEXT
  8
1
  6
CONTINUOUS
 10
103.356169
 20
16.222571
 40
0.250000
  1
DATA
  7
TQS_CALIBRI
  0
TEXT
  8
1
  6
CONTINUOUS
 10
105.030516
 20
16.222571
 40
0.250000
  1
ASSUNTO
  7
TQS_CALIBRI
  0
TEXT
  8
1
  6
CONTINUOUS
 10
101.832253
 20
14.047181
 40
0.250000
  1
PROPRIETÁRIO - 
  7
TQS_CALIBRI
  0
TEXT
  8
1
  6
CONTINUOUS
 10
108.042444
 20
2.579059
 40
0.250000
  1
ENGENHEIRO:
  7
TQS_CALIBRI
  0
TEXT
  8
1
  6
CONTINUOUS
 10
108.046365
 20
2.149652
 40
0.250000
  1
CREA REG.:
  7
TQS_CALIBRI
  0
TEXT
  8
1
  6
CONTINUOUS
 10
110.430567
 20
2.160333
 40
0.250000
  1
020930945-8
  7
TQS_CALIBRI
  0
TEXT
  8
1
  6
CONTINUOUS
 10
103.739739
 20
9.759850
 40
1.000000
  1
VGF
  7
TQS_CALIBRI
  0
TEXT
  8
1
  6
CONTINUOUS
 10
101.832253
 20
12.147181
 40
0.250000
  1
PROJETO              Eng. Civil - CREA:020930945-8
  7
TQS_CALIBRI
  0
TEXT
  8
1
  6
CONTINUOUS
 10
101.800510
 20
2.752624
 40
0.150000
  1
DATA:
  7
TQS_CALIBRI
  0
TEXT
  8
1
  6
CONTINUOUS
 10
101.788178
 20
1.752624
 40
0.150000
  1
FASE:
  7
TQS_CALIBRI
  0
TEXT
  8
1
  6
CONTINUOUS
 10
105.124829
 20
2.752624
 40
0.150000
  1
ESCALA:
  7
TQS_CALIBRI
  0
TEXT
  8
1
  6
CONTINUOUS
 10
105.112497
 20
1.752624
 40
0.150000
  1
PLANTA:
  7
TQS_CALIBRI
  0
TEXT
  8
1
  6
CONTINUOUS
 10
101.800510
 20
6.352624
 40
0.150000
  1
TÍTULO:
  7
TQS_CALIBRI
  0
TEXT
  8
1
  6
CONTINUOUS
 10
101.787482
 20
5.577767
 40
0.150000
  1
ELEMENTOS DA PRANCHA:
  7
TQS_CALIBRI
  0
TEXT
  8
1
  6
CONTINUOUS
 10
101.800510
 20
8.252624
 40
0.150000
  1
EMPREENDIMENTO/LOCAL:
  7
TQS_CALIBRI
  0
TEXT
  8
1
  6
CONTINUOUS
 10
106.761120
 20
11.025301
 40
0.150000
  1
CONTATOS:
  7
TQS_CALIBRI
  0
TEXT
  8
1
  6
CONTINUOUS
 10
114.224829
 20
2.752624
 40
0.150000
  1
PLANTA-REVISÃO:
  7
TQS_CALIBRI
  0
TEXT
  8
1
  6
CONTINUOUS
 10
102.041441
 20
16.843956
 40
0.200000
  1
00
  7
TQS_CALIBRI
  0
TEXT
  8
1
  6
CONTINUOUS
 10
102.041441
 20
17.343956
 40
0.200000
  1
01
  7
TQS_CALIBRI
  0
TEXT
  8
1
  6
CONTINUOUS
 10
102.041441
 20
17.843956
 40
0.200000
  1
02
  7
TQS_CALIBRI
  0
TEXT
  8
1
  6
CONTINUOUS
 10
102.041441
 20
18.343956
 40
0.200000
  1
03
  7
TQS_CALIBRI
  0
TEXT
  8
1
  6
CONTINUOUS
 10
102.041441
 20
18.843956
 40
0.200000
  1
04
  7
TQS_CALIBRI
  0
TEXT
  8
1
  6
CONTINUOUS
 10
102.041441
 20
19.343956
 40
0.200000
  1
05
  7
TQS_CALIBRI
  0
TEXT
  8
1
  6
CONTINUOUS
 10
102.041441
 20
19.843956
 40
0.200000
  1
06
  7
TQS_CALIBRI
  0
TEXT
  8
1
  6
CONTINUOUS
 10
102.041441
 20
20.343956
 40
0.200000
  1
07
  7
TQS_CALIBRI
  0
TEXT
  8
1
  6
CONTINUOUS
 10
102.041441
 20
20.843956
 40
0.200000
  1
08
  7
TQS_CALIBRI
  0
TEXT
  8
1
  6
CONTINUOUS
 10
102.041441
 20
21.343956
 40
0.200000
  1
09
  7
TQS_CALIBRI
  0
TEXT
  8
1
  6
CONTINUOUS
 10
102.041441
 20
21.843956
 40
0.200000
  1
10
  7
TQS_CALIBRI
  0
TEXT
  8
1
  6
CONTINUOUS
 10
116.437973
 20
16.222571
 40
0.250000
  1
AUTOR
  7
TQS_CALIBRI
  0
TEXT
  8
1
  6
CONTINUOUS
 10
106.749019
 20
10.335784
 40
0.195000
  1
Tel: 99928-2128
  7
TQS_CALIBRI
  0
TEXT
  8
1
  6
CONTINUOUS
 10
106.749019
 20
10.012284
 40
0.195000
  1
franciscogonca@hotmail.com 
  7
TQS_CALIBRI
  0
TEXT
  8
1
  6
CONTINUOUS
 10
106.749019
 20
9.680784
 40
0.195000
  1
Tel: 99981-6458
  7
TQS_CALIBRI
  0
TEXT
  8
1
  6
CONTINUOUS
 10
106.749019
 20
9.357284
 40
0.195000
  1
tiago@vgfengenharia.com.br 
  7
TQS_CALIBRI
  0
TEXT
  8
1
  6
CONTINUOUS
 10
106.749019
 20
9.025784
 40
0.195000
  1
Tel: 99912-8379
  7
TQS_CALIBRI
  0
TEXT
  8
1
  6
CONTINUOUS
 10
110.809443
 20
11.052624
 40
0.150000
  1
CLIENTE:
  7
TQS_CALIBRI
  0
TEXT
  8
1
  6
CONTINUOUS
 10
116.009770
 20
1.647683
 40
0.500000
  1
-R
  7
TQS_CALIBRI
  0
TEXT
  8
1
  6
CONTINUOUS
 10
101.832253
 20
12.547181
 40
0.250000
  1
RESPONSÁVEL -  Diego de Vasconcelos Gonçalves Ferreira
  7
TQS_CALIBRI
  0
TEXT
  8
1
  6
CONTINUOUS
 10
110.422141
 20
2.578345
 40
0.250000
  1
Diego Vasconcelos
  7
TQS_CALIBRI
  0
TEXT
  8
1
  6
CONTINUOUS
 10
106.749019
 20
10.667284
 40
0.195000
  1
diego@vgfengenharia.com.br 
  7
TQS_CALIBRI
  0
TEXT
  8
1
  6
CONTINUOUS
 10
104.982892
 20
16.853163
 40
0.200000
  1
Emissão inicial.
  7
TQS_CALIBRI
  0
TEXT
  8
1
  6
CONTINUOUS
 10
101.795719
 20
7.825700
 40
0.250000
  1
Assembléia Legislativa de Alagoas
  7
TQS_CALIBRI
  0
TEXT
  8
1
  6
CONTINUOUS
 10
104.517953
 20
14.045361
 40
0.250000
  1
ALA
  7
TQS_CALIBRI
  0
TEXT
  8
1
  6
CONTINUOUS
 10
101.789281
 20
2.263237
 40
0.250000
  1
27/02/2024
  7
TQS_CALIBRI
  0
TEXT
  8
1
  6
CONTINUOUS
 10
102.992347
 20
16.854551
 40
0.200000
  1
27/02/24
  7
TQS_CALIBRI
  0
TEXT
  8
1
  6
CONTINUOUS
 10
101.787954
 20
7.415393
 40
0.200000
  1
RUA SÁ E ALBUQUERQUE, NÚMERO 807, JARAGUÁ - MACEIÓ-AL
  7
TQS_CALIBRI
  0
TEXT
  8
1
  6
CONTINUOUS
 10
101.789859
 20
1.251887
 40
0.250000
  1
PE
  7
TQS_CALIBRI
  0
TEXT
  8
1
  6
CONTINUOUS
 10
105.113600
 20
2.263237
 40
0.250000
  1
1:50
  7
TQS_CALIBRI
  0
TEXT
  8
1
  6
CONTINUOUS
 10
105.114178
 20
1.251887
 40
0.250000
  1
CLA-EEM-EST-PE-0536-ARM-R00
  7
TQS_CALIBRI
  0
TEXT
  8
1
  6
CONTINUOUS
 10
116.547332
 20
16.842370
 40
0.200000
  1
DIEGO
  7
TQS_CALIBRI
  0
TEXT
  8
1
  6
CONTINUOUS
 10
114.396264
 20
1.644018
 40
0.500000
  1
0536
  7
TQS_CALIBRI
  0
TEXT
  8
1
  6
CONTINUOUS
 10
116.689770
 20
1.647683
 40
0.500000
  1
00
  7
TQS_CALIBRI
  0
TEXT
  8
1
  6
CONTINUOUS
 10
110.802729
 20
10.513659
 40
0.400000
  1
ALA
  7
TQS_CALIBRI
  0
TEXT
  8
1
  6
CONTINUOUS
 10
101.762319
 20
5.951739
 40
0.250000
  1
ARM. PROTENSÃO HORIZONTAL (04-3Pavto) - 01 - J
  7
TQS_CALIBRI
  0
ENDSEC
  0
EOF
