  0
SECTION
  2
HEADER
  9
$ACADVER
  1
AC1002
  9
$USERI1
 70
0
  9
$INSBASE
 10
0.000000
 20
0.000000
  9
$EXTMIN
 10
0.000000
 20
0.000000
  9
$EXTMAX
 10
7.761771
 20
4.436620
  9
$LIMMIN
 10
0.000000
 20
0.000000
  9
$LIMMAX
 10
12.000000
 20
9.000000
  9
$VIEWCTR
 10
78.887138
 20
59.361758
  9
$VIEWSIZE
 40
127.522840
  9
$TEXTSIZE
 40
0.100000
  9
$TRACEWID
 40
0.010000
  9
$LTSCALE
 40
1.000000
  0
ENDSEC
  0
SECTION
  2
TABLES
  0
TABLE
  2
LTYPE
 70
     3
  0
LTYPE
  2
CONTINUOUS
 70
    64
  3
Solid line
 72
    65
 73
     0
 40
0.000000
  0
LTYPE
  2
ESTILO_TQS_0001
 70
    64
  3
-  -  -  -  -  -
 72
    65
 73
     2
 40
1.000000
 49
0.700000
 49
-0.300000
  0
LTYPE
  2
ESTILO_TQS_0002
 70
    64
  3
. . . . . . . .
 72
    65
 73
     2
 40
0.400000
 49
0.100000
 49
-0.300000
  0
LTYPE
  2
ESTILO_TQS_0003
 70
    64
  3
- . - . - . - .
 72
    65
 73
     4
 40
0.910000
 49
0.500000
 49
-0.200000
 49
0.010000
 49
-0.200000
  0
LTYPE
  2
ESTILO_TQS_0004
 70
    64
  3
- .. - .. - ..
 72
    65
 73
     6
 40
1.120000
 49
0.500000
 49
-0.200000
 49
0.010000
 49
-0.200000
 49
0.010000
 49
-0.200000
  0
LTYPE
  2
CONTINUOUS
 70
    64
  3
- - - - - - - -
 72
    65
 73
     2
 40
0.400000
 49
0.300000
 49
-0.100000
  0
ENDTAB
  0
TABLE
  2
LAYER
 70
    89
  0
LAYER
  2
0
 70
     0
 62
     7
  6
CONTINUOUS
  0
LAYER
  2
1
 70
     0
 62
     1
  6
CONTINUOUS
  0
LAYER
  2
2
 70
     0
 62
     2
  6
CONTINUOUS
  0
LAYER
  2
3
 70
     0
 62
     3
  6
CONTINUOUS
  0
LAYER
  2
4
 70
     0
 62
     4
  6
CONTINUOUS
  0
LAYER
  2
5
 70
     0
 62
     5
  6
CONTINUOUS
  0
LAYER
  2
6
 70
     0
 62
     6
  6
CONTINUOUS
  0
LAYER
  2
7
 70
     0
 62
     7
  6
CONTINUOUS
  0
LAYER
  2
8
 70
     0
 62
     8
  6
CONTINUOUS
  0
LAYER
  2
9
 70
     0
 62
     9
  6
CONTINUOUS
  0
LAYER
  2
10
 70
     0
 62
    10
  6
CONTINUOUS
  0
LAYER
  2
11
 70
     0
 62
    11
  6
CONTINUOUS
  0
LAYER
  2
12
 70
     0
 62
    12
  6
CONTINUOUS
  0
LAYER
  2
13
 70
     0
 62
    13
  6
CONTINUOUS
  0
LAYER
  2
14
 70
     0
 62
    14
  6
CONTINUOUS
  0
LAYER
  2
15
 70
     0
 62
    15
  6
CONTINUOUS
  0
LAYER
  2
16
 70
     0
 62
     7
  6
CONTINUOUS
  0
LAYER
  2
17
 70
     0
 62
     2
  6
CONTINUOUS
  0
LAYER
  2
18
 70
     0
 62
     4
  6
CONTINUOUS
  0
LAYER
  2
19
 70
     0
 62
     5
  6
CONTINUOUS
  0
LAYER
  2
20
 70
     0
 62
     4
  6
CONTINUOUS
  0
LAYER
  2
21
 70
     0
 62
     2
  6
CONTINUOUS
  0
LAYER
  2
22
 70
     0
 62
     1
  6
CONTINUOUS
  0
LAYER
  2
23
 70
     0
 62
     7
  6
CONTINUOUS
  0
LAYER
  2
24
 70
     0
 62
     6
  6
CONTINUOUS
  0
LAYER
  2
25
 70
     0
 62
     1
  6
CONTINUOUS
  0
LAYER
  2
26
 70
     0
 62
     3
  6
CONTINUOUS
  0
LAYER
  2
27
 70
     0
 62
     4
  6
CONTINUOUS
  0
LAYER
  2
28
 70
     0
 62
     4
  6
CONTINUOUS
  0
LAYER
  2
30
 70
     0
 62
     4
  6
CONTINUOUS
  0
LAYER
  2
100
 70
     0
 62
     1
  6
CONTINUOUS
  0
LAYER
  2
101
 70
     0
 62
     9
  6
CONTINUOUS
  0
LAYER
  2
102
 70
     0
 62
     7
  6
CONTINUOUS
  0
LAYER
  2
103
 70
     0
 62
     2
  6
CONTINUOUS
  0
LAYER
  2
104
 70
     0
 62
    11
  6
CONTINUOUS
  0
LAYER
  2
105
 70
     0
 62
     3
  6
CONTINUOUS
  0
LAYER
  2
106
 70
     0
 62
     5
  6
CONTINUOUS
  0
LAYER
  2
107
 70
     0
 62
     3
  6
CONTINUOUS
  0
LAYER
  2
108
 70
     0
 62
     5
  6
CONTINUOUS
  0
LAYER
  2
109
 70
     0
 62
     3
  6
CONTINUOUS
  0
LAYER
  2
197
 70
     0
 62
     3
  6
CONTINUOUS
  0
LAYER
  2
198
 70
     0
 62
     2
  6
CONTINUOUS
  0
LAYER
  2
199
 70
     0
 62
     6
  6
CONTINUOUS
  0
LAYER
  2
200
 70
     0
 62
     7
  6
ESTILO_TQS_0002
  0
LAYER
  2
201
 70
     0
 62
     7
  6
ESTILO_TQS_0001
  0
LAYER
  2
202
 70
     0
 62
     7
  6
CONTINUOUS
  0
LAYER
  2
203
 70
     0
 62
     7
  6
ESTILO_TQS_0001
  0
LAYER
  2
204
 70
     0
 62
     7
  6
ESTILO_TQS_0003
  0
LAYER
  2
205
 70
     0
 62
     5
  6
ESTILO_TQS_0004
  0
LAYER
  2
206
 70
     0
 62
    15
  6
CONTINUOUS
  0
LAYER
  2
207
 70
     0
 62
     2
  6
CONTINUOUS
  0
LAYER
  2
208
 70
     0
 62
     5
  6
CONTINUOUS
  0
LAYER
  2
210
 70
     0
 62
    15
  6
ESTILO_TQS_0002
  0
LAYER
  2
211
 70
     0
 62
     7
  6
ESTILO_TQS_0001
  0
LAYER
  2
214
 70
     0
 62
    15
  6
CONTINUOUS
  0
LAYER
  2
215
 70
     0
 62
     2
  6
CONTINUOUS
  0
LAYER
  2
216
 70
     0
 62
     3
  6
CONTINUOUS
  0
LAYER
  2
217
 70
     0
 62
     3
  6
CONTINUOUS
  0
LAYER
  2
218
 70
     0
 62
     2
  6
CONTINUOUS
  0
LAYER
  2
219
 70
     0
 62
    15
  6
CONTINUOUS
  0
LAYER
  2
220
 70
     0
 62
    10
  6
CONTINUOUS
  0
LAYER
  2
221
 70
     0
 62
    11
  6
CONTINUOUS
  0
LAYER
  2
222
 70
     0
 62
    12
  6
CONTINUOUS
  0
LAYER
  2
223
 70
     0
 62
     6
  6
CONTINUOUS
  0
LAYER
  2
224
 70
     0
 62
     1
  6
CONTINUOUS
  0
LAYER
  2
225
 70
     0
 62
    15
  6
CONTINUOUS
  0
LAYER
  2
226
 70
     0
 62
     2
  6
CONTINUOUS
  0
LAYER
  2
227
 70
     0
 62
    10
  6
CONTINUOUS
  0
LAYER
  2
228
 70
     0
 62
    11
  6
CONTINUOUS
  0
LAYER
  2
229
 70
     0
 62
    12
  6
CONTINUOUS
  0
LAYER
  2
230
 70
     0
 62
     6
  6
CONTINUOUS
  0
LAYER
  2
231
 70
     0
 62
     3
  6
CONTINUOUS
  0
LAYER
  2
232
 70
     0
 62
    12
  6
CONTINUOUS
  0
LAYER
  2
233
 70
     0
 62
     4
  6
CONTINUOUS
  0
LAYER
  2
234
 70
     0
 62
    13
  6
CONTINUOUS
  0
LAYER
  2
235
 70
     0
 62
     5
  6
CONTINUOUS
  0
LAYER
  2
236
 70
     0
 62
     2
  6
CONTINUOUS
  0
LAYER
  2
237
 70
     0
 62
     6
  6
CONTINUOUS
  0
LAYER
  2
238
 70
     0
 62
    12
  6
CONTINUOUS
  0
LAYER
  2
239
 70
     0
 62
    11
  6
CONTINUOUS
  0
LAYER
  2
240
 70
     0
 62
    11
  6
CONTINUOUS
  0
LAYER
  2
241
 70
     0
 62
    12
  6
CONTINUOUS
  0
ENDTAB
  0
TABLE
  2
STYLE
 70
     1
  0
STYLE
  2
STANDARD
 70
    64
 40
0.000000
 41
1.000000
 50
0.000000
 71
     0
 42
0.200000
  3
ROMANS.SHX
  4

  0
STYLE
  2
TQS_CALIBRI
 70
     0
 40
0.000000
 41
1.000000
 50
0.000000
 71
     0
 42
0.200000
  3
calibri.ttf
  0
STYLE
  2
TQS_CALIBRI_U
 70
     0
 40
0.000000
 41
1.000000
 50
0.000000
 71
     0
 42
0.200000
  3
calibri.ttf
  0
STYLE
  2
TQS_CALIBRI_I
 70
     0
 40
0.000000
 41
1.000000
 50
0.000000
 71
     0
 42
0.200000
  3
calibri.ttf
  0
STYLE
  2
TQS_CALIBRI_I_U
 70
     0
 40
0.000000
 41
1.000000
 50
0.000000
 71
     0
 42
0.200000
  3
calibri.ttf
  0
STYLE
  2
TQS_CALIBRI_B
 70
     0
 40
0.000000
 41
1.000000
 50
0.000000
 71
     0
 42
0.200000
  3
calibri.ttf
  0
STYLE
  2
TQS_CALIBRI_B_U
 70
     0
 40
0.000000
 41
1.000000
 50
0.000000
 71
     0
 42
0.200000
  3
calibri.ttf
  0
STYLE
  2
TQS_CALIBRI_B_I
 70
     0
 40
0.000000
 41
1.000000
 50
0.000000
 71
     0
 42
0.200000
  3
calibri.ttf
  0
STYLE
  2
TQS_CALIBRI_B_I_U
 70
     0
 40
0.000000
 41
1.000000
 50
0.000000
 71
     0
 42
0.200000
  3
calibri.ttf
  0
ENDTAB
  0
TABLE
  2
VIEW
 70
     0
  0
ENDTAB
  0
ENDSEC
  0
SECTION
  2
BLOCKS
  0
BLOCK
  8
0
  2
_PLWTQS
 70
    64
 10
0.000000
 20
0.000000
  0
TEXT
  8
0
  6
CONTINUOUS
 10
0.000000
 20
0.000000
 40
0.200000
  1
$PLWDWGGlBMVwAAAAAAAChABAAAAM6yCb6hufiVc4Ho9MHTpD1vyhvt7hJwnwE2bCTV2IpwvJI2iacX6uuOxCjmNvNiIeq6g71pYPn8PjQR5dE28B+9kNOSA9U7rtOIGGh00FsA1Y6fcuOJNkXE9AVP/UchdP6pZUXPysmy6RJLXSF1CoA=
  7
TQS_CALIBRI
  0
TEXT
  8
0
  6
CONTINUOUS
 10
0.000000
 20
-0.250000
 40
0.200000
  1
$PLWDWGBG83Vs05KLjkaNt+wFBl2IJYbOJvGklXgFG2hxq28RAdLjTtpQ3PMNyb5RRIKJ9FrEho2s2tcVmscb7yiJ2m3F4xMB0ZCgDZVPT9WOuuIsyC9kASAnYLpnXqigf7XSaSL2cnlHi3x/5u55uDfRQ6PzdclmgKv7uXJf2K+h5e82I=
  7
TQS_CALIBRI
  0
TEXT
  8
0
  6
CONTINUOUS
 10
0.000000
 20
-0.500000
 40
0.200000
  1
$PLWDWGKaPjAoL637PCgzzIjmrbV4CzVYDJWOWQ6hz9YEB2NHsAG/51o0qCWWMShcHJHo9WB0R63yxiD/K8ibbi/i0z+h7K9B16gfTuTwk24qHAqVvRVXGNav7Tb2S1iMhww8XvImrx8eGQiUdAopuMWrAvI2b/Puj7NTrdcAxQ8fc8NRo=
  7
TQS_CALIBRI
  0
TEXT
  8
0
  6
CONTINUOUS
 10
0.000000
 20
-0.750000
 40
0.200000
  1
$PLWDWGujgIjUHWGS8e/DcDQ3q2Z9ldfFlqoBYs5ROXRNr9AWL7XxUYq3G03Ug+PuTRMWVCxovhC6nSLrzKSVGFOi95HEt7SpcS7lXLVh2zQFqCyB8D3KhWvxdzAReMPKo+UYxhc9GVR5ZV4eLBTyGHDZizfIEnkYVGHQ+uv3K8KIEoHjM=
  7
TQS_CALIBRI
  0
TEXT
  8
0
  6
CONTINUOUS
 10
0.000000
 20
-1.000000
 40
0.200000
  1
$PLWDWGmQW/Me21WxSYKNAR/CGO9XwAS25VLEtQMT3L7IEsDV1Lv0fnwFn8uRHFF8Wjwou/4zUuJ9MVOxV99kaCuCcOWcAOu88SxuMqIWEiLqCzsF5AdLW/sA986x/Nl/DHURHkBB15e2hCO0yc5k00HHBAy38H0jTQyMuNUK8KQyRz1bQ=
  7
TQS_CALIBRI
  0
TEXT
  8
0
  6
CONTINUOUS
 10
0.000000
 20
-1.250000
 40
0.200000
  1
$PLWDWGjk7T30+qMtkmxKIsQIlNT2IxHET0dSQhq91KKOi8FNWUd+zQh1KgU3macAUN84ubL0N2AoWhUpKZJnojIuYCmRrCB3Aabco67N3869KOh8ML8r/mcLk5ROfyL7WJiyvEj8unBabim+XbpHyt8hQt4CKyzyXZrMGts7cz/1U2BaA=
  7
TQS_CALIBRI
  0
TEXT
  8
0
  6
CONTINUOUS
 10
0.000000
 20
-1.500000
 40
0.200000
  1
$PLWDWGu2KKd15ZMT6zOv8G95SapKZFuFXW7rI34Osk/7olmLE+f4E5vsO1xINLkD6A//pyYb9uUZQflcmyUcYYnvJ6+/VV/oscxMA4iWVZujHzyDordvX5Ld9sLDEchT9I+HHM/mLLDjlqIWREpy895NkJiJcgJUIyUGo7io9n9Fkl7TM=
  7
TQS_CALIBRI
  0
TEXT
  8
0
  6
CONTINUOUS
 10
0.000000
 20
-1.750000
 40
0.200000
  1
$PLWDWGdNsFvZ6ug02Wkyu+iE2K6wLIAo7n2tiCMsyoGkx0FltdYg1KVlgWvTjEQIpXeN9xmsHNUkysCTcAAAAAbqZgpquOr10EuSZlNXJshprBzVJMrAk3AAAAAA==
  7
TQS_CALIBRI
  0
ENDBLK
  8
0
  0
ENDSEC
  0
SECTION
  2
ENTITIES
  0
SOLID
  8
13
  6
CONTINUOUS
 10
102.095046
 20
10.244446
 11
102.095046
 21
9.498246
 12
101.971546
 22
9.498246
 13
101.971546
 23
9.498246
  0
SOLID
  8
13
  6
CONTINUOUS
 10
102.095046
 20
10.244446
 11
101.971546
 21
9.498246
 12
101.971546
 22
11.162246
 13
101.971546
 23
11.162246
  0
SOLID
  8
13
  6
CONTINUOUS
 10
102.095046
 20
10.244446
 11
101.971546
 21
11.162246
 12
102.095046
 22
11.162246
 13
102.095046
 23
11.162246
  0
SOLID
  8
13
  6
CONTINUOUS
 10
102.095046
 20
10.244446
 11
102.095046
 21
11.162246
 12
102.095046
 22
10.244446
 13
102.095046
 23
10.244446
  0
SOLID
  8
13
  6
CONTINUOUS
 10
102.522746
 20
10.230979
 11
102.522746
 21
9.498246
 12
102.095046
 22
9.498246
 13
102.095046
 23
9.498246
  0
SOLID
  8
13
  6
CONTINUOUS
 10
102.522746
 20
10.230979
 11
102.095046
 21
9.498246
 12
102.095046
 22
10.244446
 13
102.095046
 23
10.244446
  0
SOLID
  8
13
  6
CONTINUOUS
 10
102.522746
 20
10.230979
 11
102.095046
 21
10.244446
 12
102.143544
 22
10.248642
 13
102.143544
 23
10.248642
  0
SOLID
  8
13
  6
CONTINUOUS
 10
102.522746
 20
10.230979
 11
102.143544
 21
10.248642
 12
102.211078
 22
10.252071
 13
102.211078
 23
10.252071
  0
SOLID
  8
13
  6
CONTINUOUS
 10
102.522746
 20
10.230979
 11
102.211078
 21
10.252071
 12
102.259959
 22
10.252484
 13
102.259959
 23
10.252484
  0
SOLID
  8
13
  6
CONTINUOUS
 10
102.522746
 20
10.230979
 11
102.259959
 21
10.252484
 12
102.290321
 22
10.252141
 13
102.290321
 23
10.252141
  0
SOLID
  8
13
  6
CONTINUOUS
 10
102.522746
 20
10.230979
 11
102.290321
 21
10.252141
 12
102.334203
 22
10.250668
 13
102.334203
 23
10.250668
  0
SOLID
  8
13
  6
CONTINUOUS
 10
102.522746
 20
10.230979
 11
102.334203
 21
10.250668
 12
102.394518
 22
10.246747
 13
102.394518
 23
10.246747
  0
SOLID
  8
13
  6
CONTINUOUS
 10
102.522746
 20
10.230979
 11
102.394518
 21
10.246747
 12
102.446340
 22
10.241621
 13
102.446340
 23
10.241621
  0
SOLID
  8
13
  6
CONTINUOUS
 10
102.522746
 20
10.230979
 11
102.446340
 21
10.241621
 12
102.490083
 22
10.235974
 13
102.490083
 23
10.235974
  0
SOLID
  8
13
  6
CONTINUOUS
 10
102.522746
 20
10.230979
 11
102.490083
 21
10.235974
 12
102.522746
 22
10.230979
 13
102.522746
 23
10.230979
  0
SOLID
  8
13
  6
CONTINUOUS
 10
102.594246
 20
10.217654
 11
102.594246
 21
9.498246
 12
103.021946
 22
9.498246
 13
103.021946
 23
9.498246
  0
SOLID
  8
13
  6
CONTINUOUS
 10
102.594246
 20
10.217654
 11
103.021946
 21
9.498246
 12
103.021946
 22
10.064184
 13
103.021946
 23
10.064184
  0
SOLID
  8
13
  6
CONTINUOUS
 10
102.594246
 20
10.217654
 11
103.021946
 21
10.064184
 12
103.003898
 22
10.073542
 13
103.003898
 23
10.073542
  0
SOLID
  8
13
  6
CONTINUOUS
 10
102.594246
 20
10.217654
 11
103.003898
 21
10.073542
 12
102.981716
 22
10.084501
 13
102.981716
 23
10.084501
  0
SOLID
  8
13
  6
CONTINUOUS
 10
102.594246
 20
10.217654
 11
102.981716
 21
10.084501
 12
102.953307
 22
10.098271
 13
102.953307
 23
10.098271
  0
SOLID
  8
13
  6
CONTINUOUS
 10
102.594246
 20
10.217654
 11
102.953307
 21
10.098271
 12
102.912865
 22
10.116383
 13
102.912865
 23
10.116383
  0
SOLID
  8
13
  6
CONTINUOUS
 10
102.594246
 20
10.217654
 11
102.912865
 21
10.116383
 12
102.885024
 22
10.128001
 13
102.885024
 23
10.128001
  0
SOLID
  8
13
  6
CONTINUOUS
 10
102.594246
 20
10.217654
 11
102.885024
 21
10.128001
 12
102.844071
 22
10.144755
 13
102.844071
 23
10.144755
  0
SOLID
  8
13
  6
CONTINUOUS
 10
102.594246
 20
10.217654
 11
102.844071
 21
10.144755
 12
102.813490
 22
10.155923
 13
102.813490
 23
10.155923
  0
SOLID
  8
13
  6
CONTINUOUS
 10
102.594246
 20
10.217654
 11
102.813490
 21
10.155923
 12
102.778388
 22
10.168156
 13
102.778388
 23
10.168156
  0
SOLID
  8
13
  6
CONTINUOUS
 10
102.594246
 20
10.217654
 11
102.778388
 21
10.168156
 12
102.744083
 22
10.178793
 13
102.744083
 23
10.178793
  0
SOLID
  8
13
  6
CONTINUOUS
 10
102.594246
 20
10.217654
 11
102.744083
 21
10.178793
 12
102.703465
 22
10.191172
 13
102.703465
 23
10.191172
  0
SOLID
  8
13
  6
CONTINUOUS
 10
102.594246
 20
10.217654
 11
102.703465
 21
10.191172
 12
102.665141
 22
10.201162
 13
102.665141
 23
10.201162
  0
SOLID
  8
13
  6
CONTINUOUS
 10
102.594246
 20
10.217654
 11
102.665141
 21
10.201162
 12
102.624819
 22
10.210970
 13
102.624819
 23
10.210970
  0
SOLID
  8
13
  6
CONTINUOUS
 10
102.594246
 20
10.217654
 11
102.624819
 21
10.210970
 12
102.594246
 22
10.217654
 13
102.594246
 23
10.217654
  0
SOLID
  8
13
  6
CONTINUOUS
 10
103.093446
 20
10.024343
 11
103.093446
 21
9.498246
 12
103.521146
 22
9.498246
 13
103.521146
 23
9.498246
  0
SOLID
  8
13
  6
CONTINUOUS
 10
103.093446
 20
10.024343
 11
103.521146
 21
9.498246
 12
103.521146
 22
9.661030
 13
103.521146
 23
9.661030
  0
SOLID
  8
13
  6
CONTINUOUS
 10
103.093446
 20
10.024343
 11
103.521146
 21
9.661030
 12
103.507797
 22
9.676793
 13
103.507797
 23
9.676793
  0
SOLID
  8
13
  6
CONTINUOUS
 10
103.093446
 20
10.024343
 11
103.507797
 21
9.676793
 12
103.495964
 22
9.690528
 13
103.495964
 23
9.690528
  0
SOLID
  8
13
  6
CONTINUOUS
 10
103.093446
 20
10.024343
 11
103.495964
 21
9.690528
 12
103.473877
 22
9.715277
 13
103.473877
 23
9.715277
  0
SOLID
  8
13
  6
CONTINUOUS
 10
103.093446
 20
10.024343
 11
103.473877
 21
9.715277
 12
103.454164
 22
9.736530
 13
103.454164
 23
9.736530
  0
SOLID
  8
13
  6
CONTINUOUS
 10
103.093446
 20
10.024343
 11
103.454164
 21
9.736530
 12
103.434048
 22
9.757502
 13
103.434048
 23
9.757502
  0
SOLID
  8
13
  6
CONTINUOUS
 10
103.093446
 20
10.024343
 11
103.434048
 21
9.757502
 12
103.410015
 22
9.781535
 13
103.410015
 23
9.781535
  0
SOLID
  8
13
  6
CONTINUOUS
 10
103.093446
 20
10.024343
 11
103.410015
 21
9.781535
 12
103.399294
 22
9.791943
 13
103.399294
 23
9.791943
  0
SOLID
  8
13
  6
CONTINUOUS
 10
103.093446
 20
10.024343
 11
103.399294
 21
9.791943
 12
103.388429
 22
9.802406
 13
103.388429
 23
9.802406
  0
SOLID
  8
13
  6
CONTINUOUS
 10
103.093446
 20
10.024343
 11
103.388429
 21
9.802406
 12
103.359952
 22
9.828752
 13
103.359952
 23
9.828752
  0
SOLID
  8
13
  6
CONTINUOUS
 10
103.093446
 20
10.024343
 11
103.359952
 21
9.828752
 12
103.325139
 22
9.859181
 13
103.325139
 23
9.859181
  0
SOLID
  8
13
  6
CONTINUOUS
 10
103.093446
 20
10.024343
 11
103.325139
 21
9.859181
 12
103.286846
 22
9.890826
 13
103.286846
 23
9.890826
  0
SOLID
  8
13
  6
CONTINUOUS
 10
103.093446
 20
10.024343
 11
103.286846
 21
9.890826
 12
103.251036
 22
9.918745
 13
103.251036
 23
9.918745
  0
SOLID
  8
13
  6
CONTINUOUS
 10
103.093446
 20
10.024343
 11
103.251036
 21
9.918745
 12
103.200839
 22
9.955427
 13
103.200839
 23
9.955427
  0
SOLID
  8
13
  6
CONTINUOUS
 10
103.093446
 20
10.024343
 11
103.200839
 21
9.955427
 12
103.134352
 22
9.999676
 13
103.134352
 23
9.999676
  0
SOLID
  8
13
  6
CONTINUOUS
 10
103.093446
 20
10.024343
 11
103.134352
 21
9.999676
 12
103.093446
 22
10.024343
 13
103.093446
 23
10.024343
  0
SOLID
  8
13
  6
CONTINUOUS
 10
102.522746
 20
10.635283
 11
102.522746
 21
11.162246
 12
102.095046
 22
11.162246
 13
102.095046
 23
11.162246
  0
SOLID
  8
13
  6
CONTINUOUS
 10
102.522746
 20
10.635283
 11
102.095046
 21
11.162246
 12
102.095046
 22
10.995122
 13
102.095046
 23
10.995122
  0
SOLID
  8
13
  6
CONTINUOUS
 10
102.522746
 20
10.635283
 11
102.095046
 21
10.995122
 12
102.153689
 22
10.929235
 13
102.153689
 23
10.929235
  0
SOLID
  8
13
  6
CONTINUOUS
 10
102.522746
 20
10.635283
 11
102.153689
 21
10.929235
 12
102.237359
 22
10.846559
 13
102.237359
 23
10.846559
  0
SOLID
  8
13
  6
CONTINUOUS
 10
102.522746
 20
10.635283
 11
102.237359
 21
10.846559
 12
102.308389
 22
10.784730
 13
102.308389
 23
10.784730
  0
SOLID
  8
13
  6
CONTINUOUS
 10
102.522746
 20
10.635283
 11
102.308389
 21
10.784730
 12
102.366624
 22
10.739274
 13
102.366624
 23
10.739274
  0
SOLID
  8
13
  6
CONTINUOUS
 10
102.522746
 20
10.635283
 11
102.366624
 21
10.739274
 12
102.406322
 22
10.710064
 13
102.406322
 23
10.710064
  0
SOLID
  8
13
  6
CONTINUOUS
 10
102.522746
 20
10.635283
 11
102.406322
 21
10.710064
 12
102.455827
 22
10.676682
 13
102.455827
 23
10.676682
  0
SOLID
  8
13
  6
CONTINUOUS
 10
102.522746
 20
10.635283
 11
102.455827
 21
10.676682
 12
102.493954
 22
10.652515
 13
102.493954
 23
10.652515
  0
SOLID
  8
13
  6
CONTINUOUS
 10
102.522746
 20
10.635283
 11
102.493954
 21
10.652515
 12
102.522746
 22
10.635283
 13
102.522746
 23
10.635283
  0
SOLID
  8
13
  6
CONTINUOUS
 10
103.021946
 20
10.443678
 11
103.021946
 21
11.162246
 12
102.594246
 22
11.162246
 13
102.594246
 23
11.162246
  0
SOLID
  8
13
  6
CONTINUOUS
 10
103.021946
 20
10.443678
 11
102.594246
 21
11.162246
 12
102.594246
 22
10.595859
 13
102.594246
 23
10.595859
  0
SOLID
  8
13
  6
CONTINUOUS
 10
103.021946
 20
10.443678
 11
102.594246
 21
10.595859
 12
102.663800
 22
10.561766
 13
102.663800
 23
10.561766
  0
SOLID
  8
13
  6
CONTINUOUS
 10
103.021946
 20
10.443678
 11
102.663800
 21
10.561766
 12
102.744359
 22
10.527375
 13
102.744359
 23
10.527375
  0
SOLID
  8
13
  6
CONTINUOUS
 10
103.021946
 20
10.443678
 11
102.744359
 21
10.527375
 12
102.812197
 22
10.501464
 13
102.812197
 23
10.501464
  0
SOLID
  8
13
  6
CONTINUOUS
 10
103.021946
 20
10.443678
 11
102.812197
 21
10.501464
 12
102.889458
 22
10.476967
 13
102.889458
 23
10.476967
  0
SOLID
  8
13
  6
CONTINUOUS
 10
103.021946
 20
10.443678
 11
102.889458
 21
10.476967
 12
102.950702
 22
10.460007
 13
102.950702
 23
10.460007
  0
SOLID
  8
13
  6
CONTINUOUS
 10
103.021946
 20
10.443678
 11
102.950702
 21
10.460007
 12
103.021946
 22
10.443678
 13
103.021946
 23
10.443678
  0
SOLID
  8
13
  6
CONTINUOUS
 10
103.093446
 20
10.430307
 11
103.093446
 21
11.162246
 12
103.521146
 22
11.162246
 13
103.521146
 23
11.162246
  0
SOLID
  8
13
  6
CONTINUOUS
 10
103.093446
 20
10.430307
 11
103.521146
 21
11.162246
 12
103.521146
 22
10.417580
 13
103.521146
 23
10.417580
  0
SOLID
  8
13
  6
CONTINUOUS
 10
103.093446
 20
10.430307
 11
103.521146
 21
10.417580
 12
103.476372
 22
10.413637
 13
103.476372
 23
10.413637
  0
SOLID
  8
13
  6
CONTINUOUS
 10
103.093446
 20
10.430307
 11
103.476372
 21
10.413637
 12
103.416577
 22
10.410480
 13
103.416577
 23
10.410480
  0
SOLID
  8
13
  6
CONTINUOUS
 10
103.093446
 20
10.430307
 11
103.416577
 21
10.410480
 12
103.366788
 22
10.409453
 13
103.366788
 23
10.409453
  0
SOLID
  8
13
  6
CONTINUOUS
 10
103.093446
 20
10.430307
 11
103.366788
 21
10.409453
 12
103.336830
 22
10.409453
 13
103.336830
 23
10.409453
  0
SOLID
  8
13
  6
CONTINUOUS
 10
103.093446
 20
10.430307
 11
103.336830
 21
10.409453
 12
103.286182
 22
10.410821
 13
103.286182
 23
10.410821
  0
SOLID
  8
13
  6
CONTINUOUS
 10
103.093446
 20
10.430307
 11
103.286182
 21
10.410821
 12
103.241261
 22
10.413321
 13
103.241261
 23
10.413321
  0
SOLID
  8
13
  6
CONTINUOUS
 10
103.093446
 20
10.430307
 11
103.241261
 21
10.413321
 12
103.205545
 22
10.416539
 13
103.205545
 23
10.416539
  0
SOLID
  8
13
  6
CONTINUOUS
 10
103.093446
 20
10.430307
 11
103.205545
 21
10.416539
 12
103.155349
 22
10.421044
 13
103.155349
 23
10.421044
  0
SOLID
  8
13
  6
CONTINUOUS
 10
103.093446
 20
10.430307
 11
103.155349
 21
10.421044
 12
103.093446
 22
10.430307
 13
103.093446
 23
10.430307
  0
SOLID
  8
13
  6
CONTINUOUS
 10
102.594246
 20
9.498246
 11
102.594246
 21
11.162246
 12
102.522746
 22
11.162246
 13
102.522746
 23
11.162246
  0
SOLID
  8
13
  6
CONTINUOUS
 10
102.594246
 20
9.498246
 11
102.522746
 21
11.162246
 12
102.522746
 22
9.498246
 13
102.522746
 23
9.498246
  0
SOLID
  8
13
  6
CONTINUOUS
 10
102.594246
 20
9.498246
 11
102.522746
 21
9.498246
 12
102.522746
 22
9.498246
 13
102.522746
 23
9.498246
  0
SOLID
  8
13
  6
CONTINUOUS
 10
103.021946
 20
11.162246
 11
103.093446
 21
11.162246
 12
103.093446
 22
9.498246
 13
103.093446
 23
9.498246
  0
SOLID
  8
13
  6
CONTINUOUS
 10
103.021946
 20
11.162246
 11
103.093446
 21
9.498246
 12
103.021946
 22
9.498246
 13
103.021946
 23
9.498246
  0
SOLID
  8
13
  6
CONTINUOUS
 10
103.021946
 20
11.162246
 11
103.021946
 21
9.498246
 12
103.021946
 22
11.162246
 13
103.021946
 23
11.162246
  0
SOLID
  8
13
  6
CONTINUOUS
 10
103.521146
 20
9.498246
 11
103.635546
 21
9.498246
 12
103.635546
 22
11.162246
 13
103.635546
 23
11.162246
  0
SOLID
  8
13
  6
CONTINUOUS
 10
103.521146
 20
9.498246
 11
103.635546
 21
11.162246
 12
103.521146
 22
11.162246
 13
103.521146
 23
11.162246
  0
SOLID
  8
13
  6
CONTINUOUS
 10
103.521146
 20
9.498246
 11
103.521146
 21
11.162246
 12
103.521146
 22
9.498246
 13
103.521146
 23
9.498246
  0
POLYLINE
  8
1
  6
CONTINUOUS
 66
     1
  0
VERTEX
  8
1
  6
CONTINUOUS
 10
98.503418
 20
48.081868
  0
VERTEX
  8
1
  6
CONTINUOUS
 10
99.828642
 20
47.969709
  0
SEQEND
  8
1
  6
CONTINUOUS
  0
POLYLINE
  8
1
  6
CONTINUOUS
 66
     1
  0
VERTEX
  8
1
  6
CONTINUOUS
 10
99.870808
 20
48.467928
  0
VERTEX
  8
1
  6
CONTINUOUS
 10
98.545500
 20
48.580094
  0
SEQEND
  8
1
  6
CONTINUOUS
  0
POLYLINE
  8
1
  6
CONTINUOUS
 66
     1
  0
VERTEX
  8
1
  6
CONTINUOUS
 10
88.672051
 20
48.913939
  0
VERTEX
  8
1
  6
CONTINUOUS
 10
97.340907
 20
48.180256
  0
SEQEND
  8
1
  6
CONTINUOUS
  0
POLYLINE
  8
1
  6
CONTINUOUS
 66
     1
  0
VERTEX
  8
1
  6
CONTINUOUS
 10
97.382989
 20
48.678482
  0
VERTEX
  8
1
  6
CONTINUOUS
 10
88.714134
 20
49.412165
  0
SEQEND
  8
1
  6
CONTINUOUS
  0
POLYLINE
  8
1
  6
CONTINUOUS
 66
     1
  0
VERTEX
  8
1
  6
CONTINUOUS
 10
77.877310
 20
49.827544
  0
VERTEX
  8
1
  6
CONTINUOUS
 10
88.173832
 20
48.956105
  0
SEQEND
  8
1
  6
CONTINUOUS
  0
POLYLINE
  8
1
  6
CONTINUOUS
 66
     1
  0
VERTEX
  8
1
  6
CONTINUOUS
 10
88.215915
 20
49.454331
  0
VERTEX
  8
1
  6
CONTINUOUS
 10
77.919393
 20
50.325770
  0
SEQEND
  8
1
  6
CONTINUOUS
  0
POLYLINE
  8
1
  6
CONTINUOUS
 66
     1
  0
VERTEX
  8
1
  6
CONTINUOUS
 10
68.743298
 20
50.600594
  0
VERTEX
  8
1
  6
CONTINUOUS
 10
77.379091
 20
49.869710
  0
SEQEND
  8
1
  6
CONTINUOUS
  0
POLYLINE
  8
1
  6
CONTINUOUS
 66
     1
  0
VERTEX
  8
1
  6
CONTINUOUS
 10
77.421174
 20
50.367936
  0
VERTEX
  8
1
  6
CONTINUOUS
 10
68.785381
 20
51.098820
  0
SEQEND
  8
1
  6
CONTINUOUS
  0
POLYLINE
  8
1
  6
CONTINUOUS
 66
     1
  0
VERTEX
  8
1
  6
CONTINUOUS
 10
60.814544
 20
51.271639
  0
VERTEX
  8
1
  6
CONTINUOUS
 10
68.245080
 20
50.642761
  0
SEQEND
  8
1
  6
CONTINUOUS
  0
POLYLINE
  8
1
  6
CONTINUOUS
 66
     1
  0
VERTEX
  8
1
  6
CONTINUOUS
 10
68.287162
 20
51.140987
  0
VERTEX
  8
1
  6
CONTINUOUS
 10
60.856626
 20
51.769865
  0
SEQEND
  8
1
  6
CONTINUOUS
  0
POLYLINE
  8
1
  6
CONTINUOUS
 66
     1
  0
VERTEX
  8
1
  6
CONTINUOUS
 10
99.828642
 20
47.969709
  0
VERTEX
  8
1
  6
CONTINUOUS
 10
99.870808
 20
48.467928
  0
SEQEND
  8
1
  6
CONTINUOUS
  0
POLYLINE
  8
1
  6
CONTINUOUS
 66
     1
  0
VERTEX
  8
1
  6
CONTINUOUS
 10
27.825825
 20
54.063512
  0
VERTEX
  8
1
  6
CONTINUOUS
 10
36.129473
 20
53.360753
  0
SEQEND
  8
1
  6
CONTINUOUS
  0
POLYLINE
  8
1
  6
CONTINUOUS
 66
     1
  0
VERTEX
  8
1
  6
CONTINUOUS
 10
36.171555
 20
53.858979
  0
VERTEX
  8
1
  6
CONTINUOUS
 10
27.867907
 20
54.561738
  0
SEQEND
  8
1
  6
CONTINUOUS
  0
POLYLINE
  8
1
  6
CONTINUOUS
 66
     1
  0
VERTEX
  8
1
  6
CONTINUOUS
 10
18.241128
 20
54.874689
  0
VERTEX
  8
1
  6
CONTINUOUS
 10
27.327606
 20
54.105677
  0
SEQEND
  8
1
  6
CONTINUOUS
  0
POLYLINE
  8
1
  6
CONTINUOUS
 66
     1
  0
VERTEX
  8
1
  6
CONTINUOUS
 10
27.369688
 20
54.603903
  0
VERTEX
  8
1
  6
CONTINUOUS
 10
18.283210
 20
55.372915
  0
SEQEND
  8
1
  6
CONTINUOUS
  0
POLYLINE
  8
1
  6
CONTINUOUS
 66
     1
  0
VERTEX
  8
1
  6
CONTINUOUS
 10
9.439261
 20
55.619613
  0
VERTEX
  8
1
  6
CONTINUOUS
 10
17.742909
 20
54.916854
  0
SEQEND
  8
1
  6
CONTINUOUS
  0
POLYLINE
  8
1
  6
CONTINUOUS
 66
     1
  0
VERTEX
  8
1
  6
CONTINUOUS
 10
17.784991
 20
55.415080
  0
VERTEX
  8
1
  6
CONTINUOUS
 10
9.481343
 20
56.117839
  0
SEQEND
  8
1
  6
CONTINUOUS
  0
POLYLINE
  8
1
  6
CONTINUOUS
 66
     1
  0
VERTEX
  8
1
  6
CONTINUOUS
 10
7.196555
 20
55.809419
  0
VERTEX
  8
1
  6
CONTINUOUS
 10
8.276750
 20
55.717999
  0
SEQEND
  8
1
  6
CONTINUOUS
  0
POLYLINE
  8
1
  6
CONTINUOUS
 66
     1
  0
VERTEX
  8
1
  6
CONTINUOUS
 10
8.318832
 20
56.216225
  0
VERTEX
  8
1
  6
CONTINUOUS
 10
6.697635
 20
56.353431
  0
SEQEND
  8
1
  6
CONTINUOUS
  0
POLYLINE
  8
1
  6
CONTINUOUS
 66
     1
  0
VERTEX
  8
1
  6
CONTINUOUS
 10
94.911528
 20
5.649728
  0
VERTEX
  8
1
  6
CONTINUOUS
 10
96.236781
 20
5.537541
  0
SEQEND
  8
1
  6
CONTINUOUS
  0
POLYLINE
  8
1
  6
CONTINUOUS
 66
     1
  0
VERTEX
  8
1
  6
CONTINUOUS
 10
96.278956
 20
6.035759
  0
VERTEX
  8
1
  6
CONTINUOUS
 10
94.953706
 20
6.147946
  0
SEQEND
  8
1
  6
CONTINUOUS
  0
POLYLINE
  8
1
  6
CONTINUOUS
 66
     1
  0
VERTEX
  8
1
  6
CONTINUOUS
 10
82.015355
 20
6.741425
  0
VERTEX
  8
1
  6
CONTINUOUS
 10
94.413310
 20
5.691903
  0
SEQEND
  8
1
  6
CONTINUOUS
  0
POLYLINE
  8
1
  6
CONTINUOUS
 66
     1
  0
VERTEX
  8
1
  6
CONTINUOUS
 10
94.455488
 20
6.190121
  0
VERTEX
  8
1
  6
CONTINUOUS
 10
82.057533
 20
7.239643
  0
SEQEND
  8
1
  6
CONTINUOUS
  0
POLYLINE
  8
1
  6
CONTINUOUS
 66
     1
  0
VERTEX
  8
1
  6
CONTINUOUS
 10
72.050994
 20
7.584936
  0
VERTEX
  8
1
  6
CONTINUOUS
 10
81.517137
 20
6.783601
  0
SEQEND
  8
1
  6
CONTINUOUS
  0
POLYLINE
  8
1
  6
CONTINUOUS
 66
     1
  0
VERTEX
  8
1
  6
CONTINUOUS
 10
81.559315
 20
7.281819
  0
VERTEX
  8
1
  6
CONTINUOUS
 10
72.093172
 20
8.083154
  0
SEQEND
  8
1
  6
CONTINUOUS
  0
POLYLINE
  8
1
  6
CONTINUOUS
 66
     1
  0
VERTEX
  8
1
  6
CONTINUOUS
 10
61.992434
 20
8.436422
  0
VERTEX
  8
1
  6
CONTINUOUS
 10
71.552776
 20
7.627112
  0
SEQEND
  8
1
  6
CONTINUOUS
  0
POLYLINE
  8
1
  6
CONTINUOUS
 66
     1
  0
VERTEX
  8
1
  6
CONTINUOUS
 10
71.594954
 20
8.125330
  0
VERTEX
  8
1
  6
CONTINUOUS
 10
62.034604
 20
8.934640
  0
SEQEND
  8
1
  6
CONTINUOUS
  0
POLYLINE
  8
1
  6
CONTINUOUS
 66
     1
  0
VERTEX
  8
1
  6
CONTINUOUS
 10
96.236781
 20
5.537541
  0
VERTEX
  8
1
  6
CONTINUOUS
 10
96.278956
 20
6.035759
  0
SEQEND
  8
1
  6
CONTINUOUS
  0
POLYLINE
  8
1
  6
CONTINUOUS
 66
     1
  0
VERTEX
  8
1
  6
CONTINUOUS
 10
6.653120
 20
33.957246
  0
VERTEX
  8
1
  6
CONTINUOUS
 10
6.634503
 20
24.590597
  0
SEQEND
  8
1
  6
CONTINUOUS
  0
POLYLINE
  8
1
  6
CONTINUOUS
 66
     1
  0
VERTEX
  8
1
  6
CONTINUOUS
 10
7.134502
 20
24.589620
  0
VERTEX
  8
1
  6
CONTINUOUS
 10
7.153119
 20
33.956268
  0
SEQEND
  8
1
  6
CONTINUOUS
  0
POLYLINE
  8
1
  6
CONTINUOUS
 66
     1
  0
VERTEX
  8
1
  6
CONTINUOUS
 10
6.668623
 20
41.757230
  0
VERTEX
  8
1
  6
CONTINUOUS
 10
6.654114
 20
34.457245
  0
SEQEND
  8
1
  6
CONTINUOUS
  0
POLYLINE
  8
1
  6
CONTINUOUS
 66
     1
  0
VERTEX
  8
1
  6
CONTINUOUS
 10
7.154113
 20
34.456267
  0
VERTEX
  8
1
  6
CONTINUOUS
 10
7.168622
 20
41.756253
  0
SEQEND
  8
1
  6
CONTINUOUS
  0
POLYLINE
  8
1
  6
CONTINUOUS
 66
     1
  0
VERTEX
  8
1
  6
CONTINUOUS
 10
6.693303
 20
54.173872
  0
VERTEX
  8
1
  6
CONTINUOUS
 10
6.669617
 20
42.257229
  0
SEQEND
  8
1
  6
CONTINUOUS
  0
POLYLINE
  8
1
  6
CONTINUOUS
 66
     1
  0
VERTEX
  8
1
  6
CONTINUOUS
 10
7.169616
 20
42.256252
  0
VERTEX
  8
1
  6
CONTINUOUS
 10
7.193302
 20
54.172895
  0
SEQEND
  8
1
  6
CONTINUOUS
  0
POLYLINE
  8
1
  6
CONTINUOUS
 66
     1
  0
VERTEX
  8
1
  6
CONTINUOUS
 10
6.697635
 20
56.353431
  0
VERTEX
  8
1
  6
CONTINUOUS
 10
6.694297
 20
54.673871
  0
SEQEND
  8
1
  6
CONTINUOUS
  0
POLYLINE
  8
1
  6
CONTINUOUS
 66
     1
  0
VERTEX
  8
1
  6
CONTINUOUS
 10
7.194296
 20
54.672894
  0
VERTEX
  8
1
  6
CONTINUOUS
 10
7.196555
 20
55.809419
  0
SEQEND
  8
1
  6
CONTINUOUS
  0
POLYLINE
  8
1
  6
CONTINUOUS
 66
     1
  0
VERTEX
  8
1
  6
CONTINUOUS
 10
7.148916
 20
14.375768
  0
VERTEX
  8
1
  6
CONTINUOUS
 10
7.147429
 20
13.615040
  0
SEQEND
  8
1
  6
CONTINUOUS
  0
POLYLINE
  8
1
  6
CONTINUOUS
 66
     1
  0
VERTEX
  8
1
  6
CONTINUOUS
 10
7.614935
 20
14.043797
  0
VERTEX
  8
1
  6
CONTINUOUS
 10
7.615582
 20
14.374856
  0
SEQEND
  8
1
  6
CONTINUOUS
  0
POLYLINE
  8
1
  6
CONTINUOUS
 66
     1
  0
VERTEX
  8
1
  6
CONTINUOUS
 10
7.166862
 20
23.556222
  0
VERTEX
  8
1
  6
CONTINUOUS
 10
7.149894
 20
14.875767
  0
SEQEND
  8
1
  6
CONTINUOUS
  0
POLYLINE
  8
1
  6
CONTINUOUS
 66
     1
  0
VERTEX
  8
1
  6
CONTINUOUS
 10
7.616559
 20
14.874855
  0
VERTEX
  8
1
  6
CONTINUOUS
 10
7.633528
 20
23.555309
  0
SEQEND
  8
1
  6
CONTINUOUS
  0
POLYLINE
  8
1
  6
CONTINUOUS
 66
     1
  0
VERTEX
  8
1
  6
CONTINUOUS
 10
51.641199
 20
9.848170
  0
VERTEX
  8
1
  6
CONTINUOUS
 10
61.007779
 20
9.055190
  0
SEQEND
  8
1
  6
CONTINUOUS
  0
POLYLINE
  8
1
  6
CONTINUOUS
 66
     1
  0
VERTEX
  8
1
  6
CONTINUOUS
 10
61.047137
 20
9.520194
  0
VERTEX
  8
1
  6
CONTINUOUS
 10
51.680557
 20
10.313174
  0
SEQEND
  8
1
  6
CONTINUOUS
  0
POLYLINE
  8
1
  6
CONTINUOUS
 66
     1
  0
VERTEX
  8
1
  6
CONTINUOUS
 10
41.403028
 20
10.714940
  0
VERTEX
  8
1
  6
CONTINUOUS
 10
50.810836
 20
9.918469
  0
SEQEND
  8
1
  6
CONTINUOUS
  0
POLYLINE
  8
1
  6
CONTINUOUS
 66
     1
  0
VERTEX
  8
1
  6
CONTINUOUS
 10
50.850194
 20
10.383473
  0
VERTEX
  8
1
  6
CONTINUOUS
 10
41.442387
 20
11.179944
  0
SEQEND
  8
1
  6
CONTINUOUS
  0
POLYLINE
  8
1
  6
CONTINUOUS
 66
     1
  0
VERTEX
  8
1
  6
CONTINUOUS
 10
31.636021
 20
11.541821
  0
VERTEX
  8
1
  6
CONTINUOUS
 10
40.572666
 20
10.785239
  0
SEQEND
  8
1
  6
CONTINUOUS
  0
POLYLINE
  8
1
  6
CONTINUOUS
 66
     1
  0
VERTEX
  8
1
  6
CONTINUOUS
 10
40.612024
 20
11.250243
  0
VERTEX
  8
1
  6
CONTINUOUS
 10
31.675379
 20
12.006825
  0
SEQEND
  8
1
  6
CONTINUOUS
  0
POLYLINE
  8
1
  6
CONTINUOUS
 66
     1
  0
VERTEX
  8
1
  6
CONTINUOUS
 10
22.304682
 20
12.331818
  0
VERTEX
  8
1
  6
CONTINUOUS
 10
31.137804
 20
11.584000
  0
SEQEND
  8
1
  6
CONTINUOUS
  0
POLYLINE
  8
1
  6
CONTINUOUS
 66
     1
  0
VERTEX
  8
1
  6
CONTINUOUS
 10
31.177162
 20
12.049004
  0
VERTEX
  8
1
  6
CONTINUOUS
 10
22.344040
 20
12.796822
  0
SEQEND
  8
1
  6
CONTINUOUS
  0
POLYLINE
  8
1
  6
CONTINUOUS
 66
     1
  0
VERTEX
  8
1
  6
CONTINUOUS
 10
14.789897
 20
12.968024
  0
VERTEX
  8
1
  6
CONTINUOUS
 10
21.806464
 20
12.373997
  0
SEQEND
  8
1
  6
CONTINUOUS
  0
POLYLINE
  8
1
  6
CONTINUOUS
 66
     1
  0
VERTEX
  8
1
  6
CONTINUOUS
 10
21.845822
 20
12.839001
  0
VERTEX
  8
1
  6
CONTINUOUS
 10
14.829255
 20
13.433028
  0
SEQEND
  8
1
  6
CONTINUOUS
  0
POLYLINE
  8
1
  6
CONTINUOUS
 66
     1
  0
VERTEX
  8
1
  6
CONTINUOUS
 10
7.147429
 20
13.615040
  0
VERTEX
  8
1
  6
CONTINUOUS
 10
14.291680
 20
13.010204
  0
SEQEND
  8
1
  6
CONTINUOUS
  0
POLYLINE
  8
1
  6
CONTINUOUS
 66
     1
  0
VERTEX
  8
1
  6
CONTINUOUS
 10
14.331038
 20
13.475208
  0
VERTEX
  8
1
  6
CONTINUOUS
 10
7.614935
 20
14.043797
  0
SEQEND
  8
1
  6
CONTINUOUS
  0
POLYLINE
  8
1
  6
CONTINUOUS
 66
     1
  0
VERTEX
  8
1
  6
CONTINUOUS
 10
59.652125
 20
51.369935
  0
VERTEX
  8
1
  6
CONTINUOUS
 10
59.409533
 20
48.497817
  0
SEQEND
  8
1
  6
CONTINUOUS
  0
POLYLINE
  8
1
  6
CONTINUOUS
 66
     1
  0
VERTEX
  8
1
  6
CONTINUOUS
 10
59.741679
 20
48.469704
  0
VERTEX
  8
1
  6
CONTINUOUS
 10
59.984275
 20
51.341880
  0
SEQEND
  8
1
  6
CONTINUOUS
  0
POLYLINE
  8
1
  6
CONTINUOUS
 66
     1
  0
VERTEX
  8
1
  6
CONTINUOUS
 10
48.366684
 20
49.096026
  0
VERTEX
  8
1
  6
CONTINUOUS
 10
59.381420
 20
48.165671
  0
SEQEND
  8
1
  6
CONTINUOUS
  0
POLYLINE
  8
1
  6
CONTINUOUS
 66
     1
  0
VERTEX
  8
1
  6
CONTINUOUS
 10
59.409533
 20
48.497817
  0
VERTEX
  8
1
  6
CONTINUOUS
 10
48.394796
 20
49.428171
  0
SEQEND
  8
1
  6
CONTINUOUS
  0
POLYLINE
  8
1
  6
CONTINUOUS
 66
     1
  0
VERTEX
  8
1
  6
CONTINUOUS
 10
37.020961
 20
50.054336
  0
VERTEX
  8
1
  6
CONTINUOUS
 10
48.034533
 20
49.124080
  0
SEQEND
  8
1
  6
CONTINUOUS
  0
POLYLINE
  8
1
  6
CONTINUOUS
 66
     1
  0
VERTEX
  8
1
  6
CONTINUOUS
 10
48.062646
 20
49.456226
  0
VERTEX
  8
1
  6
CONTINUOUS
 10
37.049074
 20
50.386482
  0
SEQEND
  8
1
  6
CONTINUOUS
  0
POLYLINE
  8
1
  6
CONTINUOUS
 66
     1
  0
VERTEX
  8
1
  6
CONTINUOUS
 10
36.959840
 20
53.290505
  0
VERTEX
  8
1
  6
CONTINUOUS
 10
36.716928
 20
50.414593
  0
SEQEND
  8
1
  6
CONTINUOUS
  0
POLYLINE
  8
1
  6
CONTINUOUS
 66
     1
  0
VERTEX
  8
1
  6
CONTINUOUS
 10
37.049074
 20
50.386482
  0
VERTEX
  8
1
  6
CONTINUOUS
 10
37.291991
 20
53.262450
  0
SEQEND
  8
1
  6
CONTINUOUS
  0
LINE
  8
1
  6
CONTINUOUS
 10
96.279051
 20
6.036262
 11
99.828642
 21
47.969630
  0
LINE
  8
1
  6
CONTINUOUS
 10
61.537009
 20
8.976970
 11
61.503188
 21
8.979834
  0
LINE
  8
1
  6
CONTINUOUS
 10
61.503188
 20
8.979834
 11
61.506000
 21
9.013044
  0
LINE
  8
1
  6
CONTINUOUS
 10
7.167839
 20
24.056221
 11
7.134506
 21
24.056221
  0
LINE
  8
1
  6
CONTINUOUS
 10
7.134506
 20
24.056221
 11
7.134506
 21
24.089619
  0
LINE
  8
1
  6
CONTINUOUS
 10
78.560754
 20
17.989526
 11
78.560754
 21
17.989526
  0
POLYLINE
  8
1
  6
CONTINUOUS
 66
     1
  0
VERTEX
  8
1
  6
CONTINUOUS
 10
78.940795
 20
17.539203
  0
VERTEX
  8
1
  6
CONTINUOUS
 10
79.011077
 20
18.369567
  0
VERTEX
  8
1
  6
CONTINUOUS
 10
78.180713
 20
18.439849
  0
VERTEX
  8
1
  6
CONTINUOUS
 10
78.110431
 20
17.609485
  0
VERTEX
  8
1
  6
CONTINUOUS
 10
78.940795
 20
17.539203
  0
SEQEND
  8
1
  6
CONTINUOUS
  0
LINE
  8
1
  6
CONTINUOUS
 10
79.476729
 20
28.810485
 11
79.476729
 21
28.810485
  0
POLYLINE
  8
1
  6
CONTINUOUS
 66
     1
  0
VERTEX
  8
1
  6
CONTINUOUS
 10
79.856770
 20
28.360162
  0
VERTEX
  8
1
  6
CONTINUOUS
 10
79.927053
 20
29.190526
  0
VERTEX
  8
1
  6
CONTINUOUS
 10
79.096688
 20
29.260809
  0
VERTEX
  8
1
  6
CONTINUOUS
 10
79.026406
 20
28.430444
  0
VERTEX
  8
1
  6
CONTINUOUS
 10
79.856770
 20
28.360162
  0
SEQEND
  8
1
  6
CONTINUOUS
  0
LINE
  8
1
  6
CONTINUOUS
 10
80.353158
 20
39.164236
 11
80.353158
 21
39.164236
  0
POLYLINE
  8
1
  6
CONTINUOUS
 66
     1
  0
VERTEX
  8
1
  6
CONTINUOUS
 10
80.733199
 20
38.713912
  0
VERTEX
  8
1
  6
CONTINUOUS
 10
80.803481
 20
39.544277
  0
VERTEX
  8
1
  6
CONTINUOUS
 10
79.973117
 20
39.614559
  0
VERTEX
  8
1
  6
CONTINUOUS
 10
79.902834
 20
38.784195
  0
VERTEX
  8
1
  6
CONTINUOUS
 10
80.733199
 20
38.713912
  0
SEQEND
  8
1
  6
CONTINUOUS
  0
LINE
  8
1
  6
CONTINUOUS
 10
61.953479
 20
19.395299
 11
61.953479
 21
19.395299
  0
POLYLINE
  8
1
  6
CONTINUOUS
 66
     1
  0
VERTEX
  8
1
  6
CONTINUOUS
 10
62.333520
 20
18.944975
  0
VERTEX
  8
1
  6
CONTINUOUS
 10
62.403803
 20
19.775340
  0
VERTEX
  8
1
  6
CONTINUOUS
 10
61.573438
 20
19.845622
  0
VERTEX
  8
1
  6
CONTINUOUS
 10
61.503156
 20
19.015258
  0
VERTEX
  8
1
  6
CONTINUOUS
 10
62.333520
 20
18.944975
  0
SEQEND
  8
1
  6
CONTINUOUS
  0
LINE
  8
1
  6
CONTINUOUS
 10
63.042556
 20
30.285238
 11
63.042556
 21
30.285238
  0
POLYLINE
  8
1
  6
CONTINUOUS
 66
     1
  0
VERTEX
  8
1
  6
CONTINUOUS
 10
63.422597
 20
29.834915
  0
VERTEX
  8
1
  6
CONTINUOUS
 10
63.492879
 20
30.665279
  0
VERTEX
  8
1
  6
CONTINUOUS
 10
62.662515
 20
30.735561
  0
VERTEX
  8
1
  6
CONTINUOUS
 10
62.592232
 20
29.905197
  0
VERTEX
  8
1
  6
CONTINUOUS
 10
63.422597
 20
29.834915
  0
SEQEND
  8
1
  6
CONTINUOUS
  0
LINE
  8
1
  6
CONTINUOUS
 10
63.911955
 20
40.555952
 11
63.911955
 21
40.555952
  0
POLYLINE
  8
1
  6
CONTINUOUS
 66
     1
  0
VERTEX
  8
1
  6
CONTINUOUS
 10
64.291996
 20
40.105629
  0
VERTEX
  8
1
  6
CONTINUOUS
 10
64.362279
 20
40.935993
  0
VERTEX
  8
1
  6
CONTINUOUS
 10
63.531914
 20
41.006275
  0
VERTEX
  8
1
  6
CONTINUOUS
 10
63.461632
 20
40.175911
  0
VERTEX
  8
1
  6
CONTINUOUS
 10
64.291996
 20
40.105629
  0
SEQEND
  8
1
  6
CONTINUOUS
  0
LINE
  8
1
  6
CONTINUOUS
 10
45.470108
 20
20.288796
 11
45.470108
 21
20.288796
  0
POLYLINE
  8
1
  6
CONTINUOUS
 66
     1
  0
VERTEX
  8
1
  6
CONTINUOUS
 10
45.670019
 20
19.686457
  0
VERTEX
  8
1
  6
CONTINUOUS
 10
45.768415
 20
20.848967
  0
VERTEX
  8
1
  6
CONTINUOUS
 10
45.270196
 20
20.891136
  0
VERTEX
  8
1
  6
CONTINUOUS
 10
45.171801
 20
19.728626
  0
VERTEX
  8
1
  6
CONTINUOUS
 10
45.670019
 20
19.686457
  0
SEQEND
  8
1
  6
CONTINUOUS
  0
LINE
  8
1
  6
CONTINUOUS
 10
46.470422
 20
32.106193
 11
46.470422
 21
32.106193
  0
POLYLINE
  8
1
  6
CONTINUOUS
 66
     1
  0
VERTEX
  8
1
  6
CONTINUOUS
 10
46.670333
 20
31.503853
  0
VERTEX
  8
1
  6
CONTINUOUS
 10
46.768729
 20
32.666363
  0
VERTEX
  8
1
  6
CONTINUOUS
 10
46.270510
 20
32.708533
  0
VERTEX
  8
1
  6
CONTINUOUS
 10
46.172115
 20
31.546023
  0
VERTEX
  8
1
  6
CONTINUOUS
 10
46.670333
 20
31.503853
  0
SEQEND
  8
1
  6
CONTINUOUS
  0
LINE
  8
1
  6
CONTINUOUS
 10
47.346850
 20
42.459943
 11
47.346850
 21
42.459943
  0
POLYLINE
  8
1
  6
CONTINUOUS
 66
     1
  0
VERTEX
  8
1
  6
CONTINUOUS
 10
47.546762
 20
41.857603
  0
VERTEX
  8
1
  6
CONTINUOUS
 10
47.645157
 20
43.020113
  0
VERTEX
  8
1
  6
CONTINUOUS
 10
47.146938
 20
43.062283
  0
VERTEX
  8
1
  6
CONTINUOUS
 10
47.048543
 20
41.899773
  0
VERTEX
  8
1
  6
CONTINUOUS
 10
47.546762
 20
41.857603
  0
SEQEND
  8
1
  6
CONTINUOUS
  0
LINE
  8
1
  6
CONTINUOUS
 10
16.493043
 20
22.741623
 11
16.493043
 21
22.741623
  0
POLYLINE
  8
1
  6
CONTINUOUS
 66
     1
  0
VERTEX
  8
1
  6
CONTINUOUS
 10
16.692955
 20
22.139283
  0
VERTEX
  8
1
  6
CONTINUOUS
 10
16.791350
 20
23.301793
  0
VERTEX
  8
1
  6
CONTINUOUS
 10
16.293132
 20
23.343962
  0
VERTEX
  8
1
  6
CONTINUOUS
 10
16.194737
 20
22.181452
  0
VERTEX
  8
1
  6
CONTINUOUS
 10
16.692955
 20
22.139283
  0
SEQEND
  8
1
  6
CONTINUOUS
  0
LINE
  8
1
  6
CONTINUOUS
 10
17.493357
 20
34.559019
 11
17.493357
 21
34.559019
  0
POLYLINE
  8
1
  6
CONTINUOUS
 66
     1
  0
VERTEX
  8
1
  6
CONTINUOUS
 10
17.693269
 20
33.956680
  0
VERTEX
  8
1
  6
CONTINUOUS
 10
17.791664
 20
35.119190
  0
VERTEX
  8
1
  6
CONTINUOUS
 10
17.293446
 20
35.161359
  0
VERTEX
  8
1
  6
CONTINUOUS
 10
17.195051
 20
33.998849
  0
VERTEX
  8
1
  6
CONTINUOUS
 10
17.693269
 20
33.956680
  0
SEQEND
  8
1
  6
CONTINUOUS
  0
LINE
  8
1
  6
CONTINUOUS
 10
95.524839
 20
16.847047
 11
95.524839
 21
16.847047
  0
POLYLINE
  8
1
  6
CONTINUOUS
 66
     1
  0
VERTEX
  8
1
  6
CONTINUOUS
 10
95.828872
 20
16.486788
  0
VERTEX
  8
1
  6
CONTINUOUS
 10
95.885098
 20
17.151080
  0
VERTEX
  8
1
  6
CONTINUOUS
 10
95.220807
 20
17.207305
  0
VERTEX
  8
1
  6
CONTINUOUS
 10
95.164581
 20
16.543014
  0
VERTEX
  8
1
  6
CONTINUOUS
 10
95.828872
 20
16.486788
  0
SEQEND
  8
1
  6
CONTINUOUS
  0
LINE
  8
1
  6
CONTINUOUS
 10
96.396275
 20
27.142833
 11
96.396275
 21
27.142833
  0
POLYLINE
  8
1
  6
CONTINUOUS
 66
     1
  0
VERTEX
  8
1
  6
CONTINUOUS
 10
96.700308
 20
26.782575
  0
VERTEX
  8
1
  6
CONTINUOUS
 10
96.756534
 20
27.446866
  0
VERTEX
  8
1
  6
CONTINUOUS
 10
96.092242
 20
27.503092
  0
VERTEX
  8
1
  6
CONTINUOUS
 10
96.036017
 20
26.838801
  0
VERTEX
  8
1
  6
CONTINUOUS
 10
96.700308
 20
26.782575
  0
SEQEND
  8
1
  6
CONTINUOUS
  0
LINE
  8
1
  6
CONTINUOUS
 10
97.267773
 20
37.439349
 11
97.267773
 21
37.439349
  0
POLYLINE
  8
1
  6
CONTINUOUS
 66
     1
  0
VERTEX
  8
1
  6
CONTINUOUS
 10
97.571806
 20
37.079090
  0
VERTEX
  8
1
  6
CONTINUOUS
 10
97.628031
 20
37.743382
  0
VERTEX
  8
1
  6
CONTINUOUS
 10
96.963740
 20
37.799607
  0
VERTEX
  8
1
  6
CONTINUOUS
 10
96.907514
 20
37.135316
  0
VERTEX
  8
1
  6
CONTINUOUS
 10
97.571806
 20
37.079090
  0
SEQEND
  8
1
  6
CONTINUOUS
  0
LINE
  8
1
  6
CONTINUOUS
 10
14.560374
 20
13.220515
 11
14.560374
 21
13.220515
  0
POLYLINE
  8
1
  6
CONTINUOUS
 66
     1
  0
VERTEX
  8
1
  6
CONTINUOUS
 10
14.829163
 20
13.431932
  0
VERTEX
  8
1
  6
CONTINUOUS
 10
14.330944
 20
13.474102
  0
VERTEX
  8
1
  6
CONTINUOUS
 10
14.291586
 20
13.009098
  0
VERTEX
  8
1
  6
CONTINUOUS
 10
14.789805
 20
12.966928
  0
VERTEX
  8
1
  6
CONTINUOUS
 10
14.829163
 20
13.431932
  0
SEQEND
  8
1
  6
CONTINUOUS
  0
LINE
  8
1
  6
CONTINUOUS
 10
97.943189
 20
48.379999
 11
97.943189
 21
48.379999
  0
POLYLINE
  8
1
  6
CONTINUOUS
 66
     1
  0
VERTEX
  8
1
  6
CONTINUOUS
 10
98.503411
 20
48.081790
  0
VERTEX
  8
1
  6
CONTINUOUS
 10
98.545493
 20
48.580016
  0
VERTEX
  8
1
  6
CONTINUOUS
 10
97.382966
 20
48.678208
  0
VERTEX
  8
1
  6
CONTINUOUS
 10
97.340884
 20
48.179982
  0
VERTEX
  8
1
  6
CONTINUOUS
 10
98.503411
 20
48.081790
  0
SEQEND
  8
1
  6
CONTINUOUS
  0
LINE
  8
1
  6
CONTINUOUS
 10
88.443977
 20
49.184059
 11
88.443977
 21
49.184059
  0
POLYLINE
  8
1
  6
CONTINUOUS
 66
     1
  0
VERTEX
  8
1
  6
CONTINUOUS
 10
88.672048
 20
48.913905
  0
VERTEX
  8
1
  6
CONTINUOUS
 10
88.714131
 20
49.412131
  0
VERTEX
  8
1
  6
CONTINUOUS
 10
88.215905
 20
49.454214
  0
VERTEX
  8
1
  6
CONTINUOUS
 10
88.173822
 20
48.955988
  0
VERTEX
  8
1
  6
CONTINUOUS
 10
88.672048
 20
48.913905
  0
SEQEND
  8
1
  6
CONTINUOUS
  0
LINE
  8
1
  6
CONTINUOUS
 10
77.649236
 20
50.097674
 11
77.649236
 21
50.097674
  0
POLYLINE
  8
1
  6
CONTINUOUS
 66
     1
  0
VERTEX
  8
1
  6
CONTINUOUS
 10
77.877308
 20
49.827520
  0
VERTEX
  8
1
  6
CONTINUOUS
 10
77.919391
 20
50.325746
  0
VERTEX
  8
1
  6
CONTINUOUS
 10
77.421165
 20
50.367829
  0
VERTEX
  8
1
  6
CONTINUOUS
 10
77.379082
 20
49.869603
  0
VERTEX
  8
1
  6
CONTINUOUS
 10
77.877308
 20
49.827520
  0
SEQEND
  8
1
  6
CONTINUOUS
  0
LINE
  8
1
  6
CONTINUOUS
 10
68.515225
 20
50.870733
 11
68.515225
 21
50.870733
  0
POLYLINE
  8
1
  6
CONTINUOUS
 66
     1
  0
VERTEX
  8
1
  6
CONTINUOUS
 10
68.743297
 20
50.600579
  0
VERTEX
  8
1
  6
CONTINUOUS
 10
68.785380
 20
51.098805
  0
VERTEX
  8
1
  6
CONTINUOUS
 10
68.287154
 20
51.140888
  0
VERTEX
  8
1
  6
CONTINUOUS
 10
68.245071
 20
50.642662
  0
VERTEX
  8
1
  6
CONTINUOUS
 10
68.743297
 20
50.600579
  0
SEQEND
  8
1
  6
CONTINUOUS
  0
LINE
  8
1
  6
CONTINUOUS
 10
27.597765
 20
54.333805
 11
27.597765
 21
54.333805
  0
POLYLINE
  8
1
  6
CONTINUOUS
 66
     1
  0
VERTEX
  8
1
  6
CONTINUOUS
 10
27.825836
 20
54.063651
  0
VERTEX
  8
1
  6
CONTINUOUS
 10
27.867919
 20
54.561876
  0
VERTEX
  8
1
  6
CONTINUOUS
 10
27.369693
 20
54.603959
  0
VERTEX
  8
1
  6
CONTINUOUS
 10
27.327610
 20
54.105733
  0
VERTEX
  8
1
  6
CONTINUOUS
 10
27.825836
 20
54.063651
  0
SEQEND
  8
1
  6
CONTINUOUS
  0
LINE
  8
1
  6
CONTINUOUS
 10
18.013070
 20
55.145004
 11
18.013070
 21
55.145004
  0
POLYLINE
  8
1
  6
CONTINUOUS
 66
     1
  0
VERTEX
  8
1
  6
CONTINUOUS
 10
18.241142
 20
54.874850
  0
VERTEX
  8
1
  6
CONTINUOUS
 10
18.283224
 20
55.373076
  0
VERTEX
  8
1
  6
CONTINUOUS
 10
17.784998
 20
55.415159
  0
VERTEX
  8
1
  6
CONTINUOUS
 10
17.742916
 20
54.916933
  0
VERTEX
  8
1
  6
CONTINUOUS
 10
18.241142
 20
54.874850
  0
SEQEND
  8
1
  6
CONTINUOUS
  0
LINE
  8
1
  6
CONTINUOUS
 10
8.879062
 20
55.918106
 11
8.879062
 21
55.918106
  0
POLYLINE
  8
1
  6
CONTINUOUS
 66
     1
  0
VERTEX
  8
1
  6
CONTINUOUS
 10
9.439285
 20
55.619897
  0
VERTEX
  8
1
  6
CONTINUOUS
 10
9.481367
 20
56.118123
  0
VERTEX
  8
1
  6
CONTINUOUS
 10
8.318840
 20
56.216315
  0
VERTEX
  8
1
  6
CONTINUOUS
 10
8.276758
 20
55.718090
  0
VERTEX
  8
1
  6
CONTINUOUS
 10
9.439285
 20
55.619897
  0
SEQEND
  8
1
  6
CONTINUOUS
  0
LINE
  8
1
  6
CONTINUOUS
 10
7.400683
 20
23.805765
 11
7.400683
 21
23.805765
  0
POLYLINE
  8
1
  6
CONTINUOUS
 66
     1
  0
VERTEX
  8
1
  6
CONTINUOUS
 10
7.633528
 20
23.555309
  0
VERTEX
  8
1
  6
CONTINUOUS
 10
7.634505
 20
24.055308
  0
VERTEX
  8
1
  6
CONTINUOUS
 10
7.167839
 20
24.056221
  0
VERTEX
  8
1
  6
CONTINUOUS
 10
7.166862
 20
23.556222
  0
VERTEX
  8
1
  6
CONTINUOUS
 10
7.633528
 20
23.555309
  0
SEQEND
  8
1
  6
CONTINUOUS
  0
LINE
  8
1
  6
CONTINUOUS
 10
6.919619
 20
42.006740
 11
6.919619
 21
42.006740
  0
POLYLINE
  8
1
  6
CONTINUOUS
 66
     1
  0
VERTEX
  8
1
  6
CONTINUOUS
 10
7.169130
 20
41.756252
  0
VERTEX
  8
1
  6
CONTINUOUS
 10
7.170107
 20
42.256251
  0
VERTEX
  8
1
  6
CONTINUOUS
 10
6.670108
 20
42.257228
  0
VERTEX
  8
1
  6
CONTINUOUS
 10
6.669131
 20
41.757229
  0
VERTEX
  8
1
  6
CONTINUOUS
 10
7.169130
 20
41.756252
  0
SEQEND
  8
1
  6
CONTINUOUS
  0
LINE
  8
1
  6
CONTINUOUS
 10
6.943907
 20
54.423383
 11
6.943907
 21
54.423383
  0
POLYLINE
  8
1
  6
CONTINUOUS
 66
     1
  0
VERTEX
  8
1
  6
CONTINUOUS
 10
7.193418
 20
54.172895
  0
VERTEX
  8
1
  6
CONTINUOUS
 10
7.194395
 20
54.672894
  0
VERTEX
  8
1
  6
CONTINUOUS
 10
6.694396
 20
54.673871
  0
VERTEX
  8
1
  6
CONTINUOUS
 10
6.693419
 20
54.173872
  0
VERTEX
  8
1
  6
CONTINUOUS
 10
7.193418
 20
54.172895
  0
SEQEND
  8
1
  6
CONTINUOUS
  0
LINE
  8
1
  6
CONTINUOUS
 10
60.254331
 20
51.569960
 11
60.254331
 21
51.569960
  0
POLYLINE
  8
1
  6
CONTINUOUS
 66
     1
  0
VERTEX
  8
1
  6
CONTINUOUS
 10
60.814553
 20
51.271751
  0
VERTEX
  8
1
  6
CONTINUOUS
 10
60.856636
 20
51.769977
  0
VERTEX
  8
1
  6
CONTINUOUS
 10
59.694109
 20
51.868169
  0
VERTEX
  8
1
  6
CONTINUOUS
 10
59.652026
 20
51.369943
  0
VERTEX
  8
1
  6
CONTINUOUS
 10
60.814553
 20
51.271751
  0
SEQEND
  8
1
  6
CONTINUOUS
  0
LINE
  8
1
  6
CONTINUOUS
 10
22.075173
 20
12.584482
 11
22.075173
 21
12.584482
  0
POLYLINE
  8
1
  6
CONTINUOUS
 66
     1
  0
VERTEX
  8
1
  6
CONTINUOUS
 10
22.343962
 20
12.795899
  0
VERTEX
  8
1
  6
CONTINUOUS
 10
21.845743
 20
12.838068
  0
VERTEX
  8
1
  6
CONTINUOUS
 10
21.806385
 20
12.373064
  0
VERTEX
  8
1
  6
CONTINUOUS
 10
22.304604
 20
12.330895
  0
VERTEX
  8
1
  6
CONTINUOUS
 10
22.343962
 20
12.795899
  0
SEQEND
  8
1
  6
CONTINUOUS
  0
LINE
  8
1
  6
CONTINUOUS
 10
71.822967
 20
7.855050
 11
71.822967
 21
7.855050
  0
POLYLINE
  8
1
  6
CONTINUOUS
 66
     1
  0
VERTEX
  8
1
  6
CONTINUOUS
 10
72.093165
 20
8.083070
  0
VERTEX
  8
1
  6
CONTINUOUS
 10
71.594947
 20
8.125248
  0
VERTEX
  8
1
  6
CONTINUOUS
 10
71.552769
 20
7.627030
  0
VERTEX
  8
1
  6
CONTINUOUS
 10
72.050987
 20
7.584852
  0
VERTEX
  8
1
  6
CONTINUOUS
 10
72.093165
 20
8.083070
  0
SEQEND
  8
1
  6
CONTINUOUS
  0
LINE
  8
1
  6
CONTINUOUS
 10
81.787343
 20
7.011717
 11
81.787343
 21
7.011717
  0
POLYLINE
  8
1
  6
CONTINUOUS
 66
     1
  0
VERTEX
  8
1
  6
CONTINUOUS
 10
82.057541
 20
7.239737
  0
VERTEX
  8
1
  6
CONTINUOUS
 10
81.559323
 20
7.281915
  0
VERTEX
  8
1
  6
CONTINUOUS
 10
81.517145
 20
6.783697
  0
VERTEX
  8
1
  6
CONTINUOUS
 10
82.015363
 20
6.741519
  0
VERTEX
  8
1
  6
CONTINUOUS
 10
82.057541
 20
7.239737
  0
SEQEND
  8
1
  6
CONTINUOUS
  0
LINE
  8
1
  6
CONTINUOUS
 10
94.683511
 20
5.919955
 11
94.683511
 21
5.919955
  0
POLYLINE
  8
1
  6
CONTINUOUS
 66
     1
  0
VERTEX
  8
1
  6
CONTINUOUS
 10
94.953709
 20
6.147975
  0
VERTEX
  8
1
  6
CONTINUOUS
 10
94.455491
 20
6.190153
  0
VERTEX
  8
1
  6
CONTINUOUS
 10
94.413313
 20
5.691935
  0
VERTEX
  8
1
  6
CONTINUOUS
 10
94.911531
 20
5.649757
  0
VERTEX
  8
1
  6
CONTINUOUS
 10
94.953709
 20
6.147975
  0
SEQEND
  8
1
  6
CONTINUOUS
  0
LINE
  8
1
  6
CONTINUOUS
 10
36.731768
 20
53.560659
 11
36.731768
 21
53.560659
  0
POLYLINE
  8
1
  6
CONTINUOUS
 66
     1
  0
VERTEX
  8
1
  6
CONTINUOUS
 10
37.291991
 20
53.262450
  0
VERTEX
  8
1
  6
CONTINUOUS
 10
37.334073
 20
53.760676
  0
VERTEX
  8
1
  6
CONTINUOUS
 10
36.171546
 20
53.858868
  0
VERTEX
  8
1
  6
CONTINUOUS
 10
36.129464
 20
53.360642
  0
VERTEX
  8
1
  6
CONTINUOUS
 10
37.291991
 20
53.262450
  0
SEQEND
  8
1
  6
CONTINUOUS
  0
LINE
  8
1
  6
CONTINUOUS
 10
51.245675
 20
10.115567
 11
51.245675
 21
10.115567
  0
POLYLINE
  8
1
  6
CONTINUOUS
 66
     1
  0
VERTEX
  8
1
  6
CONTINUOUS
 10
51.680536
 20
10.312928
  0
VERTEX
  8
1
  6
CONTINUOUS
 10
50.850172
 20
10.383211
  0
VERTEX
  8
1
  6
CONTINUOUS
 10
50.810814
 20
9.918207
  0
VERTEX
  8
1
  6
CONTINUOUS
 10
51.641178
 20
9.847924
  0
VERTEX
  8
1
  6
CONTINUOUS
 10
51.680536
 20
10.312928
  0
SEQEND
  8
1
  6
CONTINUOUS
  0
LINE
  8
1
  6
CONTINUOUS
 10
32.087153
 20
21.310995
 11
32.087153
 21
21.310995
  0
POLYLINE
  8
1
  6
CONTINUOUS
 66
     1
  0
VERTEX
  8
1
  6
CONTINUOUS
 10
32.287065
 20
20.708655
  0
VERTEX
  8
1
  6
CONTINUOUS
 10
32.385460
 20
21.871165
  0
VERTEX
  8
1
  6
CONTINUOUS
 10
31.887241
 20
21.913335
  0
VERTEX
  8
1
  6
CONTINUOUS
 10
31.788846
 20
20.750825
  0
VERTEX
  8
1
  6
CONTINUOUS
 10
32.287065
 20
20.708655
  0
SEQEND
  8
1
  6
CONTINUOUS
  0
LINE
  8
1
  6
CONTINUOUS
 10
33.087316
 20
33.128404
 11
33.087316
 21
33.128404
  0
POLYLINE
  8
1
  6
CONTINUOUS
 66
     1
  0
VERTEX
  8
1
  6
CONTINUOUS
 10
33.287228
 20
32.526065
  0
VERTEX
  8
1
  6
CONTINUOUS
 10
33.385623
 20
33.688575
  0
VERTEX
  8
1
  6
CONTINUOUS
 10
32.887404
 20
33.730744
  0
VERTEX
  8
1
  6
CONTINUOUS
 10
32.789009
 20
32.568234
  0
VERTEX
  8
1
  6
CONTINUOUS
 10
33.287228
 20
32.526065
  0
SEQEND
  8
1
  6
CONTINUOUS
  0
LINE
  8
1
  6
CONTINUOUS
 10
33.719931
 20
40.603141
 11
33.719931
 21
40.603141
  0
POLYLINE
  8
1
  6
CONTINUOUS
 66
     1
  0
VERTEX
  8
1
  6
CONTINUOUS
 10
33.919843
 20
40.000801
  0
VERTEX
  8
1
  6
CONTINUOUS
 10
34.018238
 20
41.163311
  0
VERTEX
  8
1
  6
CONTINUOUS
 10
33.520019
 20
41.205480
  0
VERTEX
  8
1
  6
CONTINUOUS
 10
33.421624
 20
40.042970
  0
VERTEX
  8
1
  6
CONTINUOUS
 10
33.919843
 20
40.000801
  0
SEQEND
  8
1
  6
CONTINUOUS
  0
LINE
  8
1
  6
CONTINUOUS
 10
18.327619
 20
44.414574
 11
18.327619
 21
44.414574
  0
POLYLINE
  8
1
  6
CONTINUOUS
 66
     1
  0
VERTEX
  8
1
  6
CONTINUOUS
 10
18.527530
 20
43.812234
  0
VERTEX
  8
1
  6
CONTINUOUS
 10
18.625926
 20
44.974744
  0
VERTEX
  8
1
  6
CONTINUOUS
 10
18.127707
 20
45.016913
  0
VERTEX
  8
1
  6
CONTINUOUS
 10
18.029312
 20
43.854403
  0
VERTEX
  8
1
  6
CONTINUOUS
 10
18.527530
 20
43.812234
  0
SEQEND
  8
1
  6
CONTINUOUS
  0
LINE
  8
1
  6
CONTINUOUS
 10
61.764427
 20
8.706827
 11
61.764427
 21
8.706827
  0
POLYLINE
  8
1
  6
CONTINUOUS
 66
     1
  0
VERTEX
  8
1
  6
CONTINUOUS
 10
62.034621
 20
8.934852
  0
VERTEX
  8
1
  6
CONTINUOUS
 10
61.536403
 20
8.977021
  0
VERTEX
  8
1
  6
CONTINUOUS
 10
61.494234
 20
8.478803
  0
VERTEX
  8
1
  6
CONTINUOUS
 10
61.992452
 20
8.436633
  0
VERTEX
  8
1
  6
CONTINUOUS
 10
62.034621
 20
8.934852
  0
SEQEND
  8
1
  6
CONTINUOUS
  0
LINE
  8
1
  6
CONTINUOUS
 10
6.904360
 20
34.206755
 11
6.904360
 21
34.206755
  0
POLYLINE
  8
1
  6
CONTINUOUS
 66
     1
  0
VERTEX
  8
1
  6
CONTINUOUS
 10
7.153871
 20
33.956267
  0
VERTEX
  8
1
  6
CONTINUOUS
 10
7.154849
 20
34.456266
  0
VERTEX
  8
1
  6
CONTINUOUS
 10
6.654850
 20
34.457243
  0
VERTEX
  8
1
  6
CONTINUOUS
 10
6.653872
 20
33.957244
  0
VERTEX
  8
1
  6
CONTINUOUS
 10
7.153871
 20
33.956267
  0
SEQEND
  8
1
  6
CONTINUOUS
  0
LINE
  8
1
  6
CONTINUOUS
 10
61.276569
 20
9.266635
 11
61.276569
 21
9.266635
  0
POLYLINE
  8
1
  6
CONTINUOUS
 66
     1
  0
VERTEX
  8
1
  6
CONTINUOUS
 10
61.545358
 20
9.478052
  0
VERTEX
  8
1
  6
CONTINUOUS
 10
61.047139
 20
9.520221
  0
VERTEX
  8
1
  6
CONTINUOUS
 10
61.007781
 20
9.055217
  0
VERTEX
  8
1
  6
CONTINUOUS
 10
61.506000
 20
9.013048
  0
VERTEX
  8
1
  6
CONTINUOUS
 10
61.545358
 20
9.478052
  0
SEQEND
  8
1
  6
CONTINUOUS
  0
LINE
  8
1
  6
CONTINUOUS
 10
31.406562
 20
11.795060
 11
31.406562
 21
11.795060
  0
POLYLINE
  8
1
  6
CONTINUOUS
 66
     1
  0
VERTEX
  8
1
  6
CONTINUOUS
 10
31.675350
 20
12.006477
  0
VERTEX
  8
1
  6
CONTINUOUS
 10
31.177131
 20
12.048646
  0
VERTEX
  8
1
  6
CONTINUOUS
 10
31.137773
 20
11.583642
  0
VERTEX
  8
1
  6
CONTINUOUS
 10
31.635992
 20
11.541473
  0
VERTEX
  8
1
  6
CONTINUOUS
 10
31.675350
 20
12.006477
  0
SEQEND
  8
1
  6
CONTINUOUS
  0
LINE
  8
1
  6
CONTINUOUS
 10
6.884995
 20
24.340107
 11
6.884995
 21
24.340107
  0
POLYLINE
  8
1
  6
CONTINUOUS
 66
     1
  0
VERTEX
  8
1
  6
CONTINUOUS
 10
7.134506
 20
24.089619
  0
VERTEX
  8
1
  6
CONTINUOUS
 10
7.135483
 20
24.589618
  0
VERTEX
  8
1
  6
CONTINUOUS
 10
6.635484
 20
24.590595
  0
VERTEX
  8
1
  6
CONTINUOUS
 10
6.634507
 20
24.090596
  0
VERTEX
  8
1
  6
CONTINUOUS
 10
7.134506
 20
24.089619
  0
SEQEND
  8
1
  6
CONTINUOUS
  0
LINE
  8
1
  6
CONTINUOUS
 10
7.382725
 20
14.625311
 11
7.382725
 21
14.625311
  0
POLYLINE
  8
1
  6
CONTINUOUS
 66
     1
  0
VERTEX
  8
1
  6
CONTINUOUS
 10
7.615569
 20
14.374856
  0
VERTEX
  8
1
  6
CONTINUOUS
 10
7.616547
 20
14.874855
  0
VERTEX
  8
1
  6
CONTINUOUS
 10
7.149881
 20
14.875767
  0
VERTEX
  8
1
  6
CONTINUOUS
 10
7.148904
 20
14.375768
  0
VERTEX
  8
1
  6
CONTINUOUS
 10
7.615569
 20
14.374856
  0
SEQEND
  8
1
  6
CONTINUOUS
  0
LINE
  8
1
  6
CONTINUOUS
 10
36.868944
 20
50.234464
 11
36.868944
 21
50.234464
  0
POLYLINE
  8
1
  6
CONTINUOUS
 66
     1
  0
VERTEX
  8
1
  6
CONTINUOUS
 10
37.020960
 20
50.054334
  0
VERTEX
  8
1
  6
CONTINUOUS
 10
37.049073
 20
50.386480
  0
VERTEX
  8
1
  6
CONTINUOUS
 10
36.716928
 20
50.414593
  0
VERTEX
  8
1
  6
CONTINUOUS
 10
36.688815
 20
50.082447
  0
VERTEX
  8
1
  6
CONTINUOUS
 10
37.020960
 20
50.054334
  0
SEQEND
  8
1
  6
CONTINUOUS
  0
LINE
  8
1
  6
CONTINUOUS
 10
48.214662
 20
49.276097
 11
48.214662
 21
49.276097
  0
POLYLINE
  8
1
  6
CONTINUOUS
 66
     1
  0
VERTEX
  8
1
  6
CONTINUOUS
 10
48.366679
 20
49.095968
  0
VERTEX
  8
1
  6
CONTINUOUS
 10
48.394792
 20
49.428113
  0
VERTEX
  8
1
  6
CONTINUOUS
 10
48.062646
 20
49.456226
  0
VERTEX
  8
1
  6
CONTINUOUS
 10
48.034533
 20
49.124080
  0
VERTEX
  8
1
  6
CONTINUOUS
 10
48.366679
 20
49.095968
  0
SEQEND
  8
1
  6
CONTINUOUS
  0
LINE
  8
1
  6
CONTINUOUS
 10
59.561549
 20
48.317688
 11
59.561549
 21
48.317688
  0
POLYLINE
  8
1
  6
CONTINUOUS
 66
     1
  0
VERTEX
  8
1
  6
CONTINUOUS
 10
59.713566
 20
48.137558
  0
VERTEX
  8
1
  6
CONTINUOUS
 10
59.741679
 20
48.469704
  0
VERTEX
  8
1
  6
CONTINUOUS
 10
59.409533
 20
48.497817
  0
VERTEX
  8
1
  6
CONTINUOUS
 10
59.381420
 20
48.165671
  0
VERTEX
  8
1
  6
CONTINUOUS
 10
59.713566
 20
48.137558
  0
SEQEND
  8
1
  6
CONTINUOUS
  0
LINE
  8
1
  6
CONTINUOUS
 10
41.007503
 20
10.982321
 11
41.007503
 21
10.982321
  0
POLYLINE
  8
1
  6
CONTINUOUS
 66
     1
  0
VERTEX
  8
1
  6
CONTINUOUS
 10
41.442364
 20
11.179682
  0
VERTEX
  8
1
  6
CONTINUOUS
 10
40.612000
 20
11.249964
  0
VERTEX
  8
1
  6
CONTINUOUS
 10
40.572642
 20
10.784960
  0
VERTEX
  8
1
  6
CONTINUOUS
 10
41.403006
 20
10.714678
  0
VERTEX
  8
1
  6
CONTINUOUS
 10
41.442364
 20
11.179682
  0
SEQEND
  8
1
  6
CONTINUOUS
  0
LINE
  8
4
  6
CONTINUOUS
 10
96.763921
 20
11.763832
 11
97.511248
 21
11.700577
  0
LINE
  8
4
  6
CONTINUOUS
 10
97.506504
 20
11.644527
 11
97.515993
 21
11.756626
  0
LINE
  8
4
  6
CONTINUOUS
 10
97.506504
 20
11.644527
 11
98.258576
 21
11.637322
  0
LINE
  8
4
  6
CONTINUOUS
 10
97.515993
 20
11.756626
 11
98.258576
 21
11.637322
  0
LINE
  8
4
  6
CONTINUOUS
 10
97.352295
 20
11.601129
 11
97.371271
 21
11.825327
  0
LINE
  8
4
  6
CONTINUOUS
 10
97.258879
 20
11.609036
 11
97.277855
 21
11.833234
  0
LINE
  8
4
  6
CONTINUOUS
 10
97.165463
 20
11.616943
 11
97.184439
 21
11.841141
  0
LINE
  8
4
  6
CONTINUOUS
 10
8.103822
 20
19.268194
 11
7.107385
 21
19.352535
  0
LINE
  8
4
  6
CONTINUOUS
 10
7.115819
 20
19.452178
 11
7.098951
 21
19.252891
  0
LINE
  8
4
  6
CONTINUOUS
 10
7.135747
 20
19.450491
 11
7.118879
 21
19.251204
  0
LINE
  8
4
  6
CONTINUOUS
 10
7.155676
 20
19.448805
 11
7.138808
 21
19.249517
  0
POLYLINE
  8
4
  6
CONTINUOUS
 66
     1
  0
VERTEX
  8
4
  6
CONTINUOUS
 10
8.103822
 20
19.268194
  0
VERTEX
  8
4
  6
CONTINUOUS
 10
96.763921
 20
11.763832
  0
SEQEND
  8
4
  6
CONTINUOUS
  0
LINE
  8
4
  6
CONTINUOUS
 10
96.831393
 20
12.560982
 11
97.578721
 21
12.497726
  0
LINE
  8
4
  6
CONTINUOUS
 10
97.573977
 20
12.441677
 11
97.583465
 21
12.553776
  0
LINE
  8
4
  6
CONTINUOUS
 10
97.573977
 20
12.441677
 11
98.326048
 21
12.434471
  0
LINE
  8
4
  6
CONTINUOUS
 10
97.583465
 20
12.553776
 11
98.326048
 21
12.434471
  0
LINE
  8
4
  6
CONTINUOUS
 10
97.419767
 20
12.398278
 11
97.438743
 21
12.622477
  0
LINE
  8
4
  6
CONTINUOUS
 10
97.326351
 20
12.406185
 11
97.345327
 21
12.630384
  0
LINE
  8
4
  6
CONTINUOUS
 10
97.232935
 20
12.414092
 11
97.251911
 21
12.638290
  0
LINE
  8
4
  6
CONTINUOUS
 10
8.171294
 20
20.065344
 11
7.174857
 21
20.149684
  0
LINE
  8
4
  6
CONTINUOUS
 10
7.183291
 20
20.249328
 11
7.166423
 21
20.050040
  0
LINE
  8
4
  6
CONTINUOUS
 10
7.203220
 20
20.247641
 11
7.186352
 21
20.048354
  0
LINE
  8
4
  6
CONTINUOUS
 10
7.223148
 20
20.245954
 11
7.206280
 21
20.046667
  0
POLYLINE
  8
4
  6
CONTINUOUS
 66
     1
  0
VERTEX
  8
4
  6
CONTINUOUS
 10
8.171294
 20
20.065344
  0
VERTEX
  8
4
  6
CONTINUOUS
 10
96.831393
 20
12.560982
  0
SEQEND
  8
4
  6
CONTINUOUS
  0
LINE
  8
4
  6
CONTINUOUS
 10
96.898865
 20
13.358131
 11
97.646193
 21
13.294876
  0
LINE
  8
4
  6
CONTINUOUS
 10
97.641449
 20
13.238826
 11
97.650937
 21
13.350926
  0
LINE
  8
4
  6
CONTINUOUS
 10
97.641449
 20
13.238826
 11
98.393521
 21
13.231621
  0
LINE
  8
4
  6
CONTINUOUS
 10
97.650937
 20
13.350926
 11
98.393521
 21
13.231621
  0
LINE
  8
4
  6
CONTINUOUS
 10
97.487239
 20
13.195428
 11
97.506216
 21
13.419626
  0
LINE
  8
4
  6
CONTINUOUS
 10
97.393823
 20
13.203335
 11
97.412800
 21
13.427533
  0
LINE
  8
4
  6
CONTINUOUS
 10
97.300407
 20
13.211242
 11
97.319384
 21
13.435440
  0
LINE
  8
4
  6
CONTINUOUS
 10
8.238766
 20
20.862493
 11
7.242329
 21
20.946834
  0
LINE
  8
4
  6
CONTINUOUS
 10
7.250763
 20
21.046477
 11
7.233895
 21
20.847190
  0
LINE
  8
4
  6
CONTINUOUS
 10
7.270692
 20
21.044791
 11
7.253824
 21
20.845503
  0
LINE
  8
4
  6
CONTINUOUS
 10
7.290621
 20
21.043104
 11
7.273753
 21
20.843816
  0
POLYLINE
  8
4
  6
CONTINUOUS
 66
     1
  0
VERTEX
  8
4
  6
CONTINUOUS
 10
8.238766
 20
20.862493
  0
VERTEX
  8
4
  6
CONTINUOUS
 10
96.898865
 20
13.358131
  0
SEQEND
  8
4
  6
CONTINUOUS
  0
LINE
  8
4
  6
CONTINUOUS
 10
96.966337
 20
14.155281
 11
97.713665
 21
14.092026
  0
LINE
  8
4
  6
CONTINUOUS
 10
97.708921
 20
14.035976
 11
97.718409
 21
14.148075
  0
LINE
  8
4
  6
CONTINUOUS
 10
97.708921
 20
14.035976
 11
98.460993
 21
14.028770
  0
LINE
  8
4
  6
CONTINUOUS
 10
97.718409
 20
14.148075
 11
98.460993
 21
14.028770
  0
LINE
  8
4
  6
CONTINUOUS
 10
97.554711
 20
13.992578
 11
97.573688
 21
14.216776
  0
LINE
  8
4
  6
CONTINUOUS
 10
97.461295
 20
14.000484
 11
97.480272
 21
14.224683
  0
LINE
  8
4
  6
CONTINUOUS
 10
97.367879
 20
14.008391
 11
97.386856
 21
14.232590
  0
LINE
  8
4
  6
CONTINUOUS
 10
8.306239
 20
21.659643
 11
7.309802
 21
21.743983
  0
LINE
  8
4
  6
CONTINUOUS
 10
7.318236
 20
21.843627
 11
7.301367
 21
21.644340
  0
LINE
  8
4
  6
CONTINUOUS
 10
7.338164
 20
21.841940
 11
7.321296
 21
21.642653
  0
LINE
  8
4
  6
CONTINUOUS
 10
7.358093
 20
21.840253
 11
7.341225
 21
21.640966
  0
POLYLINE
  8
4
  6
CONTINUOUS
 66
     1
  0
VERTEX
  8
4
  6
CONTINUOUS
 10
8.306239
 20
21.659643
  0
VERTEX
  8
4
  6
CONTINUOUS
 10
96.966337
 20
14.155281
  0
SEQEND
  8
4
  6
CONTINUOUS
  0
LINE
  8
4
  6
CONTINUOUS
 10
97.033810
 20
14.952431
 11
97.781138
 21
14.889175
  0
LINE
  8
4
  6
CONTINUOUS
 10
97.776393
 20
14.833126
 11
97.785882
 21
14.945225
  0
LINE
  8
4
  6
CONTINUOUS
 10
97.776393
 20
14.833126
 11
98.528465
 21
14.825920
  0
LINE
  8
4
  6
CONTINUOUS
 10
97.785882
 20
14.945225
 11
98.528465
 21
14.825920
  0
LINE
  8
4
  6
CONTINUOUS
 10
97.622184
 20
14.789727
 11
97.641160
 21
15.013925
  0
LINE
  8
4
  6
CONTINUOUS
 10
97.528768
 20
14.797634
 11
97.547744
 21
15.021832
  0
LINE
  8
4
  6
CONTINUOUS
 10
97.435352
 20
14.805541
 11
97.454328
 21
15.029739
  0
LINE
  8
4
  6
CONTINUOUS
 10
8.373711
 20
22.456793
 11
7.377274
 21
22.541133
  0
LINE
  8
4
  6
CONTINUOUS
 10
7.385708
 20
22.640777
 11
7.368840
 21
22.441489
  0
LINE
  8
4
  6
CONTINUOUS
 10
7.405637
 20
22.639090
 11
7.388769
 21
22.439802
  0
LINE
  8
4
  6
CONTINUOUS
 10
7.425565
 20
22.637403
 11
7.408697
 21
22.438116
  0
POLYLINE
  8
4
  6
CONTINUOUS
 66
     1
  0
VERTEX
  8
4
  6
CONTINUOUS
 10
8.373711
 20
22.456793
  0
VERTEX
  8
4
  6
CONTINUOUS
 10
97.033810
 20
14.952431
  0
SEQEND
  8
4
  6
CONTINUOUS
  0
LINE
  8
4
  6
CONTINUOUS
 10
97.101282
 20
15.749580
 11
97.848610
 21
15.686325
  0
LINE
  8
4
  6
CONTINUOUS
 10
97.843866
 20
15.630275
 11
97.853354
 21
15.742374
  0
LINE
  8
4
  6
CONTINUOUS
 10
97.843866
 20
15.630275
 11
98.595938
 21
15.623070
  0
LINE
  8
4
  6
CONTINUOUS
 10
97.853354
 20
15.742374
 11
98.595938
 21
15.623070
  0
LINE
  8
4
  6
CONTINUOUS
 10
97.689656
 20
15.586877
 11
97.708633
 21
15.811075
  0
LINE
  8
4
  6
CONTINUOUS
 10
97.596240
 20
15.594784
 11
97.615217
 21
15.818982
  0
LINE
  8
4
  6
CONTINUOUS
 10
97.502824
 20
15.602691
 11
97.521801
 21
15.826889
  0
LINE
  8
4
  6
CONTINUOUS
 10
8.441183
 20
23.253942
 11
7.444746
 21
23.338283
  0
LINE
  8
4
  6
CONTINUOUS
 10
7.453180
 20
23.437926
 11
7.436312
 21
23.238639
  0
LINE
  8
4
  6
CONTINUOUS
 10
7.473109
 20
23.436239
 11
7.456241
 21
23.236952
  0
LINE
  8
4
  6
CONTINUOUS
 10
7.493038
 20
23.434553
 11
7.476170
 21
23.235265
  0
POLYLINE
  8
4
  6
CONTINUOUS
 66
     1
  0
VERTEX
  8
4
  6
CONTINUOUS
 10
8.441183
 20
23.253942
  0
VERTEX
  8
4
  6
CONTINUOUS
 10
97.101282
 20
15.749580
  0
SEQEND
  8
4
  6
CONTINUOUS
  0
LINE
  8
4
  6
CONTINUOUS
 10
97.168754
 20
16.546730
 11
97.916082
 21
16.483474
  0
LINE
  8
4
  6
CONTINUOUS
 10
97.911338
 20
16.427425
 11
97.920826
 21
16.539524
  0
LINE
  8
4
  6
CONTINUOUS
 10
97.911338
 20
16.427425
 11
98.663410
 21
16.420219
  0
LINE
  8
4
  6
CONTINUOUS
 10
97.920826
 20
16.539524
 11
98.663410
 21
16.420219
  0
LINE
  8
4
  6
CONTINUOUS
 10
97.757128
 20
16.384026
 11
97.776105
 21
16.608225
  0
LINE
  8
4
  6
CONTINUOUS
 10
97.663712
 20
16.391933
 11
97.682689
 21
16.616132
  0
LINE
  8
4
  6
CONTINUOUS
 10
97.570296
 20
16.399840
 11
97.589273
 21
16.624038
  0
LINE
  8
4
  6
CONTINUOUS
 10
8.508655
 20
24.051092
 11
7.512218
 21
24.135432
  0
LINE
  8
4
  6
CONTINUOUS
 10
7.520652
 20
24.235076
 11
7.503784
 21
24.035788
  0
LINE
  8
4
  6
CONTINUOUS
 10
7.540581
 20
24.233389
 11
7.523713
 21
24.034102
  0
LINE
  8
4
  6
CONTINUOUS
 10
7.560510
 20
24.231702
 11
7.543642
 21
24.032415
  0
POLYLINE
  8
4
  6
CONTINUOUS
 66
     1
  0
VERTEX
  8
4
  6
CONTINUOUS
 10
8.508655
 20
24.051092
  0
VERTEX
  8
4
  6
CONTINUOUS
 10
97.168754
 20
16.546730
  0
SEQEND
  8
4
  6
CONTINUOUS
  0
LINE
  8
4
  6
CONTINUOUS
 10
97.236227
 20
17.343879
 11
97.983554
 21
17.280624
  0
LINE
  8
4
  6
CONTINUOUS
 10
97.978810
 20
17.224574
 11
97.988299
 21
17.336674
  0
LINE
  8
4
  6
CONTINUOUS
 10
97.978810
 20
17.224574
 11
98.730882
 21
17.217369
  0
LINE
  8
4
  6
CONTINUOUS
 10
97.988299
 20
17.336674
 11
98.730882
 21
17.217369
  0
LINE
  8
4
  6
CONTINUOUS
 10
97.824601
 20
17.181176
 11
97.843577
 21
17.405374
  0
LINE
  8
4
  6
CONTINUOUS
 10
97.731185
 20
17.189083
 11
97.750161
 21
17.413281
  0
LINE
  8
4
  6
CONTINUOUS
 10
97.637769
 20
17.196990
 11
97.656745
 21
17.421188
  0
LINE
  8
4
  6
CONTINUOUS
 10
8.576128
 20
24.848241
 11
7.579691
 21
24.932582
  0
LINE
  8
4
  6
CONTINUOUS
 10
7.588125
 20
25.032225
 11
7.571257
 21
24.832938
  0
LINE
  8
4
  6
CONTINUOUS
 10
7.608053
 20
25.030539
 11
7.591185
 21
24.831251
  0
LINE
  8
4
  6
CONTINUOUS
 10
7.627982
 20
25.028852
 11
7.611114
 21
24.829564
  0
POLYLINE
  8
4
  6
CONTINUOUS
 66
     1
  0
VERTEX
  8
4
  6
CONTINUOUS
 10
8.576128
 20
24.848241
  0
VERTEX
  8
4
  6
CONTINUOUS
 10
97.236227
 20
17.343879
  0
SEQEND
  8
4
  6
CONTINUOUS
  0
LINE
  8
4
  6
CONTINUOUS
 10
97.303699
 20
18.141029
 11
98.051027
 21
18.077774
  0
LINE
  8
4
  6
CONTINUOUS
 10
98.046283
 20
18.021724
 11
98.055771
 21
18.133823
  0
LINE
  8
4
  6
CONTINUOUS
 10
98.046283
 20
18.021724
 11
98.798354
 21
18.014518
  0
LINE
  8
4
  6
CONTINUOUS
 10
98.055771
 20
18.133823
 11
98.798354
 21
18.014518
  0
LINE
  8
4
  6
CONTINUOUS
 10
97.892073
 20
17.978326
 11
97.911049
 21
18.202524
  0
LINE
  8
4
  6
CONTINUOUS
 10
97.798657
 20
17.986232
 11
97.817633
 21
18.210431
  0
LINE
  8
4
  6
CONTINUOUS
 10
97.705241
 20
17.994139
 11
97.724217
 21
18.218338
  0
LINE
  8
4
  6
CONTINUOUS
 10
8.643600
 20
25.645391
 11
7.647163
 21
25.729731
  0
LINE
  8
4
  6
CONTINUOUS
 10
7.655597
 20
25.829375
 11
7.638729
 21
25.630088
  0
LINE
  8
4
  6
CONTINUOUS
 10
7.675526
 20
25.827688
 11
7.658658
 21
25.628401
  0
LINE
  8
4
  6
CONTINUOUS
 10
7.695454
 20
25.826001
 11
7.678586
 21
25.626714
  0
POLYLINE
  8
4
  6
CONTINUOUS
 66
     1
  0
VERTEX
  8
4
  6
CONTINUOUS
 10
8.643600
 20
25.645391
  0
VERTEX
  8
4
  6
CONTINUOUS
 10
97.303699
 20
18.141029
  0
SEQEND
  8
4
  6
CONTINUOUS
  0
LINE
  8
4
  6
CONTINUOUS
 10
97.371171
 20
18.938179
 11
98.118499
 21
18.874923
  0
LINE
  8
4
  6
CONTINUOUS
 10
98.113755
 20
18.818874
 11
98.123243
 21
18.930973
  0
LINE
  8
4
  6
CONTINUOUS
 10
98.113755
 20
18.818874
 11
98.865827
 21
18.811668
  0
LINE
  8
4
  6
CONTINUOUS
 10
98.123243
 20
18.930973
 11
98.865827
 21
18.811668
  0
LINE
  8
4
  6
CONTINUOUS
 10
97.959545
 20
18.775475
 11
97.978522
 21
18.999673
  0
LINE
  8
4
  6
CONTINUOUS
 10
97.866129
 20
18.783382
 11
97.885106
 21
19.007580
  0
LINE
  8
4
  6
CONTINUOUS
 10
97.772713
 20
18.791289
 11
97.791690
 21
19.015487
  0
LINE
  8
4
  6
CONTINUOUS
 10
8.711072
 20
26.442541
 11
7.714635
 21
26.526881
  0
LINE
  8
4
  6
CONTINUOUS
 10
7.723069
 20
26.626525
 11
7.706201
 21
26.427237
  0
LINE
  8
4
  6
CONTINUOUS
 10
7.742998
 20
26.624838
 11
7.726130
 21
26.425550
  0
LINE
  8
4
  6
CONTINUOUS
 10
7.762927
 20
26.623151
 11
7.746059
 21
26.423864
  0
POLYLINE
  8
4
  6
CONTINUOUS
 66
     1
  0
VERTEX
  8
4
  6
CONTINUOUS
 10
8.711072
 20
26.442541
  0
VERTEX
  8
4
  6
CONTINUOUS
 10
97.371171
 20
18.938179
  0
SEQEND
  8
4
  6
CONTINUOUS
  0
LINE
  8
4
  6
CONTINUOUS
 10
97.438643
 20
19.735328
 11
98.185971
 21
19.672073
  0
LINE
  8
4
  6
CONTINUOUS
 10
98.181227
 20
19.616023
 11
98.190715
 21
19.728122
  0
LINE
  8
4
  6
CONTINUOUS
 10
98.181227
 20
19.616023
 11
98.933299
 21
19.608818
  0
LINE
  8
4
  6
CONTINUOUS
 10
98.190715
 20
19.728122
 11
98.933299
 21
19.608818
  0
LINE
  8
4
  6
CONTINUOUS
 10
98.027017
 20
19.572625
 11
98.045994
 21
19.796823
  0
LINE
  8
4
  6
CONTINUOUS
 10
97.933601
 20
19.580532
 11
97.952578
 21
19.804730
  0
LINE
  8
4
  6
CONTINUOUS
 10
97.840185
 20
19.588439
 11
97.859162
 21
19.812637
  0
LINE
  8
4
  6
CONTINUOUS
 10
8.778544
 20
27.239690
 11
7.782107
 21
27.324031
  0
LINE
  8
4
  6
CONTINUOUS
 10
7.790542
 20
27.423674
 11
7.773673
 21
27.224387
  0
LINE
  8
4
  6
CONTINUOUS
 10
7.810470
 20
27.421987
 11
7.793602
 21
27.222700
  0
LINE
  8
4
  6
CONTINUOUS
 10
7.830399
 20
27.420301
 11
7.813531
 21
27.221013
  0
POLYLINE
  8
4
  6
CONTINUOUS
 66
     1
  0
VERTEX
  8
4
  6
CONTINUOUS
 10
8.778544
 20
27.239690
  0
VERTEX
  8
4
  6
CONTINUOUS
 10
97.438643
 20
19.735328
  0
SEQEND
  8
4
  6
CONTINUOUS
  0
LINE
  8
4
  6
CONTINUOUS
 10
97.506116
 20
20.532478
 11
98.253444
 21
20.469222
  0
LINE
  8
4
  6
CONTINUOUS
 10
98.248699
 20
20.413173
 11
98.258188
 21
20.525272
  0
LINE
  8
4
  6
CONTINUOUS
 10
98.248699
 20
20.413173
 11
99.000771
 21
20.405967
  0
LINE
  8
4
  6
CONTINUOUS
 10
98.258188
 20
20.525272
 11
99.000771
 21
20.405967
  0
LINE
  8
4
  6
CONTINUOUS
 10
98.094490
 20
20.369774
 11
98.113466
 21
20.593973
  0
LINE
  8
4
  6
CONTINUOUS
 10
98.001074
 20
20.377681
 11
98.020050
 21
20.601880
  0
LINE
  8
4
  6
CONTINUOUS
 10
97.907658
 20
20.385588
 11
97.926634
 21
20.609787
  0
LINE
  8
4
  6
CONTINUOUS
 10
8.846017
 20
28.036840
 11
7.849580
 21
28.121180
  0
LINE
  8
4
  6
CONTINUOUS
 10
7.858014
 20
28.220824
 11
7.841146
 21
28.021536
  0
LINE
  8
4
  6
CONTINUOUS
 10
7.877943
 20
28.219137
 11
7.861074
 21
28.019850
  0
LINE
  8
4
  6
CONTINUOUS
 10
7.897871
 20
28.217450
 11
7.881003
 21
28.018163
  0
POLYLINE
  8
4
  6
CONTINUOUS
 66
     1
  0
VERTEX
  8
4
  6
CONTINUOUS
 10
8.846017
 20
28.036840
  0
VERTEX
  8
4
  6
CONTINUOUS
 10
97.506116
 20
20.532478
  0
SEQEND
  8
4
  6
CONTINUOUS
  0
LINE
  8
4
  6
CONTINUOUS
 10
97.573588
 20
21.329627
 11
98.320916
 21
21.266372
  0
LINE
  8
4
  6
CONTINUOUS
 10
98.316172
 20
21.210322
 11
98.325660
 21
21.322422
  0
LINE
  8
4
  6
CONTINUOUS
 10
98.316172
 20
21.210322
 11
99.068244
 21
21.203117
  0
LINE
  8
4
  6
CONTINUOUS
 10
98.325660
 20
21.322422
 11
99.068244
 21
21.203117
  0
LINE
  8
4
  6
CONTINUOUS
 10
98.161962
 20
21.166924
 11
98.180939
 21
21.391122
  0
LINE
  8
4
  6
CONTINUOUS
 10
98.068546
 20
21.174831
 11
98.087523
 21
21.399029
  0
LINE
  8
4
  6
CONTINUOUS
 10
97.975130
 20
21.182738
 11
97.994107
 21
21.406936
  0
LINE
  8
4
  6
CONTINUOUS
 10
8.913489
 20
28.833989
 11
7.917052
 21
28.918330
  0
LINE
  8
4
  6
CONTINUOUS
 10
7.925486
 20
29.017973
 11
7.908618
 21
28.818686
  0
LINE
  8
4
  6
CONTINUOUS
 10
7.945415
 20
29.016287
 11
7.928547
 21
28.816999
  0
LINE
  8
4
  6
CONTINUOUS
 10
7.965344
 20
29.014600
 11
7.948476
 21
28.815312
  0
POLYLINE
  8
4
  6
CONTINUOUS
 66
     1
  0
VERTEX
  8
4
  6
CONTINUOUS
 10
8.913489
 20
28.833989
  0
VERTEX
  8
4
  6
CONTINUOUS
 10
97.573588
 20
21.329627
  0
SEQEND
  8
4
  6
CONTINUOUS
  0
LINE
  8
4
  6
CONTINUOUS
 10
96.389425
 20
7.340043
 11
97.136753
 21
7.276787
  0
LINE
  8
4
  6
CONTINUOUS
 10
97.132009
 20
7.220738
 11
97.141497
 21
7.332837
  0
LINE
  8
4
  6
CONTINUOUS
 10
97.132009
 20
7.220738
 11
97.884080
 21
7.213532
  0
LINE
  8
4
  6
CONTINUOUS
 10
97.141497
 20
7.332837
 11
97.884080
 21
7.213532
  0
LINE
  8
4
  6
CONTINUOUS
 10
96.965342
 20
7.178394
 11
96.984319
 21
7.402592
  0
LINE
  8
4
  6
CONTINUOUS
 10
96.840788
 20
7.188936
 11
96.859765
 21
7.413134
  0
LINE
  8
4
  6
CONTINUOUS
 10
8.338358
 20
14.792851
 11
7.341921
 21
14.877191
  0
LINE
  8
4
  6
CONTINUOUS
 10
7.350355
 20
14.976835
 11
7.333487
 21
14.777548
  0
LINE
  8
4
  6
CONTINUOUS
 10
7.370284
 20
14.975148
 11
7.353416
 21
14.775861
  0
LINE
  8
4
  6
CONTINUOUS
 10
7.390212
 20
14.973462
 11
7.373344
 21
14.774174
  0
POLYLINE
  8
4
  6
CONTINUOUS
 66
     1
  0
VERTEX
  8
4
  6
CONTINUOUS
 10
8.338358
 20
14.792851
  0
VERTEX
  8
4
  6
CONTINUOUS
 10
96.389425
 20
7.340043
  0
SEQEND
  8
4
  6
CONTINUOUS
  0
LINE
  8
4
  6
CONTINUOUS
 10
96.521558
 20
8.901127
 11
97.268886
 21
8.837872
  0
LINE
  8
4
  6
CONTINUOUS
 10
97.264142
 20
8.781822
 11
97.273630
 21
8.893922
  0
LINE
  8
4
  6
CONTINUOUS
 10
97.264142
 20
8.781822
 11
98.016214
 21
8.774617
  0
LINE
  8
4
  6
CONTINUOUS
 10
97.273630
 20
8.893922
 11
98.016214
 21
8.774617
  0
LINE
  8
4
  6
CONTINUOUS
 10
97.097476
 20
8.739478
 11
97.116452
 21
8.963677
  0
LINE
  8
4
  6
CONTINUOUS
 10
96.972921
 20
8.750021
 11
96.991898
 21
8.974219
  0
LINE
  8
4
  6
CONTINUOUS
 10
8.470491
 20
16.353936
 11
7.474054
 21
16.438276
  0
LINE
  8
4
  6
CONTINUOUS
 10
7.482488
 20
16.537920
 11
7.465620
 21
16.338632
  0
LINE
  8
4
  6
CONTINUOUS
 10
7.502417
 20
16.536233
 11
7.485549
 21
16.336946
  0
LINE
  8
4
  6
CONTINUOUS
 10
7.522346
 20
16.534546
 11
7.505478
 21
16.335259
  0
POLYLINE
  8
4
  6
CONTINUOUS
 66
     1
  0
VERTEX
  8
4
  6
CONTINUOUS
 10
8.470491
 20
16.353936
  0
VERTEX
  8
4
  6
CONTINUOUS
 10
96.521558
 20
8.901127
  0
SEQEND
  8
4
  6
CONTINUOUS
  0
LINE
  8
4
  6
CONTINUOUS
 10
96.653691
 20
10.462212
 11
97.401019
 21
10.398957
  0
LINE
  8
4
  6
CONTINUOUS
 10
97.396275
 20
10.342907
 11
97.405763
 21
10.455006
  0
LINE
  8
4
  6
CONTINUOUS
 10
97.396275
 20
10.342907
 11
98.148347
 21
10.335701
  0
LINE
  8
4
  6
CONTINUOUS
 10
97.405763
 20
10.455006
 11
98.148347
 21
10.335701
  0
LINE
  8
4
  6
CONTINUOUS
 10
97.229609
 20
10.300563
 11
97.248585
 21
10.524761
  0
LINE
  8
4
  6
CONTINUOUS
 10
97.105055
 20
10.311105
 11
97.124031
 21
10.535304
  0
LINE
  8
4
  6
CONTINUOUS
 10
8.602624
 20
17.915020
 11
7.606187
 21
17.999361
  0
LINE
  8
4
  6
CONTINUOUS
 10
7.614621
 20
18.099004
 11
7.597753
 21
17.899717
  0
LINE
  8
4
  6
CONTINUOUS
 10
7.634550
 20
18.097318
 11
7.617682
 21
17.898030
  0
LINE
  8
4
  6
CONTINUOUS
 10
7.654479
 20
18.095631
 11
7.637611
 21
17.896343
  0
POLYLINE
  8
4
  6
CONTINUOUS
 66
     1
  0
VERTEX
  8
4
  6
CONTINUOUS
 10
8.602624
 20
17.915020
  0
VERTEX
  8
4
  6
CONTINUOUS
 10
96.653691
 20
10.462212
  0
SEQEND
  8
4
  6
CONTINUOUS
  0
LINE
  8
4
  6
CONTINUOUS
 10
97.657682
 20
22.322360
 11
98.405009
 21
22.259105
  0
LINE
  8
4
  6
CONTINUOUS
 10
98.400265
 20
22.203056
 11
98.409754
 21
22.315155
  0
LINE
  8
4
  6
CONTINUOUS
 10
98.400265
 20
22.203056
 11
99.152337
 21
22.195850
  0
LINE
  8
4
  6
CONTINUOUS
 10
98.409754
 20
22.315155
 11
99.152337
 21
22.195850
  0
LINE
  8
4
  6
CONTINUOUS
 10
98.246056
 20
22.159657
 11
98.265032
 21
22.383855
  0
LINE
  8
4
  6
CONTINUOUS
 10
98.152640
 20
22.167564
 11
98.171616
 21
22.391762
  0
LINE
  8
4
  6
CONTINUOUS
 10
98.059224
 20
22.175471
 11
98.078200
 21
22.399669
  0
LINE
  8
4
  6
CONTINUOUS
 10
7.602040
 20
29.944853
 11
6.605603
 21
30.029193
  0
LINE
  8
4
  6
CONTINUOUS
 10
6.614037
 20
30.128837
 11
6.597169
 21
29.929550
  0
LINE
  8
4
  6
CONTINUOUS
 10
6.633966
 20
30.127150
 11
6.617097
 21
29.927863
  0
LINE
  8
4
  6
CONTINUOUS
 10
6.653894
 20
30.125463
 11
6.637026
 21
29.926176
  0
POLYLINE
  8
4
  6
CONTINUOUS
 66
     1
  0
VERTEX
  8
4
  6
CONTINUOUS
 10
7.602040
 20
29.944853
  0
VERTEX
  8
4
  6
CONTINUOUS
 10
97.657682
 20
22.322360
  0
SEQEND
  8
4
  6
CONTINUOUS
  0
LINE
  8
4
  6
CONTINUOUS
 10
97.725154
 20
23.119510
 11
98.472482
 21
23.056255
  0
LINE
  8
4
  6
CONTINUOUS
 10
98.467738
 20
23.000205
 11
98.477226
 21
23.112304
  0
LINE
  8
4
  6
CONTINUOUS
 10
98.467738
 20
23.000205
 11
99.219810
 21
22.992999
  0
LINE
  8
4
  6
CONTINUOUS
 10
98.477226
 20
23.112304
 11
99.219810
 21
22.992999
  0
LINE
  8
4
  6
CONTINUOUS
 10
98.313528
 20
22.956807
 11
98.332505
 21
23.181005
  0
LINE
  8
4
  6
CONTINUOUS
 10
98.220112
 20
22.964714
 11
98.239089
 21
23.188912
  0
LINE
  8
4
  6
CONTINUOUS
 10
98.126696
 20
22.972620
 11
98.145673
 21
23.196819
  0
LINE
  8
4
  6
CONTINUOUS
 10
7.669512
 20
30.742002
 11
6.673075
 21
30.826343
  0
LINE
  8
4
  6
CONTINUOUS
 10
6.681509
 20
30.925987
 11
6.664641
 21
30.726699
  0
LINE
  8
4
  6
CONTINUOUS
 10
6.701438
 20
30.924300
 11
6.684570
 21
30.725012
  0
LINE
  8
4
  6
CONTINUOUS
 10
6.721367
 20
30.922613
 11
6.704499
 21
30.723325
  0
POLYLINE
  8
4
  6
CONTINUOUS
 66
     1
  0
VERTEX
  8
4
  6
CONTINUOUS
 10
7.669512
 20
30.742002
  0
VERTEX
  8
4
  6
CONTINUOUS
 10
97.725154
 20
23.119510
  0
SEQEND
  8
4
  6
CONTINUOUS
  0
LINE
  8
4
  6
CONTINUOUS
 10
97.792626
 20
23.916660
 11
98.539954
 21
23.853404
  0
LINE
  8
4
  6
CONTINUOUS
 10
98.535210
 20
23.797355
 11
98.544698
 21
23.909454
  0
LINE
  8
4
  6
CONTINUOUS
 10
98.535210
 20
23.797355
 11
99.287282
 21
23.790149
  0
LINE
  8
4
  6
CONTINUOUS
 10
98.544698
 20
23.909454
 11
99.287282
 21
23.790149
  0
LINE
  8
4
  6
CONTINUOUS
 10
98.381000
 20
23.753956
 11
98.399977
 21
23.978155
  0
LINE
  8
4
  6
CONTINUOUS
 10
98.287584
 20
23.761863
 11
98.306561
 21
23.986061
  0
LINE
  8
4
  6
CONTINUOUS
 10
98.194168
 20
23.769770
 11
98.213145
 21
23.993968
  0
LINE
  8
4
  6
CONTINUOUS
 10
7.736984
 20
31.539152
 11
6.740547
 21
31.623492
  0
LINE
  8
4
  6
CONTINUOUS
 10
6.748982
 20
31.723136
 11
6.732113
 21
31.523849
  0
LINE
  8
4
  6
CONTINUOUS
 10
6.768910
 20
31.721449
 11
6.752042
 21
31.522162
  0
LINE
  8
4
  6
CONTINUOUS
 10
6.788839
 20
31.719762
 11
6.771971
 21
31.520475
  0
POLYLINE
  8
4
  6
CONTINUOUS
 66
     1
  0
VERTEX
  8
4
  6
CONTINUOUS
 10
7.736984
 20
31.539152
  0
VERTEX
  8
4
  6
CONTINUOUS
 10
97.792626
 20
23.916660
  0
SEQEND
  8
4
  6
CONTINUOUS
  0
LINE
  8
4
  6
CONTINUOUS
 10
97.860099
 20
24.713809
 11
98.607427
 21
24.650554
  0
LINE
  8
4
  6
CONTINUOUS
 10
98.602682
 20
24.594504
 11
98.612171
 21
24.706603
  0
LINE
  8
4
  6
CONTINUOUS
 10
98.602682
 20
24.594504
 11
99.354754
 21
24.587299
  0
LINE
  8
4
  6
CONTINUOUS
 10
98.612171
 20
24.706603
 11
99.354754
 21
24.587299
  0
LINE
  8
4
  6
CONTINUOUS
 10
98.448473
 20
24.551106
 11
98.467449
 21
24.775304
  0
LINE
  8
4
  6
CONTINUOUS
 10
98.355057
 20
24.559013
 11
98.374033
 21
24.783211
  0
LINE
  8
4
  6
CONTINUOUS
 10
98.261641
 20
24.566920
 11
98.280617
 21
24.791118
  0
LINE
  8
4
  6
CONTINUOUS
 10
7.804457
 20
32.336302
 11
6.808020
 21
32.420642
  0
LINE
  8
4
  6
CONTINUOUS
 10
6.816454
 20
32.520286
 11
6.799586
 21
32.320998
  0
LINE
  8
4
  6
CONTINUOUS
 10
6.836383
 20
32.518599
 11
6.819515
 21
32.319311
  0
LINE
  8
4
  6
CONTINUOUS
 10
6.856311
 20
32.516912
 11
6.839443
 21
32.317625
  0
POLYLINE
  8
4
  6
CONTINUOUS
 66
     1
  0
VERTEX
  8
4
  6
CONTINUOUS
 10
7.804457
 20
32.336302
  0
VERTEX
  8
4
  6
CONTINUOUS
 10
97.860099
 20
24.713809
  0
SEQEND
  8
4
  6
CONTINUOUS
  0
LINE
  8
4
  6
CONTINUOUS
 10
97.927571
 20
25.510959
 11
98.674899
 21
25.447703
  0
LINE
  8
4
  6
CONTINUOUS
 10
98.670155
 20
25.391654
 11
98.679643
 21
25.503753
  0
LINE
  8
4
  6
CONTINUOUS
 10
98.670155
 20
25.391654
 11
99.422227
 21
25.384448
  0
LINE
  8
4
  6
CONTINUOUS
 10
98.679643
 20
25.503753
 11
99.422227
 21
25.384448
  0
LINE
  8
4
  6
CONTINUOUS
 10
98.515945
 20
25.348255
 11
98.534922
 21
25.572454
  0
LINE
  8
4
  6
CONTINUOUS
 10
98.422529
 20
25.356162
 11
98.441506
 21
25.580361
  0
LINE
  8
4
  6
CONTINUOUS
 10
98.329113
 20
25.364069
 11
98.348090
 21
25.588268
  0
LINE
  8
4
  6
CONTINUOUS
 10
7.871929
 20
33.133451
 11
6.875492
 21
33.217792
  0
LINE
  8
4
  6
CONTINUOUS
 10
6.883926
 20
33.317435
 11
6.867058
 21
33.118148
  0
LINE
  8
4
  6
CONTINUOUS
 10
6.903855
 20
33.315748
 11
6.886987
 21
33.116461
  0
LINE
  8
4
  6
CONTINUOUS
 10
6.923784
 20
33.314062
 11
6.906916
 21
33.114774
  0
POLYLINE
  8
4
  6
CONTINUOUS
 66
     1
  0
VERTEX
  8
4
  6
CONTINUOUS
 10
7.871929
 20
33.133451
  0
VERTEX
  8
4
  6
CONTINUOUS
 10
97.927571
 20
25.510959
  0
SEQEND
  8
4
  6
CONTINUOUS
  0
LINE
  8
4
  6
CONTINUOUS
 10
97.995043
 20
26.308108
 11
98.742371
 21
26.244853
  0
LINE
  8
4
  6
CONTINUOUS
 10
98.737627
 20
26.188804
 11
98.747115
 21
26.300903
  0
LINE
  8
4
  6
CONTINUOUS
 10
98.737627
 20
26.188804
 11
99.489699
 21
26.181598
  0
LINE
  8
4
  6
CONTINUOUS
 10
98.747115
 20
26.300903
 11
99.489699
 21
26.181598
  0
LINE
  8
4
  6
CONTINUOUS
 10
98.583417
 20
26.145405
 11
98.602394
 21
26.369603
  0
LINE
  8
4
  6
CONTINUOUS
 10
98.490001
 20
26.153312
 11
98.508978
 21
26.377510
  0
LINE
  8
4
  6
CONTINUOUS
 10
98.396585
 20
26.161219
 11
98.415562
 21
26.385417
  0
LINE
  8
4
  6
CONTINUOUS
 10
7.939402
 20
33.930601
 11
6.942965
 21
34.014941
  0
LINE
  8
4
  6
CONTINUOUS
 10
6.951399
 20
34.114585
 11
6.934531
 21
33.915297
  0
LINE
  8
4
  6
CONTINUOUS
 10
6.971327
 20
34.112898
 11
6.954459
 21
33.913611
  0
LINE
  8
4
  6
CONTINUOUS
 10
6.991256
 20
34.111211
 11
6.974388
 21
33.911924
  0
POLYLINE
  8
4
  6
CONTINUOUS
 66
     1
  0
VERTEX
  8
4
  6
CONTINUOUS
 10
7.939402
 20
33.930601
  0
VERTEX
  8
4
  6
CONTINUOUS
 10
97.995043
 20
26.308108
  0
SEQEND
  8
4
  6
CONTINUOUS
  0
LINE
  8
4
  6
CONTINUOUS
 10
98.062516
 20
27.105258
 11
98.809844
 21
27.042003
  0
LINE
  8
4
  6
CONTINUOUS
 10
98.805099
 20
26.985953
 11
98.814588
 21
27.098052
  0
LINE
  8
4
  6
CONTINUOUS
 10
98.805099
 20
26.985953
 11
99.557171
 21
26.978747
  0
LINE
  8
4
  6
CONTINUOUS
 10
98.814588
 20
27.098052
 11
99.557171
 21
26.978747
  0
LINE
  8
4
  6
CONTINUOUS
 10
98.650890
 20
26.942555
 11
98.669866
 21
27.166753
  0
LINE
  8
4
  6
CONTINUOUS
 10
98.557474
 20
26.950462
 11
98.576450
 21
27.174660
  0
LINE
  8
4
  6
CONTINUOUS
 10
98.464058
 20
26.958368
 11
98.483034
 21
27.182567
  0
LINE
  8
4
  6
CONTINUOUS
 10
8.006874
 20
34.727750
 11
7.010437
 21
34.812091
  0
LINE
  8
4
  6
CONTINUOUS
 10
7.018871
 20
34.911734
 11
7.002003
 21
34.712447
  0
LINE
  8
4
  6
CONTINUOUS
 10
7.038800
 20
34.910048
 11
7.021932
 21
34.710760
  0
LINE
  8
4
  6
CONTINUOUS
 10
7.058728
 20
34.908361
 11
7.041860
 21
34.709073
  0
POLYLINE
  8
4
  6
CONTINUOUS
 66
     1
  0
VERTEX
  8
4
  6
CONTINUOUS
 10
8.006874
 20
34.727750
  0
VERTEX
  8
4
  6
CONTINUOUS
 10
98.062516
 20
27.105258
  0
SEQEND
  8
4
  6
CONTINUOUS
  0
LINE
  8
4
  6
CONTINUOUS
 10
98.129988
 20
27.902408
 11
98.877316
 21
27.839152
  0
LINE
  8
4
  6
CONTINUOUS
 10
98.872572
 20
27.783103
 11
98.882060
 21
27.895202
  0
LINE
  8
4
  6
CONTINUOUS
 10
98.872572
 20
27.783103
 11
99.624644
 21
27.775897
  0
LINE
  8
4
  6
CONTINUOUS
 10
98.882060
 20
27.895202
 11
99.624644
 21
27.775897
  0
LINE
  8
4
  6
CONTINUOUS
 10
98.718362
 20
27.739704
 11
98.737339
 21
27.963903
  0
LINE
  8
4
  6
CONTINUOUS
 10
98.624946
 20
27.747611
 11
98.643923
 21
27.971809
  0
LINE
  8
4
  6
CONTINUOUS
 10
98.531530
 20
27.755518
 11
98.550507
 21
27.979716
  0
LINE
  8
4
  6
CONTINUOUS
 10
8.074346
 20
35.524900
 11
7.077909
 21
35.609240
  0
LINE
  8
4
  6
CONTINUOUS
 10
7.086343
 20
35.708884
 11
7.069475
 21
35.509597
  0
LINE
  8
4
  6
CONTINUOUS
 10
7.106272
 20
35.707197
 11
7.089404
 21
35.507910
  0
LINE
  8
4
  6
CONTINUOUS
 10
7.126201
 20
35.705510
 11
7.109333
 21
35.506223
  0
POLYLINE
  8
4
  6
CONTINUOUS
 66
     1
  0
VERTEX
  8
4
  6
CONTINUOUS
 10
8.074346
 20
35.524900
  0
VERTEX
  8
4
  6
CONTINUOUS
 10
98.129988
 20
27.902408
  0
SEQEND
  8
4
  6
CONTINUOUS
  0
LINE
  8
4
  6
CONTINUOUS
 10
98.197461
 20
28.699557
 11
98.944788
 21
28.636302
  0
LINE
  8
4
  6
CONTINUOUS
 10
98.940044
 20
28.580252
 11
98.949532
 21
28.692351
  0
LINE
  8
4
  6
CONTINUOUS
 10
98.940044
 20
28.580252
 11
99.692116
 21
28.573047
  0
LINE
  8
4
  6
CONTINUOUS
 10
98.949532
 20
28.692351
 11
99.692116
 21
28.573047
  0
LINE
  8
4
  6
CONTINUOUS
 10
98.785834
 20
28.536854
 11
98.804811
 21
28.761052
  0
LINE
  8
4
  6
CONTINUOUS
 10
98.692418
 20
28.544761
 11
98.711395
 21
28.768959
  0
LINE
  8
4
  6
CONTINUOUS
 10
98.599003
 20
28.552668
 11
98.617979
 21
28.776866
  0
LINE
  8
4
  6
CONTINUOUS
 10
8.141819
 20
36.322050
 11
7.145382
 21
36.406390
  0
LINE
  8
4
  6
CONTINUOUS
 10
7.153816
 20
36.506034
 11
7.136948
 21
36.306746
  0
LINE
  8
4
  6
CONTINUOUS
 10
7.173744
 20
36.504347
 11
7.156876
 21
36.305059
  0
LINE
  8
4
  6
CONTINUOUS
 10
7.193673
 20
36.502660
 11
7.176805
 21
36.303373
  0
POLYLINE
  8
4
  6
CONTINUOUS
 66
     1
  0
VERTEX
  8
4
  6
CONTINUOUS
 10
8.141819
 20
36.322050
  0
VERTEX
  8
4
  6
CONTINUOUS
 10
98.197461
 20
28.699557
  0
SEQEND
  8
4
  6
CONTINUOUS
  0
LINE
  8
4
  6
CONTINUOUS
 10
98.264933
 20
29.496707
 11
99.012261
 21
29.433451
  0
LINE
  8
4
  6
CONTINUOUS
 10
99.007517
 20
29.377402
 11
99.017005
 21
29.489501
  0
LINE
  8
4
  6
CONTINUOUS
 10
99.007517
 20
29.377402
 11
99.759588
 21
29.370196
  0
LINE
  8
4
  6
CONTINUOUS
 10
99.017005
 20
29.489501
 11
99.759588
 21
29.370196
  0
LINE
  8
4
  6
CONTINUOUS
 10
98.853307
 20
29.334003
 11
98.872283
 21
29.558202
  0
LINE
  8
4
  6
CONTINUOUS
 10
98.759891
 20
29.341910
 11
98.778867
 21
29.566109
  0
LINE
  8
4
  6
CONTINUOUS
 10
98.666475
 20
29.349817
 11
98.685451
 21
29.574016
  0
LINE
  8
4
  6
CONTINUOUS
 10
8.209291
 20
37.119199
 11
7.212854
 21
37.203540
  0
LINE
  8
4
  6
CONTINUOUS
 10
7.221288
 20
37.303183
 11
7.204420
 21
37.103896
  0
LINE
  8
4
  6
CONTINUOUS
 10
7.241217
 20
37.301496
 11
7.224349
 21
37.102209
  0
LINE
  8
4
  6
CONTINUOUS
 10
7.261146
 20
37.299810
 11
7.244277
 21
37.100522
  0
POLYLINE
  8
4
  6
CONTINUOUS
 66
     1
  0
VERTEX
  8
4
  6
CONTINUOUS
 10
8.209291
 20
37.119199
  0
VERTEX
  8
4
  6
CONTINUOUS
 10
98.264933
 20
29.496707
  0
SEQEND
  8
4
  6
CONTINUOUS
  0
LINE
  8
4
  6
CONTINUOUS
 10
98.332405
 20
30.293856
 11
99.079733
 21
30.230601
  0
LINE
  8
4
  6
CONTINUOUS
 10
99.074989
 20
30.174551
 11
99.084477
 21
30.286651
  0
LINE
  8
4
  6
CONTINUOUS
 10
99.074989
 20
30.174551
 11
99.827061
 21
30.167346
  0
LINE
  8
4
  6
CONTINUOUS
 10
99.084477
 20
30.286651
 11
99.827061
 21
30.167346
  0
LINE
  8
4
  6
CONTINUOUS
 10
98.920779
 20
30.131153
 11
98.939756
 21
30.355351
  0
LINE
  8
4
  6
CONTINUOUS
 10
98.827363
 20
30.139060
 11
98.846340
 21
30.363258
  0
LINE
  8
4
  6
CONTINUOUS
 10
98.733947
 20
30.146967
 11
98.752924
 21
30.371165
  0
LINE
  8
4
  6
CONTINUOUS
 10
8.276763
 20
37.916349
 11
7.280326
 21
38.000689
  0
LINE
  8
4
  6
CONTINUOUS
 10
7.288760
 20
38.100333
 11
7.271892
 21
37.901045
  0
LINE
  8
4
  6
CONTINUOUS
 10
7.308689
 20
38.098646
 11
7.291821
 21
37.899359
  0
LINE
  8
4
  6
CONTINUOUS
 10
7.328618
 20
38.096959
 11
7.311750
 21
37.897672
  0
POLYLINE
  8
4
  6
CONTINUOUS
 66
     1
  0
VERTEX
  8
4
  6
CONTINUOUS
 10
8.276763
 20
37.916349
  0
VERTEX
  8
4
  6
CONTINUOUS
 10
98.332405
 20
30.293856
  0
SEQEND
  8
4
  6
CONTINUOUS
  0
LINE
  8
4
  6
CONTINUOUS
 10
98.399878
 20
31.091006
 11
99.147205
 21
31.027751
  0
LINE
  8
4
  6
CONTINUOUS
 10
99.142461
 20
30.971701
 11
99.151950
 21
31.083800
  0
LINE
  8
4
  6
CONTINUOUS
 10
99.142461
 20
30.971701
 11
99.894533
 21
30.964495
  0
LINE
  8
4
  6
CONTINUOUS
 10
99.151950
 20
31.083800
 11
99.894533
 21
30.964495
  0
LINE
  8
4
  6
CONTINUOUS
 10
98.988252
 20
30.928303
 11
99.007228
 21
31.152501
  0
LINE
  8
4
  6
CONTINUOUS
 10
98.894836
 20
30.936209
 11
98.913812
 21
31.160408
  0
LINE
  8
4
  6
CONTINUOUS
 10
98.801420
 20
30.944116
 11
98.820396
 21
31.168315
  0
LINE
  8
4
  6
CONTINUOUS
 10
8.344236
 20
38.713498
 11
7.347799
 21
38.797839
  0
LINE
  8
4
  6
CONTINUOUS
 10
7.356233
 20
38.897482
 11
7.339365
 21
38.698195
  0
LINE
  8
4
  6
CONTINUOUS
 10
7.376162
 20
38.895796
 11
7.359293
 21
38.696508
  0
LINE
  8
4
  6
CONTINUOUS
 10
7.396090
 20
38.894109
 11
7.379222
 21
38.694821
  0
POLYLINE
  8
4
  6
CONTINUOUS
 66
     1
  0
VERTEX
  8
4
  6
CONTINUOUS
 10
8.344236
 20
38.713498
  0
VERTEX
  8
4
  6
CONTINUOUS
 10
98.399878
 20
31.091006
  0
SEQEND
  8
4
  6
CONTINUOUS
  0
LINE
  8
4
  6
CONTINUOUS
 10
98.467350
 20
31.888156
 11
99.214678
 21
31.824900
  0
LINE
  8
4
  6
CONTINUOUS
 10
99.209934
 20
31.768851
 11
99.219422
 21
31.880950
  0
LINE
  8
4
  6
CONTINUOUS
 10
99.209934
 20
31.768851
 11
99.962006
 21
31.761645
  0
LINE
  8
4
  6
CONTINUOUS
 10
99.219422
 20
31.880950
 11
99.962006
 21
31.761645
  0
LINE
  8
4
  6
CONTINUOUS
 10
99.055724
 20
31.725452
 11
99.074701
 21
31.949651
  0
LINE
  8
4
  6
CONTINUOUS
 10
98.962308
 20
31.733359
 11
98.981285
 21
31.957557
  0
LINE
  8
4
  6
CONTINUOUS
 10
98.868892
 20
31.741266
 11
98.887869
 21
31.965464
  0
LINE
  8
4
  6
CONTINUOUS
 10
8.411708
 20
39.510648
 11
7.415271
 21
39.594988
  0
LINE
  8
4
  6
CONTINUOUS
 10
7.423705
 20
39.694632
 11
7.406837
 21
39.495345
  0
LINE
  8
4
  6
CONTINUOUS
 10
7.443634
 20
39.692945
 11
7.426766
 21
39.493658
  0
LINE
  8
4
  6
CONTINUOUS
 10
7.463563
 20
39.691258
 11
7.446695
 21
39.491971
  0
POLYLINE
  8
4
  6
CONTINUOUS
 66
     1
  0
VERTEX
  8
4
  6
CONTINUOUS
 10
8.411708
 20
39.510648
  0
VERTEX
  8
4
  6
CONTINUOUS
 10
98.467350
 20
31.888156
  0
SEQEND
  8
4
  6
CONTINUOUS
  0
LINE
  8
4
  6
CONTINUOUS
 10
98.554058
 20
32.911772
 11
99.301385
 21
32.848517
  0
LINE
  8
4
  6
CONTINUOUS
 10
99.296641
 20
32.792467
 11
99.306129
 21
32.904566
  0
LINE
  8
4
  6
CONTINUOUS
 10
99.296641
 20
32.792467
 11
100.048713
 21
32.785261
  0
LINE
  8
4
  6
CONTINUOUS
 10
99.306129
 20
32.904566
 11
100.048713
 21
32.785261
  0
LINE
  8
4
  6
CONTINUOUS
 10
99.142431
 20
32.749069
 11
99.161408
 21
32.973267
  0
LINE
  8
4
  6
CONTINUOUS
 10
99.049015
 20
32.756975
 11
99.067992
 21
32.981174
  0
LINE
  8
4
  6
CONTINUOUS
 10
98.955599
 20
32.764882
 11
98.974576
 21
32.989081
  0
LINE
  8
4
  6
CONTINUOUS
 10
7.621143
 20
40.608524
 11
6.624706
 21
40.692864
  0
LINE
  8
4
  6
CONTINUOUS
 10
6.633140
 20
40.792508
 11
6.616272
 21
40.593221
  0
LINE
  8
4
  6
CONTINUOUS
 10
6.653069
 20
40.790821
 11
6.636201
 21
40.591534
  0
LINE
  8
4
  6
CONTINUOUS
 10
6.672998
 20
40.789134
 11
6.656130
 21
40.589847
  0
POLYLINE
  8
4
  6
CONTINUOUS
 66
     1
  0
VERTEX
  8
4
  6
CONTINUOUS
 10
7.621143
 20
40.608524
  0
VERTEX
  8
4
  6
CONTINUOUS
 10
98.554058
 20
32.911772
  0
SEQEND
  8
4
  6
CONTINUOUS
  0
LINE
  8
4
  6
CONTINUOUS
 10
98.641209
 20
33.941424
 11
99.388537
 21
33.878168
  0
LINE
  8
4
  6
CONTINUOUS
 10
99.383793
 20
33.822119
 11
99.393281
 21
33.934218
  0
LINE
  8
4
  6
CONTINUOUS
 10
99.383793
 20
33.822119
 11
100.135865
 21
33.814913
  0
LINE
  8
4
  6
CONTINUOUS
 10
99.393281
 20
33.934218
 11
100.135865
 21
33.814913
  0
LINE
  8
4
  6
CONTINUOUS
 10
99.229583
 20
33.778720
 11
99.248560
 21
34.002918
  0
LINE
  8
4
  6
CONTINUOUS
 10
99.136167
 20
33.786627
 11
99.155144
 21
34.010825
  0
LINE
  8
4
  6
CONTINUOUS
 10
99.042751
 20
33.794534
 11
99.061728
 21
34.018732
  0
LINE
  8
4
  6
CONTINUOUS
 10
7.708295
 20
41.638175
 11
6.711858
 21
41.722516
  0
LINE
  8
4
  6
CONTINUOUS
 10
6.720292
 20
41.822160
 11
6.703424
 21
41.622872
  0
LINE
  8
4
  6
CONTINUOUS
 10
6.740221
 20
41.820473
 11
6.723353
 21
41.621185
  0
LINE
  8
4
  6
CONTINUOUS
 10
6.760150
 20
41.818786
 11
6.743281
 21
41.619499
  0
POLYLINE
  8
4
  6
CONTINUOUS
 66
     1
  0
VERTEX
  8
4
  6
CONTINUOUS
 10
7.708295
 20
41.638175
  0
VERTEX
  8
4
  6
CONTINUOUS
 10
98.641209
 20
33.941424
  0
SEQEND
  8
4
  6
CONTINUOUS
  0
LINE
  8
4
  6
CONTINUOUS
 10
98.728361
 20
34.971075
 11
99.475689
 21
34.907820
  0
LINE
  8
4
  6
CONTINUOUS
 10
99.470945
 20
34.851770
 11
99.480433
 21
34.963869
  0
LINE
  8
4
  6
CONTINUOUS
 10
99.470945
 20
34.851770
 11
100.223017
 21
34.844564
  0
LINE
  8
4
  6
CONTINUOUS
 10
99.480433
 20
34.963869
 11
100.223017
 21
34.844564
  0
LINE
  8
4
  6
CONTINUOUS
 10
99.316735
 20
34.808372
 11
99.335712
 21
35.032570
  0
LINE
  8
4
  6
CONTINUOUS
 10
99.223319
 20
34.816279
 11
99.242296
 21
35.040477
  0
LINE
  8
4
  6
CONTINUOUS
 10
99.129903
 20
34.824185
 11
99.148880
 21
35.048384
  0
LINE
  8
4
  6
CONTINUOUS
 10
7.795447
 20
42.667827
 11
6.799010
 21
42.752167
  0
LINE
  8
4
  6
CONTINUOUS
 10
6.807444
 20
42.851811
 11
6.790576
 21
42.652524
  0
LINE
  8
4
  6
CONTINUOUS
 10
6.827373
 20
42.850124
 11
6.810505
 21
42.650837
  0
LINE
  8
4
  6
CONTINUOUS
 10
6.847301
 20
42.848438
 11
6.830433
 21
42.649150
  0
POLYLINE
  8
4
  6
CONTINUOUS
 66
     1
  0
VERTEX
  8
4
  6
CONTINUOUS
 10
7.795447
 20
42.667827
  0
VERTEX
  8
4
  6
CONTINUOUS
 10
98.728361
 20
34.971075
  0
SEQEND
  8
4
  6
CONTINUOUS
  0
LINE
  8
4
  6
CONTINUOUS
 10
98.815513
 20
36.000727
 11
99.562841
 21
35.937471
  0
LINE
  8
4
  6
CONTINUOUS
 10
99.558097
 20
35.881422
 11
99.567585
 21
35.993521
  0
LINE
  8
4
  6
CONTINUOUS
 10
99.558097
 20
35.881422
 11
100.310169
 21
35.874216
  0
LINE
  8
4
  6
CONTINUOUS
 10
99.567585
 20
35.993521
 11
100.310169
 21
35.874216
  0
LINE
  8
4
  6
CONTINUOUS
 10
99.403887
 20
35.838023
 11
99.422864
 21
36.062222
  0
LINE
  8
4
  6
CONTINUOUS
 10
99.310471
 20
35.845930
 11
99.329448
 21
36.070128
  0
LINE
  8
4
  6
CONTINUOUS
 10
99.217055
 20
35.853837
 11
99.236032
 21
36.078035
  0
LINE
  8
4
  6
CONTINUOUS
 10
7.882599
 20
43.697479
 11
6.886162
 21
43.781819
  0
LINE
  8
4
  6
CONTINUOUS
 10
6.894596
 20
43.881463
 11
6.877728
 21
43.682175
  0
LINE
  8
4
  6
CONTINUOUS
 10
6.914525
 20
43.879776
 11
6.897656
 21
43.680489
  0
LINE
  8
4
  6
CONTINUOUS
 10
6.934453
 20
43.878089
 11
6.917585
 21
43.678802
  0
POLYLINE
  8
4
  6
CONTINUOUS
 66
     1
  0
VERTEX
  8
4
  6
CONTINUOUS
 10
7.882599
 20
43.697479
  0
VERTEX
  8
4
  6
CONTINUOUS
 10
98.815513
 20
36.000727
  0
SEQEND
  8
4
  6
CONTINUOUS
  0
LINE
  8
4
  6
CONTINUOUS
 10
98.902665
 20
37.030378
 11
99.649993
 21
36.967123
  0
LINE
  8
4
  6
CONTINUOUS
 10
99.645249
 20
36.911073
 11
99.654737
 21
37.023172
  0
LINE
  8
4
  6
CONTINUOUS
 10
99.645249
 20
36.911073
 11
100.397320
 21
36.903867
  0
LINE
  8
4
  6
CONTINUOUS
 10
99.654737
 20
37.023172
 11
100.397320
 21
36.903867
  0
LINE
  8
4
  6
CONTINUOUS
 10
99.491039
 20
36.867675
 11
99.510015
 21
37.091873
  0
LINE
  8
4
  6
CONTINUOUS
 10
99.397623
 20
36.875582
 11
99.416599
 21
37.099780
  0
LINE
  8
4
  6
CONTINUOUS
 10
99.304207
 20
36.883489
 11
99.323184
 21
37.107687
  0
LINE
  8
4
  6
CONTINUOUS
 10
7.969751
 20
44.727130
 11
6.973314
 21
44.811471
  0
LINE
  8
4
  6
CONTINUOUS
 10
6.981748
 20
44.911114
 11
6.964880
 21
44.711827
  0
LINE
  8
4
  6
CONTINUOUS
 10
7.001676
 20
44.909427
 11
6.984808
 21
44.710140
  0
LINE
  8
4
  6
CONTINUOUS
 10
7.021605
 20
44.907741
 11
7.004737
 21
44.708453
  0
POLYLINE
  8
4
  6
CONTINUOUS
 66
     1
  0
VERTEX
  8
4
  6
CONTINUOUS
 10
7.969751
 20
44.727130
  0
VERTEX
  8
4
  6
CONTINUOUS
 10
98.902665
 20
37.030378
  0
SEQEND
  8
4
  6
CONTINUOUS
  0
LINE
  8
4
  6
CONTINUOUS
 10
98.989817
 20
38.060030
 11
99.737145
 21
37.996774
  0
LINE
  8
4
  6
CONTINUOUS
 10
99.732400
 20
37.940725
 11
99.741889
 21
38.052824
  0
LINE
  8
4
  6
CONTINUOUS
 10
99.732400
 20
37.940725
 11
100.484472
 21
37.933519
  0
LINE
  8
4
  6
CONTINUOUS
 10
99.741889
 20
38.052824
 11
100.484472
 21
37.933519
  0
LINE
  8
4
  6
CONTINUOUS
 10
99.578191
 20
37.897326
 11
99.597167
 21
38.121525
  0
LINE
  8
4
  6
CONTINUOUS
 10
99.484775
 20
37.905233
 11
99.503751
 21
38.129432
  0
LINE
  8
4
  6
CONTINUOUS
 10
99.391359
 20
37.913140
 11
99.410335
 21
38.137338
  0
LINE
  8
4
  6
CONTINUOUS
 10
8.056902
 20
45.756782
 11
7.060465
 21
45.841122
  0
LINE
  8
4
  6
CONTINUOUS
 10
7.068900
 20
45.940766
 11
7.052031
 21
45.741478
  0
LINE
  8
4
  6
CONTINUOUS
 10
7.088828
 20
45.939079
 11
7.071960
 21
45.739792
  0
LINE
  8
4
  6
CONTINUOUS
 10
7.108757
 20
45.937392
 11
7.091889
 21
45.738105
  0
POLYLINE
  8
4
  6
CONTINUOUS
 66
     1
  0
VERTEX
  8
4
  6
CONTINUOUS
 10
8.056902
 20
45.756782
  0
VERTEX
  8
4
  6
CONTINUOUS
 10
98.989817
 20
38.060030
  0
SEQEND
  8
4
  6
CONTINUOUS
  0
LINE
  8
4
  6
CONTINUOUS
 10
99.076969
 20
39.089681
 11
99.824296
 21
39.026426
  0
LINE
  8
4
  6
CONTINUOUS
 10
99.819552
 20
38.970376
 11
99.829041
 21
39.082476
  0
LINE
  8
4
  6
CONTINUOUS
 10
99.819552
 20
38.970376
 11
100.571624
 21
38.963171
  0
LINE
  8
4
  6
CONTINUOUS
 10
99.829041
 20
39.082476
 11
100.571624
 21
38.963171
  0
LINE
  8
4
  6
CONTINUOUS
 10
99.665343
 20
38.926978
 11
99.684319
 21
39.151176
  0
LINE
  8
4
  6
CONTINUOUS
 10
99.571927
 20
38.934885
 11
99.590903
 21
39.159083
  0
LINE
  8
4
  6
CONTINUOUS
 10
99.478511
 20
38.942792
 11
99.497487
 21
39.166990
  0
LINE
  8
4
  6
CONTINUOUS
 10
8.144054
 20
46.786433
 11
7.147617
 21
46.870774
  0
LINE
  8
4
  6
CONTINUOUS
 10
7.156051
 20
46.970417
 11
7.139183
 21
46.771130
  0
LINE
  8
4
  6
CONTINUOUS
 10
7.175980
 20
46.968731
 11
7.159112
 21
46.769443
  0
LINE
  8
4
  6
CONTINUOUS
 10
7.195909
 20
46.967044
 11
7.179041
 21
46.767756
  0
POLYLINE
  8
4
  6
CONTINUOUS
 66
     1
  0
VERTEX
  8
4
  6
CONTINUOUS
 10
8.144054
 20
46.786433
  0
VERTEX
  8
4
  6
CONTINUOUS
 10
99.076969
 20
39.089681
  0
SEQEND
  8
4
  6
CONTINUOUS
  0
LINE
  8
4
  6
CONTINUOUS
 10
99.164121
 20
40.119333
 11
99.911448
 21
40.056078
  0
LINE
  8
4
  6
CONTINUOUS
 10
99.906704
 20
40.000028
 11
99.916192
 21
40.112127
  0
LINE
  8
4
  6
CONTINUOUS
 10
99.906704
 20
40.000028
 11
100.658776
 21
39.992822
  0
LINE
  8
4
  6
CONTINUOUS
 10
99.916192
 20
40.112127
 11
100.658776
 21
39.992822
  0
LINE
  8
4
  6
CONTINUOUS
 10
99.752494
 20
39.956629
 11
99.771471
 21
40.180828
  0
LINE
  8
4
  6
CONTINUOUS
 10
99.659078
 20
39.964536
 11
99.678055
 21
40.188735
  0
LINE
  8
4
  6
CONTINUOUS
 10
99.565662
 20
39.972443
 11
99.584639
 21
40.196642
  0
LINE
  8
4
  6
CONTINUOUS
 10
8.231206
 20
47.816085
 11
7.234769
 21
47.900425
  0
LINE
  8
4
  6
CONTINUOUS
 10
7.243203
 20
48.000069
 11
7.226335
 21
47.800782
  0
LINE
  8
4
  6
CONTINUOUS
 10
7.263132
 20
47.998382
 11
7.246264
 21
47.799095
  0
LINE
  8
4
  6
CONTINUOUS
 10
7.283061
 20
47.996695
 11
7.266193
 21
47.797408
  0
POLYLINE
  8
4
  6
CONTINUOUS
 66
     1
  0
VERTEX
  8
4
  6
CONTINUOUS
 10
8.231206
 20
47.816085
  0
VERTEX
  8
4
  6
CONTINUOUS
 10
99.164121
 20
40.119333
  0
SEQEND
  8
4
  6
CONTINUOUS
  0
LINE
  8
4
  6
CONTINUOUS
 10
99.251272
 20
41.148984
 11
99.998600
 21
41.085729
  0
LINE
  8
4
  6
CONTINUOUS
 10
99.993856
 20
41.029679
 11
100.003344
 21
41.141779
  0
LINE
  8
4
  6
CONTINUOUS
 10
99.993856
 20
41.029679
 11
100.745928
 21
41.022474
  0
LINE
  8
4
  6
CONTINUOUS
 10
100.003344
 20
41.141779
 11
100.745928
 21
41.022474
  0
LINE
  8
4
  6
CONTINUOUS
 10
99.839646
 20
40.986281
 11
99.858623
 21
41.210479
  0
LINE
  8
4
  6
CONTINUOUS
 10
99.746230
 20
40.994188
 11
99.765207
 21
41.218386
  0
LINE
  8
4
  6
CONTINUOUS
 10
99.652814
 20
41.002095
 11
99.671791
 21
41.226293
  0
LINE
  8
4
  6
CONTINUOUS
 10
8.318358
 20
48.845736
 11
7.321921
 21
48.930077
  0
LINE
  8
4
  6
CONTINUOUS
 10
7.330355
 20
49.029721
 11
7.313487
 21
48.830433
  0
LINE
  8
4
  6
CONTINUOUS
 10
7.350284
 20
49.028034
 11
7.333416
 21
48.828746
  0
LINE
  8
4
  6
CONTINUOUS
 10
7.370213
 20
49.026347
 11
7.353344
 21
48.827060
  0
POLYLINE
  8
4
  6
CONTINUOUS
 66
     1
  0
VERTEX
  8
4
  6
CONTINUOUS
 10
8.318358
 20
48.845736
  0
VERTEX
  8
4
  6
CONTINUOUS
 10
99.251272
 20
41.148984
  0
SEQEND
  8
4
  6
CONTINUOUS
  0
LINE
  8
4
  6
CONTINUOUS
 10
99.338424
 20
42.178636
 11
100.085752
 21
42.115381
  0
LINE
  8
4
  6
CONTINUOUS
 10
100.081008
 20
42.059331
 11
100.090496
 21
42.171430
  0
LINE
  8
4
  6
CONTINUOUS
 10
100.081008
 20
42.059331
 11
100.833080
 21
42.052125
  0
LINE
  8
4
  6
CONTINUOUS
 10
100.090496
 20
42.171430
 11
100.833080
 21
42.052125
  0
LINE
  8
4
  6
CONTINUOUS
 10
99.926798
 20
42.015933
 11
99.945775
 21
42.240131
  0
LINE
  8
4
  6
CONTINUOUS
 10
99.833382
 20
42.023839
 11
99.852359
 21
42.248038
  0
LINE
  8
4
  6
CONTINUOUS
 10
99.739966
 20
42.031746
 11
99.758943
 21
42.255945
  0
LINE
  8
4
  6
CONTINUOUS
 10
8.405510
 20
49.875388
 11
7.409073
 21
49.959728
  0
LINE
  8
4
  6
CONTINUOUS
 10
7.417507
 20
50.059372
 11
7.400639
 21
49.860085
  0
LINE
  8
4
  6
CONTINUOUS
 10
7.437436
 20
50.057685
 11
7.420568
 21
49.858398
  0
LINE
  8
4
  6
CONTINUOUS
 10
7.457364
 20
50.055998
 11
7.440496
 21
49.856711
  0
POLYLINE
  8
4
  6
CONTINUOUS
 66
     1
  0
VERTEX
  8
4
  6
CONTINUOUS
 10
8.405510
 20
49.875388
  0
VERTEX
  8
4
  6
CONTINUOUS
 10
99.338424
 20
42.178636
  0
SEQEND
  8
4
  6
CONTINUOUS
  0
LINE
  8
4
  6
CONTINUOUS
 10
99.425576
 20
43.208288
 11
100.172904
 21
43.145032
  0
LINE
  8
4
  6
CONTINUOUS
 10
100.168160
 20
43.088983
 11
100.177648
 21
43.201082
  0
LINE
  8
4
  6
CONTINUOUS
 10
100.168160
 20
43.088983
 11
100.920232
 21
43.081777
  0
LINE
  8
4
  6
CONTINUOUS
 10
100.177648
 20
43.201082
 11
100.920232
 21
43.081777
  0
LINE
  8
4
  6
CONTINUOUS
 10
100.013950
 20
43.045584
 11
100.032927
 21
43.269782
  0
LINE
  8
4
  6
CONTINUOUS
 10
99.920534
 20
43.053491
 11
99.939511
 21
43.277689
  0
LINE
  8
4
  6
CONTINUOUS
 10
99.827118
 20
43.061398
 11
99.846095
 21
43.285596
  0
LINE
  8
4
  6
CONTINUOUS
 10
8.492662
 20
50.905039
 11
7.496225
 21
50.989380
  0
LINE
  8
4
  6
CONTINUOUS
 10
7.504659
 20
51.089024
 11
7.487791
 21
50.889736
  0
LINE
  8
4
  6
CONTINUOUS
 10
7.524588
 20
51.087337
 11
7.507719
 21
50.888049
  0
LINE
  8
4
  6
CONTINUOUS
 10
7.544516
 20
51.085650
 11
7.527648
 21
50.886363
  0
POLYLINE
  8
4
  6
CONTINUOUS
 66
     1
  0
VERTEX
  8
4
  6
CONTINUOUS
 10
8.492662
 20
50.905039
  0
VERTEX
  8
4
  6
CONTINUOUS
 10
99.425576
 20
43.208288
  0
SEQEND
  8
4
  6
CONTINUOUS
  0
LINE
  8
4
  6
CONTINUOUS
 10
99.512728
 20
44.237939
 11
100.260056
 21
44.174684
  0
LINE
  8
4
  6
CONTINUOUS
 10
100.255312
 20
44.118634
 11
100.264800
 21
44.230733
  0
LINE
  8
4
  6
CONTINUOUS
 10
100.255312
 20
44.118634
 11
101.007383
 21
44.111428
  0
LINE
  8
4
  6
CONTINUOUS
 10
100.264800
 20
44.230733
 11
101.007383
 21
44.111428
  0
LINE
  8
4
  6
CONTINUOUS
 10
100.101102
 20
44.075236
 11
100.120078
 21
44.299434
  0
LINE
  8
4
  6
CONTINUOUS
 10
100.007686
 20
44.083143
 11
100.026663
 21
44.307341
  0
LINE
  8
4
  6
CONTINUOUS
 10
99.914270
 20
44.091050
 11
99.933247
 21
44.315248
  0
LINE
  8
4
  6
CONTINUOUS
 10
8.579814
 20
51.934691
 11
7.583377
 21
52.019032
  0
LINE
  8
4
  6
CONTINUOUS
 10
7.591811
 20
52.118675
 11
7.574943
 21
51.919388
  0
LINE
  8
4
  6
CONTINUOUS
 10
7.611739
 20
52.116988
 11
7.594871
 21
51.917701
  0
LINE
  8
4
  6
CONTINUOUS
 10
7.631668
 20
52.115302
 11
7.614800
 21
51.916014
  0
POLYLINE
  8
4
  6
CONTINUOUS
 66
     1
  0
VERTEX
  8
4
  6
CONTINUOUS
 10
8.579814
 20
51.934691
  0
VERTEX
  8
4
  6
CONTINUOUS
 10
99.512728
 20
44.237939
  0
SEQEND
  8
4
  6
CONTINUOUS
  0
LINE
  8
4
  6
CONTINUOUS
 10
99.625517
 20
45.570085
 11
100.372845
 21
45.506829
  0
LINE
  8
4
  6
CONTINUOUS
 10
100.368100
 20
45.450779
 11
100.377589
 21
45.562879
  0
LINE
  8
4
  6
CONTINUOUS
 10
100.368100
 20
45.450779
 11
101.120172
 21
45.443573
  0
LINE
  8
4
  6
CONTINUOUS
 10
100.377589
 20
45.562879
 11
101.120172
 21
45.443573
  0
LINE
  8
4
  6
CONTINUOUS
 10
100.201434
 20
45.408435
 11
100.220411
 21
45.632634
  0
LINE
  8
4
  6
CONTINUOUS
 10
100.076880
 20
45.418978
 11
100.095857
 21
45.643176
  0
LINE
  8
4
  6
CONTINUOUS
 10
60.777537
 20
48.858300
 11
59.781100
 21
48.942642
  0
LINE
  8
4
  6
CONTINUOUS
 10
59.789534
 20
49.042285
 11
59.772666
 21
48.842998
  0
LINE
  8
4
  6
CONTINUOUS
 10
59.809463
 20
49.040599
 11
59.792595
 21
48.841311
  0
LINE
  8
4
  6
CONTINUOUS
 10
59.829392
 20
49.038912
 11
59.812523
 21
48.839624
  0
POLYLINE
  8
4
  6
CONTINUOUS
 66
     1
  0
VERTEX
  8
4
  6
CONTINUOUS
 10
60.777537
 20
48.858300
  0
VERTEX
  8
4
  6
CONTINUOUS
 10
99.625517
 20
45.570085
  0
SEQEND
  8
4
  6
CONTINUOUS
  0
LINE
  8
4
  6
CONTINUOUS
 10
99.760463
 20
47.164384
 11
100.507791
 21
47.101128
  0
LINE
  8
4
  6
CONTINUOUS
 10
100.503047
 20
47.045078
 11
100.512535
 21
47.157178
  0
LINE
  8
4
  6
CONTINUOUS
 10
100.503047
 20
47.045078
 11
101.255119
 21
47.037872
  0
LINE
  8
4
  6
CONTINUOUS
 10
100.512535
 20
47.157178
 11
101.255119
 21
47.037872
  0
LINE
  8
4
  6
CONTINUOUS
 10
100.336381
 20
47.002734
 11
100.355357
 21
47.226933
  0
LINE
  8
4
  6
CONTINUOUS
 10
100.211826
 20
47.013277
 11
100.230803
 21
47.237475
  0
LINE
  8
4
  6
CONTINUOUS
 10
60.912483
 20
50.452599
 11
59.916046
 21
50.536941
  0
LINE
  8
4
  6
CONTINUOUS
 10
59.924481
 20
50.636584
 11
59.907612
 21
50.437297
  0
LINE
  8
4
  6
CONTINUOUS
 10
59.944409
 20
50.634898
 11
59.927541
 21
50.435610
  0
LINE
  8
4
  6
CONTINUOUS
 10
59.964338
 20
50.633211
 11
59.947470
 21
50.433923
  0
POLYLINE
  8
4
  6
CONTINUOUS
 66
     1
  0
VERTEX
  8
4
  6
CONTINUOUS
 10
60.912483
 20
50.452599
  0
VERTEX
  8
4
  6
CONTINUOUS
 10
99.760463
 20
47.164384
  0
SEQEND
  8
4
  6
CONTINUOUS
  0
LINE
  8
4
  6
CONTINUOUS
 10
35.760336
 20
50.975724
 11
36.756773
 21
50.891382
  0
LINE
  8
4
  6
CONTINUOUS
 10
36.748339
 20
50.791738
 11
36.765207
 21
50.991025
  0
LINE
  8
4
  6
CONTINUOUS
 10
36.728410
 20
50.793425
 11
36.745279
 21
50.992712
  0
LINE
  8
4
  6
CONTINUOUS
 10
36.708481
 20
50.795112
 11
36.725350
 21
50.994399
  0
LINE
  8
4
  6
CONTINUOUS
 10
6.838625
 20
53.423765
 11
6.091297
 21
53.487022
  0
LINE
  8
4
  6
CONTINUOUS
 10
6.096041
 20
53.543072
 11
6.086553
 21
53.430972
  0
LINE
  8
4
  6
CONTINUOUS
 10
6.096041
 20
53.543072
 11
5.343969
 21
53.550279
  0
LINE
  8
4
  6
CONTINUOUS
 10
6.086553
 20
53.430972
 11
5.343969
 21
53.550279
  0
LINE
  8
4
  6
CONTINUOUS
 10
6.262707
 20
53.585415
 11
6.243730
 21
53.361217
  0
LINE
  8
4
  6
CONTINUOUS
 10
6.387261
 20
53.574873
 11
6.368284
 21
53.350674
  0
POLYLINE
  8
4
  6
CONTINUOUS
 66
     1
  0
VERTEX
  8
4
  6
CONTINUOUS
 10
35.760336
 20
50.975724
  0
VERTEX
  8
4
  6
CONTINUOUS
 10
6.838625
 20
53.423765
  0
SEQEND
  8
4
  6
CONTINUOUS
  0
LINE
  8
4
  6
CONTINUOUS
 10
35.895284
 20
52.570023
 11
36.891721
 21
52.485681
  0
LINE
  8
4
  6
CONTINUOUS
 10
36.883286
 20
52.386037
 11
36.900155
 21
52.585324
  0
LINE
  8
4
  6
CONTINUOUS
 10
36.863358
 20
52.387724
 11
36.880226
 21
52.587011
  0
LINE
  8
4
  6
CONTINUOUS
 10
36.843429
 20
52.389411
 11
36.860297
 21
52.588698
  0
LINE
  8
4
  6
CONTINUOUS
 10
6.973572
 20
55.018064
 11
6.226244
 21
55.081321
  0
LINE
  8
4
  6
CONTINUOUS
 10
6.230989
 20
55.137371
 11
6.221500
 21
55.025271
  0
LINE
  8
4
  6
CONTINUOUS
 10
6.230989
 20
55.137371
 11
5.478917
 21
55.144578
  0
LINE
  8
4
  6
CONTINUOUS
 10
6.221500
 20
55.025271
 11
5.478917
 21
55.144578
  0
LINE
  8
4
  6
CONTINUOUS
 10
6.397655
 20
55.179714
 11
6.378678
 21
54.955516
  0
LINE
  8
4
  6
CONTINUOUS
 10
6.522209
 20
55.169172
 11
6.503232
 21
54.944973
  0
POLYLINE
  8
4
  6
CONTINUOUS
 66
     1
  0
VERTEX
  8
4
  6
CONTINUOUS
 10
35.895284
 20
52.570023
  0
VERTEX
  8
4
  6
CONTINUOUS
 10
6.973572
 20
55.018064
  0
SEQEND
  8
4
  6
CONTINUOUS
  0
LINE
  8
1
  6
CONTINUOUS
 10
7.870550
 20
77.996600
 11
27.294278
 21
77.996600
  0
LINE
  8
1
  6
CONTINUOUS
 10
7.870550
 20
77.996600
 11
7.870550
 21
76.996600
  0
LINE
  8
1
  6
CONTINUOUS
 10
7.870550
 20
76.996600
 11
24.159830
 21
76.996600
  0
LINE
  8
1
  6
CONTINUOUS
 10
7.870550
 20
76.996600
 11
7.870550
 21
75.996600
  0
LINE
  8
1
  6
CONTINUOUS
 10
10.359666
 20
76.996600
 11
10.359666
 21
75.996600
  0
LINE
  8
1
  6
CONTINUOUS
 10
12.497379
 20
76.996600
 11
12.497379
 21
75.996600
  0
LINE
  8
1
  6
CONTINUOUS
 10
13.872746
 20
76.996600
 11
13.872746
 21
75.996600
  0
LINE
  8
1
  6
CONTINUOUS
 10
18.037259
 20
76.496600
 11
18.037259
 21
75.996600
  0
LINE
  8
1
  6
CONTINUOUS
 10
21.025382
 20
76.996600
 11
21.025382
 21
75.996600
  0
LINE
  8
1
  6
CONTINUOUS
 10
22.070197
 20
76.496600
 11
22.070198
 21
75.996600
  0
LINE
  8
1
  6
CONTINUOUS
 10
23.115014
 20
76.496600
 11
23.115014
 21
75.996600
  0
LINE
  8
1
  6
CONTINUOUS
 10
24.159830
 20
76.996600
 11
24.159830
 21
75.996600
  0
LINE
  8
1
  6
CONTINUOUS
 10
7.870550
 20
75.996600
 11
27.294278
 21
75.996600
  0
LINE
  8
1
  6
CONTINUOUS
 10
13.872746
 20
76.496600
 11
18.037259
 21
76.496600
  0
LINE
  8
1
  6
CONTINUOUS
 10
18.037259
 20
76.496600
 11
21.025382
 21
76.496600
  0
LINE
  8
1
  6
CONTINUOUS
 10
21.025382
 20
76.496600
 11
22.070198
 21
76.496600
  0
LINE
  8
1
  6
CONTINUOUS
 10
22.070198
 20
76.496600
 11
23.115014
 21
76.496600
  0
LINE
  8
1
  6
CONTINUOUS
 10
23.115014
 20
76.496600
 11
27.294278
 21
76.496600
  0
LINE
  8
1
  6
CONTINUOUS
 10
27.294278
 20
75.996600
 11
27.294278
 21
77.996600
  0
LINE
  8
1
  6
CONTINUOUS
 10
25.727054
 20
76.496600
 11
25.727054
 21
75.996600
  0
LINE
  8
1
  6
CONTINUOUS
 10
24.159830
 20
76.996600
 11
27.294278
 21
76.996600
  0
LINE
  8
1
  6
CONTINUOUS
 10
7.870550
 20
75.996600
 11
7.870550
 21
75.496599
  0
LINE
  8
1
  6
CONTINUOUS
 10
7.870550
 20
75.496599
 11
27.294278
 21
75.496599
  0
LINE
  8
1
  6
CONTINUOUS
 10
10.359666
 20
75.996600
 11
10.359666
 21
75.496599
  0
LINE
  8
1
  6
CONTINUOUS
 10
12.497379
 20
75.996600
 11
12.497379
 21
75.496599
  0
LINE
  8
1
  6
CONTINUOUS
 10
13.872746
 20
75.996600
 11
13.872746
 21
75.496599
  0
LINE
  8
1
  6
CONTINUOUS
 10
18.037259
 20
75.996600
 11
18.037259
 21
75.496599
  0
LINE
  8
1
  6
CONTINUOUS
 10
21.025382
 20
75.996600
 11
21.025382
 21
75.496599
  0
LINE
  8
1
  6
CONTINUOUS
 10
22.070198
 20
75.996600
 11
22.070198
 21
75.496599
  0
LINE
  8
1
  6
CONTINUOUS
 10
23.115014
 20
75.996600
 11
23.115014
 21
75.496599
  0
LINE
  8
1
  6
CONTINUOUS
 10
24.159830
 20
75.996600
 11
24.159830
 21
75.496599
  0
LINE
  8
1
  6
CONTINUOUS
 10
24.159830
 20
75.496599
 11
24.159830
 21
75.996600
  0
LINE
  8
1
  6
CONTINUOUS
 10
24.159830
 20
75.996600
 11
24.159830
 21
75.496599
  0
LINE
  8
1
  6
CONTINUOUS
 10
25.727054
 20
75.996600
 11
25.727054
 21
75.496599
  0
LINE
  8
1
  6
CONTINUOUS
 10
27.294278
 20
75.996600
 11
27.294278
 21
75.496599
  0
LINE
  8
1
  6
CONTINUOUS
 10
7.870550
 20
75.496599
 11
7.870550
 21
74.996599
  0
LINE
  8
1
  6
CONTINUOUS
 10
7.870550
 20
74.996599
 11
27.294278
 21
74.996599
  0
LINE
  8
1
  6
CONTINUOUS
 10
10.359666
 20
75.496599
 11
10.359666
 21
74.996599
  0
LINE
  8
1
  6
CONTINUOUS
 10
12.497379
 20
75.496599
 11
12.497379
 21
74.996599
  0
LINE
  8
1
  6
CONTINUOUS
 10
13.872746
 20
75.496599
 11
13.872746
 21
74.996599
  0
LINE
  8
1
  6
CONTINUOUS
 10
18.037259
 20
75.496599
 11
18.037259
 21
74.996599
  0
LINE
  8
1
  6
CONTINUOUS
 10
21.025382
 20
75.496599
 11
21.025382
 21
74.996599
  0
LINE
  8
1
  6
CONTINUOUS
 10
22.070198
 20
75.496599
 11
22.070198
 21
74.996599
  0
LINE
  8
1
  6
CONTINUOUS
 10
23.115014
 20
75.496599
 11
23.115014
 21
74.996599
  0
LINE
  8
1
  6
CONTINUOUS
 10
24.159830
 20
75.496599
 11
24.159830
 21
74.996599
  0
LINE
  8
1
  6
CONTINUOUS
 10
24.159830
 20
74.996599
 11
24.159830
 21
75.496599
  0
LINE
  8
1
  6
CONTINUOUS
 10
24.159830
 20
75.496599
 11
24.159830
 21
74.996599
  0
LINE
  8
1
  6
CONTINUOUS
 10
25.727054
 20
75.496599
 11
25.727054
 21
74.996599
  0
LINE
  8
1
  6
CONTINUOUS
 10
27.294278
 20
75.496599
 11
27.294278
 21
74.996599
  0
LINE
  8
1
  6
CONTINUOUS
 10
7.870550
 20
74.996598
 11
7.870550
 21
74.496598
  0
LINE
  8
1
  6
CONTINUOUS
 10
7.870550
 20
74.496598
 11
27.294278
 21
74.496598
  0
LINE
  8
1
  6
CONTINUOUS
 10
10.359666
 20
74.996598
 11
10.359666
 21
74.496598
  0
LINE
  8
1
  6
CONTINUOUS
 10
12.497379
 20
74.996598
 11
12.497379
 21
74.496598
  0
LINE
  8
1
  6
CONTINUOUS
 10
13.872746
 20
74.996598
 11
13.872746
 21
74.496598
  0
LINE
  8
1
  6
CONTINUOUS
 10
18.037259
 20
74.996598
 11
18.037259
 21
74.496598
  0
LINE
  8
1
  6
CONTINUOUS
 10
21.025382
 20
74.996598
 11
21.025382
 21
74.496598
  0
LINE
  8
1
  6
CONTINUOUS
 10
22.070198
 20
74.996598
 11
22.070198
 21
74.496598
  0
LINE
  8
1
  6
CONTINUOUS
 10
23.115014
 20
74.996598
 11
23.115014
 21
74.496598
  0
LINE
  8
1
  6
CONTINUOUS
 10
24.159830
 20
74.996598
 11
24.159830
 21
74.496598
  0
LINE
  8
1
  6
CONTINUOUS
 10
24.159830
 20
74.496598
 11
24.159830
 21
74.996598
  0
LINE
  8
1
  6
CONTINUOUS
 10
24.159830
 20
74.996599
 11
24.159830
 21
74.496598
  0
LINE
  8
1
  6
CONTINUOUS
 10
25.727054
 20
74.996598
 11
25.727054
 21
74.496598
  0
LINE
  8
1
  6
CONTINUOUS
 10
27.294278
 20
74.996598
 11
27.294278
 21
74.496598
  0
LINE
  8
1
  6
CONTINUOUS
 10
7.870550
 20
74.496597
 11
7.870550
 21
73.996597
  0
LINE
  8
1
  6
CONTINUOUS
 10
7.870550
 20
73.996597
 11
27.294278
 21
73.996597
  0
LINE
  8
1
  6
CONTINUOUS
 10
10.359666
 20
74.496597
 11
10.359666
 21
73.996597
  0
LINE
  8
1
  6
CONTINUOUS
 10
12.497379
 20
74.496597
 11
12.497379
 21
73.996597
  0
LINE
  8
1
  6
CONTINUOUS
 10
13.872746
 20
74.496597
 11
13.872746
 21
73.996597
  0
LINE
  8
1
  6
CONTINUOUS
 10
18.037259
 20
74.496597
 11
18.037259
 21
73.996597
  0
LINE
  8
1
  6
CONTINUOUS
 10
21.025382
 20
74.496597
 11
21.025382
 21
73.996597
  0
LINE
  8
1
  6
CONTINUOUS
 10
22.070198
 20
74.496597
 11
22.070198
 21
73.996597
  0
LINE
  8
1
  6
CONTINUOUS
 10
23.115014
 20
74.496597
 11
23.115014
 21
73.996597
  0
LINE
  8
1
  6
CONTINUOUS
 10
24.159830
 20
74.496597
 11
24.159830
 21
73.996597
  0
LINE
  8
1
  6
CONTINUOUS
 10
24.159830
 20
73.996597
 11
24.159830
 21
74.496597
  0
LINE
  8
1
  6
CONTINUOUS
 10
24.159830
 20
74.496598
 11
24.159830
 21
73.996597
  0
LINE
  8
1
  6
CONTINUOUS
 10
25.727054
 20
74.496597
 11
25.727054
 21
73.996597
  0
LINE
  8
1
  6
CONTINUOUS
 10
27.294278
 20
74.496597
 11
27.294278
 21
73.996597
  0
LINE
  8
1
  6
CONTINUOUS
 10
7.870550
 20
73.996597
 11
7.870550
 21
73.496597
  0
LINE
  8
1
  6
CONTINUOUS
 10
7.870550
 20
73.496597
 11
27.294278
 21
73.496597
  0
LINE
  8
1
  6
CONTINUOUS
 10
10.359666
 20
73.996597
 11
10.359666
 21
73.496597
  0
LINE
  8
1
  6
CONTINUOUS
 10
12.497379
 20
73.996597
 11
12.497379
 21
73.496597
  0
LINE
  8
1
  6
CONTINUOUS
 10
13.872746
 20
73.996597
 11
13.872746
 21
73.496597
  0
LINE
  8
1
  6
CONTINUOUS
 10
18.037259
 20
73.996597
 11
18.037259
 21
73.496597
  0
LINE
  8
1
  6
CONTINUOUS
 10
21.025382
 20
73.996597
 11
21.025382
 21
73.496597
  0
LINE
  8
1
  6
CONTINUOUS
 10
22.070198
 20
73.996597
 11
22.070198
 21
73.496597
  0
LINE
  8
1
  6
CONTINUOUS
 10
23.115014
 20
73.996597
 11
23.115014
 21
73.496597
  0
LINE
  8
1
  6
CONTINUOUS
 10
24.159830
 20
73.996597
 11
24.159830
 21
73.496597
  0
LINE
  8
1
  6
CONTINUOUS
 10
24.159830
 20
73.496597
 11
24.159830
 21
73.996597
  0
LINE
  8
1
  6
CONTINUOUS
 10
24.159830
 20
73.996597
 11
24.159830
 21
73.496596
  0
LINE
  8
1
  6
CONTINUOUS
 10
25.727054
 20
73.996597
 11
25.727054
 21
73.496597
  0
LINE
  8
1
  6
CONTINUOUS
 10
27.294278
 20
73.996597
 11
27.294278
 21
73.496597
  0
LINE
  8
1
  6
CONTINUOUS
 10
7.870550
 20
73.496596
 11
7.870550
 21
72.996596
  0
LINE
  8
1
  6
CONTINUOUS
 10
7.870550
 20
72.996596
 11
27.294278
 21
72.996596
  0
LINE
  8
1
  6
CONTINUOUS
 10
10.359666
 20
73.496596
 11
10.359666
 21
72.996596
  0
LINE
  8
1
  6
CONTINUOUS
 10
12.497379
 20
73.496596
 11
12.497379
 21
72.996596
  0
LINE
  8
1
  6
CONTINUOUS
 10
13.872746
 20
73.496596
 11
13.872746
 21
72.996596
  0
LINE
  8
1
  6
CONTINUOUS
 10
18.037259
 20
73.496596
 11
18.037259
 21
72.996596
  0
LINE
  8
1
  6
CONTINUOUS
 10
21.025382
 20
73.496596
 11
21.025382
 21
72.996596
  0
LINE
  8
1
  6
CONTINUOUS
 10
22.070198
 20
73.496596
 11
22.070198
 21
72.996596
  0
LINE
  8
1
  6
CONTINUOUS
 10
23.115014
 20
73.496596
 11
23.115014
 21
72.996596
  0
LINE
  8
1
  6
CONTINUOUS
 10
24.159830
 20
73.496596
 11
24.159830
 21
72.996596
  0
LINE
  8
1
  6
CONTINUOUS
 10
24.159830
 20
72.996596
 11
24.159830
 21
73.496596
  0
LINE
  8
1
  6
CONTINUOUS
 10
24.159830
 20
73.496596
 11
24.159830
 21
72.996596
  0
LINE
  8
1
  6
CONTINUOUS
 10
25.727054
 20
73.496596
 11
25.727054
 21
72.996596
  0
LINE
  8
1
  6
CONTINUOUS
 10
27.294278
 20
73.496596
 11
27.294278
 21
72.996596
  0
LINE
  8
1
  6
CONTINUOUS
 10
7.870550
 20
72.996595
 11
7.870550
 21
72.496595
  0
LINE
  8
1
  6
CONTINUOUS
 10
7.870550
 20
72.496595
 11
27.294278
 21
72.496595
  0
LINE
  8
1
  6
CONTINUOUS
 10
10.359666
 20
72.996595
 11
10.359666
 21
72.496595
  0
LINE
  8
1
  6
CONTINUOUS
 10
12.497379
 20
72.996595
 11
12.497379
 21
72.496595
  0
LINE
  8
1
  6
CONTINUOUS
 10
13.872746
 20
72.996595
 11
13.872746
 21
72.496595
  0
LINE
  8
1
  6
CONTINUOUS
 10
18.037259
 20
72.996595
 11
18.037259
 21
72.496595
  0
LINE
  8
1
  6
CONTINUOUS
 10
21.025382
 20
72.996595
 11
21.025382
 21
72.496595
  0
LINE
  8
1
  6
CONTINUOUS
 10
22.070198
 20
72.996595
 11
22.070198
 21
72.496595
  0
LINE
  8
1
  6
CONTINUOUS
 10
23.115014
 20
72.996595
 11
23.115014
 21
72.496595
  0
LINE
  8
1
  6
CONTINUOUS
 10
24.159830
 20
72.996595
 11
24.159830
 21
72.496595
  0
LINE
  8
1
  6
CONTINUOUS
 10
24.159830
 20
72.496595
 11
24.159830
 21
72.996595
  0
LINE
  8
1
  6
CONTINUOUS
 10
24.159830
 20
72.996596
 11
24.159830
 21
72.496595
  0
LINE
  8
1
  6
CONTINUOUS
 10
25.727054
 20
72.996595
 11
25.727054
 21
72.496595
  0
LINE
  8
1
  6
CONTINUOUS
 10
27.294278
 20
72.996595
 11
27.294278
 21
72.496595
  0
LINE
  8
1
  6
CONTINUOUS
 10
7.870550
 20
72.496595
 11
7.870550
 21
71.996594
  0
LINE
  8
1
  6
CONTINUOUS
 10
7.870550
 20
71.996594
 11
27.294278
 21
71.996594
  0
LINE
  8
1
  6
CONTINUOUS
 10
10.359666
 20
72.496595
 11
10.359666
 21
71.996594
  0
LINE
  8
1
  6
CONTINUOUS
 10
12.497379
 20
72.496595
 11
12.497379
 21
71.996594
  0
LINE
  8
1
  6
CONTINUOUS
 10
13.872746
 20
72.496595
 11
13.872746
 21
71.996594
  0
LINE
  8
1
  6
CONTINUOUS
 10
18.037259
 20
72.496595
 11
18.037259
 21
71.996594
  0
LINE
  8
1
  6
CONTINUOUS
 10
21.025382
 20
72.496595
 11
21.025382
 21
71.996594
  0
LINE
  8
1
  6
CONTINUOUS
 10
22.070198
 20
72.496595
 11
22.070198
 21
71.996594
  0
LINE
  8
1
  6
CONTINUOUS
 10
23.115014
 20
72.496595
 11
23.115014
 21
71.996594
  0
LINE
  8
1
  6
CONTINUOUS
 10
24.159830
 20
72.496595
 11
24.159830
 21
71.996594
  0
LINE
  8
1
  6
CONTINUOUS
 10
24.159830
 20
71.996594
 11
24.159830
 21
72.496595
  0
LINE
  8
1
  6
CONTINUOUS
 10
24.159830
 20
72.496595
 11
24.159830
 21
71.996594
  0
LINE
  8
1
  6
CONTINUOUS
 10
25.727054
 20
72.496595
 11
25.727054
 21
71.996594
  0
LINE
  8
1
  6
CONTINUOUS
 10
27.294278
 20
72.496595
 11
27.294278
 21
71.996594
  0
LINE
  8
1
  6
CONTINUOUS
 10
7.870550
 20
71.359242
 11
21.153642
 21
71.359242
  0
LINE
  8
1
  6
CONTINUOUS
 10
7.870550
 20
69.996594
 11
21.153642
 21
69.996594
  0
LINE
  8
1
  6
CONTINUOUS
 10
7.870550
 20
69.496594
 11
16.792259
 21
69.496594
  0
LINE
  8
1
  6
CONTINUOUS
 10
16.792259
 20
69.496594
 11
18.980382
 21
69.496594
  0
LINE
  8
1
  6
CONTINUOUS
 10
18.360362
 20
69.496594
 11
19.405178
 21
69.496594
  0
LINE
  8
1
  6
CONTINUOUS
 10
19.405178
 20
69.496594
 11
21.070014
 21
69.496594
  0
LINE
  8
1
  6
CONTINUOUS
 10
21.070014
 20
69.496594
 11
21.153642
 21
69.496594
  0
LINE
  8
1
  6
CONTINUOUS
 10
7.870550
 20
71.359242
 11
7.870550
 21
68.496594
  0
LINE
  8
1
  6
CONTINUOUS
 10
7.870550
 20
68.496594
 11
21.153642
 21
68.496595
  0
LINE
  8
1
  6
CONTINUOUS
 10
10.008262
 20
69.496594
 11
10.008262
 21
68.496594
  0
LINE
  8
1
  6
CONTINUOUS
 10
12.196386
 20
68.496594
 11
12.196386
 21
69.496594
  0
LINE
  8
1
  6
CONTINUOUS
 10
19.064010
 20
69.496594
 11
19.064010
 21
68.496595
  0
LINE
  8
1
  6
CONTINUOUS
 10
20.108827
 20
69.496594
 11
20.108827
 21
68.496595
  0
LINE
  8
1
  6
CONTINUOUS
 10
13.899198
 20
68.496594
 11
13.899198
 21
68.996594
  0
LINE
  8
1
  6
CONTINUOUS
 10
21.153642
 20
68.496595
 11
21.153642
 21
71.359242
  0
LINE
  8
1
  6
CONTINUOUS
 10
12.196386
 20
68.996594
 11
18.019195
 21
68.996594
  0
LINE
  8
1
  6
CONTINUOUS
 10
18.019195
 20
68.496595
 11
18.019195
 21
69.996594
  0
LINE
  8
1
  6
CONTINUOUS
 10
15.959197
 20
68.496594
 11
15.959197
 21
68.996594
  0
LINE
  8
1
  6
CONTINUOUS
 10
7.870550
 20
68.496594
 11
7.870550
 21
67.996593
  0
LINE
  8
1
  6
CONTINUOUS
 10
10.008262
 20
68.496594
 11
10.008262
 21
67.996593
  0
LINE
  8
1
  6
CONTINUOUS
 10
12.196386
 20
68.496594
 11
12.196386
 21
67.996593
  0
LINE
  8
1
  6
CONTINUOUS
 10
7.870550
 20
67.996593
 11
21.153642
 21
67.996593
  0
LINE
  8
1
  6
CONTINUOUS
 10
18.019195
 20
68.496594
 11
18.019195
 21
67.996594
  0
LINE
  8
1
  6
CONTINUOUS
 10
19.064010
 20
68.496594
 11
19.064010
 21
67.996594
  0
LINE
  8
1
  6
CONTINUOUS
 10
20.108827
 20
68.496594
 11
20.108827
 21
67.996594
  0
LINE
  8
1
  6
CONTINUOUS
 10
13.899198
 20
68.496594
 11
13.899198
 21
67.996593
  0
LINE
  8
1
  6
CONTINUOUS
 10
15.959197
 20
67.996593
 11
15.959197
 21
68.496594
  0
LINE
  8
1
  6
CONTINUOUS
 10
18.019195
 20
67.996593
 11
18.019195
 21
68.496594
  0
LINE
  8
1
  6
CONTINUOUS
 10
21.153642
 20
68.496594
 11
21.153642
 21
67.996593
  0
LINE
  8
1
  6
CONTINUOUS
 10
7.870550
 20
67.996593
 11
7.870550
 21
67.496593
  0
LINE
  8
1
  6
CONTINUOUS
 10
10.008262
 20
67.996593
 11
10.008262
 21
67.496593
  0
LINE
  8
1
  6
CONTINUOUS
 10
12.196386
 20
67.996593
 11
12.196386
 21
67.496593
  0
LINE
  8
1
  6
CONTINUOUS
 10
7.870550
 20
67.496593
 11
21.153642
 21
67.496593
  0
LINE
  8
1
  6
CONTINUOUS
 10
18.019195
 20
67.996593
 11
18.019195
 21
67.496593
  0
LINE
  8
1
  6
CONTINUOUS
 10
19.064010
 20
67.996593
 11
19.064010
 21
67.496593
  0
LINE
  8
1
  6
CONTINUOUS
 10
20.108827
 20
67.996593
 11
20.108827
 21
67.496593
  0
LINE
  8
1
  6
CONTINUOUS
 10
13.899198
 20
67.996593
 11
13.899198
 21
67.496593
  0
LINE
  8
1
  6
CONTINUOUS
 10
15.959197
 20
67.496593
 11
15.959197
 21
67.996593
  0
LINE
  8
1
  6
CONTINUOUS
 10
18.019195
 20
67.496593
 11
18.019195
 21
67.996593
  0
LINE
  8
1
  6
CONTINUOUS
 10
21.153642
 20
67.996593
 11
21.153642
 21
67.496593
  0
LINE
  8
2
  6
CONTINUOUS
 10
101.700000
 20
23.900000
 11
101.700000
 21
23.900000
  0
LINE
  8
2
  6
CONTINUOUS
 10
118.000000
 20
23.900000
 11
118.000000
 21
23.900000
  0
LINE
  8
2
  6
CONTINUOUS
 10
118.000000
 20
23.900000
 11
101.700000
 21
23.900000
  0
LINE
  8
2
  6
CONTINUOUS
 10
118.000000
 20
22.200000
 11
101.700000
 21
22.200000
  0
LINE
  8
2
  6
CONTINUOUS
 10
101.700000
 20
23.900000
 11
101.700000
 21
22.200000
  0
LINE
  8
2
  6
CONTINUOUS
 10
118.000000
 20
22.200000
 11
118.000000
 21
23.900000
  0
LINE
  8
1
  6
CONTINUOUS
 10
118.000002
 20
29.700001
 11
119.000002
 21
29.700001
  0
LINE
  8
1
  6
CONTINUOUS
 10
118.000002
 20
59.400002
 11
119.000002
 21
59.400002
  0
LINE
  8
1
  6
CONTINUOUS
 10
0.000000
 20
29.700001
 11
2.500000
 21
29.700001
  0
LINE
  8
1
  6
CONTINUOUS
 10
0.000000
 20
59.400002
 11
2.500000
 21
59.400002
  0
LINE
  8
1
  6
CONTINUOUS
 10
100.500002
 20
82.999998
 11
100.500002
 21
83.999998
  0
LINE
  8
1
  6
CONTINUOUS
 10
82.000002
 20
82.999998
 11
82.000002
 21
83.999998
  0
LINE
  8
1
  6
CONTINUOUS
 10
63.500002
 20
82.999998
 11
63.500002
 21
83.999998
  0
LINE
  8
1
  6
CONTINUOUS
 10
45.000002
 20
82.999998
 11
45.000002
 21
83.999998
  0
LINE
  8
1
  6
CONTINUOUS
 10
33.050001
 20
82.999998
 11
33.050001
 21
83.999998
  0
LINE
  8
1
  6
CONTINUOUS
 10
21.100000
 20
82.999998
 11
21.100000
 21
83.999998
  0
LINE
  8
1
  6
CONTINUOUS
 10
100.500002
 20
0.000000
 11
100.500002
 21
1.000000
  0
LINE
  8
1
  6
CONTINUOUS
 10
82.000002
 20
0.000000
 11
82.000002
 21
1.000000
  0
LINE
  8
1
  6
CONTINUOUS
 10
63.500002
 20
0.000000
 11
63.500002
 21
1.000000
  0
LINE
  8
1
  6
CONTINUOUS
 10
45.000002
 20
0.000000
 11
45.000002
 21
1.000000
  0
LINE
  8
1
  6
CONTINUOUS
 10
33.050001
 20
0.000000
 11
33.050001
 21
1.000000
  0
LINE
  8
1
  6
CONTINUOUS
 10
21.100000
 20
0.000000
 11
21.100000
 21
1.000000
  0
LINE
  8
1
  6
CONTINUOUS
 10
0.000000
 20
0.000000
 11
119.000002
 21
0.000000
  0
LINE
  8
1
  6
CONTINUOUS
 10
119.000002
 20
0.000000
 11
119.000002
 21
83.999998
  0
LINE
  8
1
  6
CONTINUOUS
 10
0.000000
 20
0.000000
 11
0.000000
 21
83.999998
  0
LINE
  8
8
  6
CONTINUOUS
 10
2.500000
 20
1.000000
 11
118.000002
 21
1.000000
  0
LINE
  8
8
  6
CONTINUOUS
 10
118.000002
 20
1.000000
 11
118.000002
 21
82.999998
  0
LINE
  8
1
  6
CONTINUOUS
 10
0.000000
 20
83.999998
 11
119.000002
 21
83.999998
  0
LINE
  8
8
  6
CONTINUOUS
 10
2.500000
 20
82.999998
 11
118.000002
 21
82.999998
  0
LINE
  8
8
  6
CONTINUOUS
 10
2.500000
 20
82.999998
 11
2.500000
 21
1.000000
  0
LINE
  8
2
  6
CONTINUOUS
 10
102.650002
 20
17.625000
 11
102.650002
 21
18.125000
  0
LINE
  8
1
  6
CONTINUOUS
 10
101.700002
 20
18.200000
 11
118.000002
 21
18.200000
  0
LINE
  8
1
  6
CONTINUOUS
 10
101.700002
 20
17.700000
 11
118.000002
 21
17.700000
  0
LINE
  8
1
  6
CONTINUOUS
 10
102.200002
 20
17.700000
 11
118.000002
 21
17.700000
  0
LINE
  8
2
  6
CONTINUOUS
 10
102.650002
 20
17.125000
 11
102.650002
 21
17.625000
  0
LINE
  8
1
  6
CONTINUOUS
 10
102.200002
 20
17.700000
 11
118.000002
 21
17.700000
  0
LINE
  8
1
  6
CONTINUOUS
 10
101.700002
 20
17.200000
 11
118.000002
 21
17.200000
  0
LINE
  8
2
  6
CONTINUOUS
 10
102.650002
 20
16.700000
 11
102.650002
 21
17.200000
  0
LINE
  8
1
  6
CONTINUOUS
 10
116.008223
 20
16.000000
 11
116.008223
 21
22.200000
  0
LINE
  8
1
  6
CONTINUOUS
 10
104.850002
 20
16.000000
 11
104.850002
 21
22.200000
  0
LINE
  8
6
  6
CONTINUOUS
 10
101.700002
 20
16.000000
 11
118.000002
 21
16.000000
  0
LINE
  8
1
  6
CONTINUOUS
 10
102.650002
 20
16.000000
 11
102.650002
 21
16.700000
  0
LINE
  8
1
  6
CONTINUOUS
 10
102.200002
 20
17.200000
 11
118.000002
 21
17.200000
  0
LINE
  8
1
  6
CONTINUOUS
 10
101.700002
 20
16.700000
 11
118.000002
 21
16.700000
  0
LINE
  8
2
  6
CONTINUOUS
 10
102.650002
 20
18.625000
 11
102.650002
 21
22.200000
  0
LINE
  8
6
  6
CONTINUOUS
 10
101.700002
 20
22.200000
 11
118.000002
 21
22.200000
  0
LINE
  8
1
  6
CONTINUOUS
 10
101.700002
 20
18.700000
 11
118.000002
 21
18.700000
  0
LINE
  8
1
  6
CONTINUOUS
 10
102.200002
 20
18.700000
 11
118.000002
 21
18.700000
  0
LINE
  8
2
  6
CONTINUOUS
 10
102.650002
 20
18.125000
 11
102.650002
 21
18.625000
  0
LINE
  8
1
  6
CONTINUOUS
 10
102.200002
 20
18.700000
 11
118.000002
 21
18.700000
  0
LINE
  8
1
  6
CONTINUOUS
 10
102.200002
 20
18.200000
 11
118.000002
 21
18.200000
  0
LINE
  8
1
  6
CONTINUOUS
 10
102.200002
 20
18.200000
 11
118.000002
 21
18.200000
  0
LINE
  8
6
  6
CONTINUOUS
 10
101.700002
 20
6.600000
 11
118.000002
 21
6.600000
  0
LINE
  8
6
  6
CONTINUOUS
 10
101.700002
 20
8.500000
 11
118.000002
 21
8.500000
  0
LINE
  8
6
  6
CONTINUOUS
 10
101.700002
 20
1.000000
 11
101.700002
 21
8.500000
  0
LINE
  8
6
  6
CONTINUOUS
 10
101.700002
 20
16.000000
 11
101.700002
 21
22.200000
  0
LINE
  8
6
  6
CONTINUOUS
 10
101.700002
 20
15.900000
 11
118.000002
 21
15.900000
  0
LINE
  8
6
  6
CONTINUOUS
 10
101.700002
 20
11.400000
 11
101.700002
 21
15.900000
  0
LINE
  8
1
  6
CONTINUOUS
 10
101.700002
 20
14.400000
 11
118.000002
 21
14.400000
  0
LINE
  8
6
  6
CONTINUOUS
 10
101.700002
 20
3.000000
 11
118.000002
 21
3.000000
  0
LINE
  8
6
  6
CONTINUOUS
 10
105.024321
 20
3.000000
 11
105.024321
 21
1.000000
  0
LINE
  8
1
  6
CONTINUOUS
 10
101.700002
 20
12.900000
 11
118.000002
 21
12.900000
  0
POLYLINE
  8
1
  6
CONTINUOUS
 66
     1
  0
VERTEX
  8
1
  6
CONTINUOUS
 10
103.635546
 20
9.498246
  0
VERTEX
  8
1
  6
CONTINUOUS
 10
101.971546
 20
9.498246
  0
VERTEX
  8
1
  6
CONTINUOUS
 10
101.971546
 20
11.162246
  0
VERTEX
  8
1
  6
CONTINUOUS
 10
103.635546
 20
11.162246
  0
VERTEX
  8
1
  6
CONTINUOUS
 10
103.635546
 20
9.498246
  0
SEQEND
  8
1
  6
CONTINUOUS
  0
POLYLINE
  8
13
  6
CONTINUOUS
 66
     1
  0
VERTEX
  8
13
  6
CONTINUOUS
 10
102.095046
 20
10.244446
  0
VERTEX
  8
13
  6
CONTINUOUS
 10
102.095046
 20
9.498246
  0
VERTEX
  8
13
  6
CONTINUOUS
 10
101.971546
 20
9.498246
  0
VERTEX
  8
13
  6
CONTINUOUS
 10
101.971546
 20
11.162246
  0
VERTEX
  8
13
  6
CONTINUOUS
 10
102.095046
 20
11.162246
  0
VERTEX
  8
13
  6
CONTINUOUS
 10
102.095046
 20
10.244446
  0
SEQEND
  8
13
  6
CONTINUOUS
  0
POLYLINE
  8
13
  6
CONTINUOUS
 66
     1
  0
VERTEX
  8
13
  6
CONTINUOUS
 10
102.522746
 20
10.230979
  0
VERTEX
  8
13
  6
CONTINUOUS
 10
102.522746
 20
9.498246
  0
VERTEX
  8
13
  6
CONTINUOUS
 10
102.095046
 20
9.498246
  0
VERTEX
  8
13
  6
CONTINUOUS
 10
102.095046
 20
10.244446
  0
VERTEX
  8
13
  6
CONTINUOUS
 10
102.143544
 20
10.248642
  0
VERTEX
  8
13
  6
CONTINUOUS
 10
102.211078
 20
10.252071
  0
VERTEX
  8
13
  6
CONTINUOUS
 10
102.259959
 20
10.252484
  0
VERTEX
  8
13
  6
CONTINUOUS
 10
102.290321
 20
10.252141
  0
VERTEX
  8
13
  6
CONTINUOUS
 10
102.334203
 20
10.250668
  0
VERTEX
  8
13
  6
CONTINUOUS
 10
102.394518
 20
10.246747
  0
VERTEX
  8
13
  6
CONTINUOUS
 10
102.446340
 20
10.241621
  0
VERTEX
  8
13
  6
CONTINUOUS
 10
102.490083
 20
10.235974
  0
VERTEX
  8
13
  6
CONTINUOUS
 10
102.522746
 20
10.230979
  0
SEQEND
  8
13
  6
CONTINUOUS
  0
POLYLINE
  8
13
  6
CONTINUOUS
 66
     1
  0
VERTEX
  8
13
  6
CONTINUOUS
 10
102.594246
 20
10.217654
  0
VERTEX
  8
13
  6
CONTINUOUS
 10
102.594246
 20
9.498246
  0
VERTEX
  8
13
  6
CONTINUOUS
 10
103.021946
 20
9.498246
  0
VERTEX
  8
13
  6
CONTINUOUS
 10
103.021946
 20
10.064184
  0
VERTEX
  8
13
  6
CONTINUOUS
 10
103.003898
 20
10.073542
  0
VERTEX
  8
13
  6
CONTINUOUS
 10
102.981716
 20
10.084501
  0
VERTEX
  8
13
  6
CONTINUOUS
 10
102.953307
 20
10.098271
  0
VERTEX
  8
13
  6
CONTINUOUS
 10
102.912865
 20
10.116383
  0
VERTEX
  8
13
  6
CONTINUOUS
 10
102.885024
 20
10.128001
  0
VERTEX
  8
13
  6
CONTINUOUS
 10
102.844071
 20
10.144755
  0
VERTEX
  8
13
  6
CONTINUOUS
 10
102.813490
 20
10.155923
  0
VERTEX
  8
13
  6
CONTINUOUS
 10
102.778388
 20
10.168156
  0
VERTEX
  8
13
  6
CONTINUOUS
 10
102.744083
 20
10.178793
  0
VERTEX
  8
13
  6
CONTINUOUS
 10
102.703465
 20
10.191172
  0
VERTEX
  8
13
  6
CONTINUOUS
 10
102.665141
 20
10.201162
  0
VERTEX
  8
13
  6
CONTINUOUS
 10
102.624819
 20
10.210970
  0
VERTEX
  8
13
  6
CONTINUOUS
 10
102.594246
 20
10.217654
  0
SEQEND
  8
13
  6
CONTINUOUS
  0
POLYLINE
  8
13
  6
CONTINUOUS
 66
     1
  0
VERTEX
  8
13
  6
CONTINUOUS
 10
103.093446
 20
10.024343
  0
VERTEX
  8
13
  6
CONTINUOUS
 10
103.093446
 20
9.498246
  0
VERTEX
  8
13
  6
CONTINUOUS
 10
103.521146
 20
9.498246
  0
VERTEX
  8
13
  6
CONTINUOUS
 10
103.521146
 20
9.661030
  0
VERTEX
  8
13
  6
CONTINUOUS
 10
103.507797
 20
9.676793
  0
VERTEX
  8
13
  6
CONTINUOUS
 10
103.495964
 20
9.690528
  0
VERTEX
  8
13
  6
CONTINUOUS
 10
103.473877
 20
9.715277
  0
VERTEX
  8
13
  6
CONTINUOUS
 10
103.454164
 20
9.736530
  0
VERTEX
  8
13
  6
CONTINUOUS
 10
103.434048
 20
9.757502
  0
VERTEX
  8
13
  6
CONTINUOUS
 10
103.410015
 20
9.781535
  0
VERTEX
  8
13
  6
CONTINUOUS
 10
103.399294
 20
9.791943
  0
VERTEX
  8
13
  6
CONTINUOUS
 10
103.388429
 20
9.802406
  0
VERTEX
  8
13
  6
CONTINUOUS
 10
103.359952
 20
9.828752
  0
VERTEX
  8
13
  6
CONTINUOUS
 10
103.325139
 20
9.859181
  0
VERTEX
  8
13
  6
CONTINUOUS
 10
103.286846
 20
9.890826
  0
VERTEX
  8
13
  6
CONTINUOUS
 10
103.251036
 20
9.918745
  0
VERTEX
  8
13
  6
CONTINUOUS
 10
103.200839
 20
9.955427
  0
VERTEX
  8
13
  6
CONTINUOUS
 10
103.134352
 20
9.999676
  0
VERTEX
  8
13
  6
CONTINUOUS
 10
103.093446
 20
10.024343
  0
SEQEND
  8
13
  6
CONTINUOUS
  0
POLYLINE
  8
13
  6
CONTINUOUS
 66
     1
  0
VERTEX
  8
13
  6
CONTINUOUS
 10
102.522746
 20
10.635283
  0
VERTEX
  8
13
  6
CONTINUOUS
 10
102.522746
 20
11.162246
  0
VERTEX
  8
13
  6
CONTINUOUS
 10
102.095046
 20
11.162246
  0
VERTEX
  8
13
  6
CONTINUOUS
 10
102.095046
 20
10.995122
  0
VERTEX
  8
13
  6
CONTINUOUS
 10
102.153689
 20
10.929235
  0
VERTEX
  8
13
  6
CONTINUOUS
 10
102.237359
 20
10.846559
  0
VERTEX
  8
13
  6
CONTINUOUS
 10
102.308389
 20
10.784730
  0
VERTEX
  8
13
  6
CONTINUOUS
 10
102.366624
 20
10.739274
  0
VERTEX
  8
13
  6
CONTINUOUS
 10
102.406322
 20
10.710064
  0
VERTEX
  8
13
  6
CONTINUOUS
 10
102.455827
 20
10.676682
  0
VERTEX
  8
13
  6
CONTINUOUS
 10
102.493954
 20
10.652515
  0
VERTEX
  8
13
  6
CONTINUOUS
 10
102.522746
 20
10.635283
  0
SEQEND
  8
13
  6
CONTINUOUS
  0
POLYLINE
  8
13
  6
CONTINUOUS
 66
     1
  0
VERTEX
  8
13
  6
CONTINUOUS
 10
103.021946
 20
10.443678
  0
VERTEX
  8
13
  6
CONTINUOUS
 10
103.021946
 20
11.162246
  0
VERTEX
  8
13
  6
CONTINUOUS
 10
102.594246
 20
11.162246
  0
VERTEX
  8
13
  6
CONTINUOUS
 10
102.594246
 20
10.595859
  0
VERTEX
  8
13
  6
CONTINUOUS
 10
102.663800
 20
10.561766
  0
VERTEX
  8
13
  6
CONTINUOUS
 10
102.744359
 20
10.527375
  0
VERTEX
  8
13
  6
CONTINUOUS
 10
102.812197
 20
10.501464
  0
VERTEX
  8
13
  6
CONTINUOUS
 10
102.889458
 20
10.476967
  0
VERTEX
  8
13
  6
CONTINUOUS
 10
102.950702
 20
10.460007
  0
VERTEX
  8
13
  6
CONTINUOUS
 10
103.021946
 20
10.443678
  0
SEQEND
  8
13
  6
CONTINUOUS
  0
POLYLINE
  8
13
  6
CONTINUOUS
 66
     1
  0
VERTEX
  8
13
  6
CONTINUOUS
 10
103.093446
 20
10.430307
  0
VERTEX
  8
13
  6
CONTINUOUS
 10
103.093446
 20
11.162246
  0
VERTEX
  8
13
  6
CONTINUOUS
 10
103.521146
 20
11.162246
  0
VERTEX
  8
13
  6
CONTINUOUS
 10
103.521146
 20
10.417580
  0
VERTEX
  8
13
  6
CONTINUOUS
 10
103.476372
 20
10.413637
  0
VERTEX
  8
13
  6
CONTINUOUS
 10
103.416577
 20
10.410480
  0
VERTEX
  8
13
  6
CONTINUOUS
 10
103.366788
 20
10.409453
  0
VERTEX
  8
13
  6
CONTINUOUS
 10
103.336830
 20
10.409453
  0
VERTEX
  8
13
  6
CONTINUOUS
 10
103.286182
 20
10.410821
  0
VERTEX
  8
13
  6
CONTINUOUS
 10
103.241261
 20
10.413321
  0
VERTEX
  8
13
  6
CONTINUOUS
 10
103.205545
 20
10.416539
  0
VERTEX
  8
13
  6
CONTINUOUS
 10
103.155349
 20
10.421044
  0
VERTEX
  8
13
  6
CONTINUOUS
 10
103.093446
 20
10.430307
  0
SEQEND
  8
13
  6
CONTINUOUS
  0
POLYLINE
  8
13
  6
CONTINUOUS
 66
     1
  0
VERTEX
  8
13
  6
CONTINUOUS
 10
102.522746
 20
9.498246
  0
VERTEX
  8
13
  6
CONTINUOUS
 10
102.594246
 20
9.498246
  0
VERTEX
  8
13
  6
CONTINUOUS
 10
102.594246
 20
11.162246
  0
VERTEX
  8
13
  6
CONTINUOUS
 10
102.522746
 20
11.162246
  0
VERTEX
  8
13
  6
CONTINUOUS
 10
102.522746
 20
9.498246
  0
VERTEX
  8
13
  6
CONTINUOUS
 10
102.594246
 20
9.498246
  0
SEQEND
  8
13
  6
CONTINUOUS
  0
POLYLINE
  8
13
  6
CONTINUOUS
 66
     1
  0
VERTEX
  8
13
  6
CONTINUOUS
 10
103.021946
 20
11.162246
  0
VERTEX
  8
13
  6
CONTINUOUS
 10
103.093446
 20
11.162246
  0
VERTEX
  8
13
  6
CONTINUOUS
 10
103.093446
 20
9.498246
  0
VERTEX
  8
13
  6
CONTINUOUS
 10
103.021946
 20
9.498246
  0
VERTEX
  8
13
  6
CONTINUOUS
 10
103.021946
 20
11.162246
  0
SEQEND
  8
13
  6
CONTINUOUS
  0
POLYLINE
  8
13
  6
CONTINUOUS
 66
     1
  0
VERTEX
  8
13
  6
CONTINUOUS
 10
103.521146
 20
9.498246
  0
VERTEX
  8
13
  6
CONTINUOUS
 10
103.635546
 20
9.498246
  0
VERTEX
  8
13
  6
CONTINUOUS
 10
103.635546
 20
11.162246
  0
VERTEX
  8
13
  6
CONTINUOUS
 10
103.521146
 20
11.162246
  0
VERTEX
  8
13
  6
CONTINUOUS
 10
103.521146
 20
9.498246
  0
SEQEND
  8
13
  6
CONTINUOUS
  0
LINE
  8
6
  6
CONTINUOUS
 10
107.924321
 20
3.000000
 11
107.924321
 21
2.000000
  0
LINE
  8
6
  6
CONTINUOUS
 10
101.700002
 20
2.000000
 11
114.124321
 21
2.000000
  0
LINE
  8
6
  6
CONTINUOUS
 10
114.124321
 20
3.000000
 11
114.124321
 21
1.000000
  0
LINE
  8
6
  6
CONTINUOUS
 10
101.700002
 20
8.600000
 11
118.000002
 21
8.600000
  0
LINE
  8
6
  6
CONTINUOUS
 10
101.700002
 20
8.600000
 11
101.700002
 21
11.300000
  0
LINE
  8
6
  6
CONTINUOUS
 10
101.700002
 20
11.300000
 11
118.000002
 21
11.300000
  0
LINE
  8
6
  6
CONTINUOUS
 10
101.700002
 20
11.400000
 11
118.000002
 21
11.400000
  0
LINE
  8
1
  6
CONTINUOUS
 10
101.700002
 20
19.200000
 11
118.000002
 21
19.200000
  0
LINE
  8
1
  6
CONTINUOUS
 10
102.200002
 20
19.200000
 11
118.000002
 21
19.200000
  0
LINE
  8
1
  6
CONTINUOUS
 10
102.200002
 20
19.200000
 11
118.000002
 21
19.200000
  0
LINE
  8
1
  6
CONTINUOUS
 10
101.700002
 20
19.700000
 11
118.000002
 21
19.700000
  0
LINE
  8
1
  6
CONTINUOUS
 10
102.200002
 20
19.700000
 11
118.000002
 21
19.700000
  0
LINE
  8
1
  6
CONTINUOUS
 10
102.200002
 20
19.700000
 11
118.000002
 21
19.700000
  0
LINE
  8
1
  6
CONTINUOUS
 10
101.700002
 20
20.200000
 11
118.000002
 21
20.200000
  0
LINE
  8
1
  6
CONTINUOUS
 10
102.200002
 20
20.200000
 11
118.000002
 21
20.200000
  0
LINE
  8
1
  6
CONTINUOUS
 10
102.200002
 20
20.200000
 11
118.000002
 21
20.200000
  0
LINE
  8
1
  6
CONTINUOUS
 10
101.700002
 20
20.700000
 11
118.000002
 21
20.700000
  0
LINE
  8
1
  6
CONTINUOUS
 10
102.200002
 20
20.700000
 11
118.000002
 21
20.700000
  0
LINE
  8
1
  6
CONTINUOUS
 10
102.200002
 20
20.700000
 11
118.000002
 21
20.700000
  0
LINE
  8
1
  6
CONTINUOUS
 10
101.700002
 20
21.200000
 11
118.000002
 21
21.200000
  0
LINE
  8
1
  6
CONTINUOUS
 10
102.200002
 20
21.200000
 11
118.000002
 21
21.200000
  0
LINE
  8
1
  6
CONTINUOUS
 10
102.200002
 20
21.200000
 11
118.000002
 21
21.200000
  0
LINE
  8
1
  6
CONTINUOUS
 10
101.700002
 20
21.700000
 11
118.000002
 21
21.700000
  0
LINE
  8
6
  6
CONTINUOUS
 10
110.708935
 20
11.300000
 11
110.708935
 21
8.600000
  0
TEXT
  8
1
  6
CONTINUOUS
 10
53.733089
 20
31.217418
 40
0.250000
 50
90.000000
  1
L1
  7
TQS_CALIBRI
  0
TEXT
  8
1
  6
CONTINUOUS
 10
79.323577
 20
18.564849
 40
0.250000
 50
90.000000
  1
P125
  7
TQS_CALIBRI
  0
TEXT
  8
1
  6
CONTINUOUS
 10
80.239553
 20
29.385809
 40
0.250000
 50
90.000000
  1
P126
  7
TQS_CALIBRI
  0
TEXT
  8
1
  6
CONTINUOUS
 10
81.115981
 20
39.739559
 40
0.250000
 50
90.000000
  1
P127
  7
TQS_CALIBRI
  0
TEXT
  8
1
  6
CONTINUOUS
 10
62.716303
 20
19.970622
 40
0.250000
 50
90.000000
  1
P119
  7
TQS_CALIBRI
  0
TEXT
  8
1
  6
CONTINUOUS
 10
63.805379
 20
30.860561
 40
0.250000
 50
90.000000
  1
P120
  7
TQS_CALIBRI
  0
TEXT
  8
1
  6
CONTINUOUS
 10
64.674779
 20
41.131275
 40
0.250000
 50
90.000000
  1
P121
  7
TQS_CALIBRI
  0
TEXT
  8
1
  6
CONTINUOUS
 10
46.080915
 20
21.016136
 40
0.250000
 50
90.000000
  1
P111
  7
TQS_CALIBRI
  0
TEXT
  8
1
  6
CONTINUOUS
 10
47.081229
 20
32.833533
 40
0.250000
 50
90.000000
  1
P113
  7
TQS_CALIBRI
  0
TEXT
  8
1
  6
CONTINUOUS
 10
47.957657
 20
43.187283
 40
0.250000
 50
90.000000
  1
P114
  7
TQS_CALIBRI
  0
TEXT
  8
1
  6
CONTINUOUS
 10
17.103850
 20
23.468962
 40
0.250000
 50
90.000000
  1
P99
  7
TQS_CALIBRI
  0
TEXT
  8
1
  6
CONTINUOUS
 10
18.104164
 20
35.286359
 40
0.250000
 50
90.000000
  1
P100
  7
TQS_CALIBRI
  0
TEXT
  8
1
  6
CONTINUOUS
 10
96.197598
 20
17.332305
 40
0.250000
 50
90.000000
  1
P131
  7
TQS_CALIBRI
  0
TEXT
  8
1
  6
CONTINUOUS
 10
97.069034
 20
27.628092
 40
0.250000
 50
90.000000
  1
P132
  7
TQS_CALIBRI
  0
TEXT
  8
1
  6
CONTINUOUS
 10
97.940531
 20
37.924607
 40
0.250000
 50
90.000000
  1
P133
  7
TQS_CALIBRI
  0
TEXT
  8
1
  6
CONTINUOUS
 10
15.141663
 20
13.599102
 40
0.250000
 50
90.000000
  1
P98
  7
TQS_CALIBRI
  0
TEXT
  8
1
  6
CONTINUOUS
 10
98.857993
 20
48.803208
 40
0.250000
 50
90.000000
  1
P134
  7
TQS_CALIBRI
  0
TEXT
  8
1
  6
CONTINUOUS
 10
89.026631
 20
49.579214
 40
0.250000
 50
90.000000
  1
P129
  7
TQS_CALIBRI
  0
TEXT
  8
1
  6
CONTINUOUS
 10
78.231891
 20
50.492829
 40
0.250000
 50
90.000000
  1
P124
  7
TQS_CALIBRI
  0
TEXT
  8
1
  6
CONTINUOUS
 10
69.097880
 20
51.265888
 40
0.250000
 50
90.000000
  1
P122
  7
TQS_CALIBRI
  0
TEXT
  8
1
  6
CONTINUOUS
 10
28.180419
 20
54.728959
 40
0.250000
 50
90.000000
  1
P104
  7
TQS_CALIBRI
  0
TEXT
  8
1
  6
CONTINUOUS
 10
18.595724
 20
55.540159
 40
0.250000
 50
90.000000
  1
P101
  7
TQS_CALIBRI
  0
TEXT
  8
1
  6
CONTINUOUS
 10
9.793867
 20
56.341315
 40
0.250000
 50
90.000000
  1
P97
  7
TQS_CALIBRI
  0
TEXT
  8
1
  6
CONTINUOUS
 10
7.947005
 20
24.181221
 40
0.250000
 50
90.000000
  1
P93
  7
TQS_CALIBRI
  0
TEXT
  8
1
  6
CONTINUOUS
 10
7.482607
 20
42.382228
 40
0.250000
 50
90.000000
  1
P95
  7
TQS_CALIBRI
  0
TEXT
  8
1
  6
CONTINUOUS
 10
7.506895
 20
54.798871
 40
0.250000
 50
90.000000
  1
P96
  7
TQS_CALIBRI
  0
TEXT
  8
1
  6
CONTINUOUS
 10
61.169136
 20
51.993169
 40
0.250000
 50
90.000000
  1
P117
  7
TQS_CALIBRI
  0
TEXT
  8
1
  6
CONTINUOUS
 10
22.656462
 20
12.963068
 40
0.250000
 50
90.000000
  1
P103
  7
TQS_CALIBRI
  0
TEXT
  8
1
  6
CONTINUOUS
 10
72.405665
 20
8.250248
 40
0.250000
 50
90.000000
  1
P123
  7
TQS_CALIBRI
  0
TEXT
  8
1
  6
CONTINUOUS
 10
82.370041
 20
7.406915
 40
0.250000
 50
90.000000
  1
P128
  7
TQS_CALIBRI
  0
TEXT
  8
1
  6
CONTINUOUS
 10
95.266209
 20
6.315153
 40
0.250000
 50
90.000000
  1
P130
  7
TQS_CALIBRI
  0
TEXT
  8
1
  6
CONTINUOUS
 10
37.646573
 20
53.983868
 40
0.250000
 50
90.000000
  1
P109
  7
TQS_CALIBRI
  0
TEXT
  8
1
  6
CONTINUOUS
 10
51.993036
 20
10.508211
 40
0.250000
 50
90.000000
  1
P115
  7
TQS_CALIBRI
  0
TEXT
  8
1
  6
CONTINUOUS
 10
32.697960
 20
22.038335
 40
0.250000
 50
90.000000
  1
P106
  7
TQS_CALIBRI
  0
TEXT
  8
1
  6
CONTINUOUS
 10
33.698123
 20
33.855744
 40
0.250000
 50
90.000000
  1
P107
  7
TQS_CALIBRI
  0
TEXT
  8
1
  6
CONTINUOUS
 10
34.330738
 20
41.330480
 40
0.250000
 50
90.000000
  1
P108
  7
TQS_CALIBRI
  0
TEXT
  8
1
  6
CONTINUOUS
 10
18.938426
 20
45.141913
 40
0.250000
 50
90.000000
  1
P102
  7
TQS_CALIBRI
  0
TEXT
  8
1
  6
CONTINUOUS
 10
61.978208
 20
7.237381
 40
0.250000
 50
90.000000
  1
P304
  7
TQS_CALIBRI
  0
TEXT
  8
1
  6
CONTINUOUS
 10
7.467349
 20
34.582243
 40
0.250000
 50
90.000000
  1
P302
  7
TQS_CALIBRI
  0
TEXT
  8
1
  6
CONTINUOUS
 10
61.384321
 20
9.725181
 40
0.250000
 50
90.000000
  1
P118
  7
TQS_CALIBRI
  0
TEXT
  8
1
  6
CONTINUOUS
 10
31.987850
 20
12.173646
 40
0.250000
 50
90.000000
  1
P105
  7
TQS_CALIBRI
  0
TEXT
  8
1
  6
CONTINUOUS
 10
7.447983
 20
24.715595
 40
0.250000
 50
90.000000
  1
P301
  7
TQS_CALIBRI
  0
TEXT
  8
1
  6
CONTINUOUS
 10
7.929047
 20
15.000767
 40
0.250000
 50
90.000000
  1
P92
  7
TQS_CALIBRI
  0
TEXT
  8
1
  6
CONTINUOUS
 10
37.361573
 20
50.539593
 40
0.250000
 50
90.000000
  1
P305
  7
TQS_CALIBRI
  0
TEXT
  8
1
  6
CONTINUOUS
 10
48.707292
 20
49.581226
 40
0.250000
 50
90.000000
  1
P306
  7
TQS_CALIBRI
  0
TEXT
  8
1
  6
CONTINUOUS
 10
60.054179
 20
48.622817
 40
0.250000
 50
90.000000
  1
P307
  7
TQS_CALIBRI
  0
TEXT
  8
1
  6
CONTINUOUS
 10
40.470004
 20
9.530819
 40
0.250000
 50
90.000000
  1
P110
  7
TQS_CALIBRI
  0
TEXT
  8
4
  6
CONTINUOUS
 10
51.888863
 20
15.499420
 40
0.250000
 50
175.161906
  1
C32
  7
TQS_CALIBRI
  0
TEXT
  8
4
  6
CONTINUOUS
 10
51.956335
 20
16.296570
 40
0.250000
 50
175.161906
  1
C33
  7
TQS_CALIBRI
  0
TEXT
  8
4
  6
CONTINUOUS
 10
52.023808
 20
17.093719
 40
0.250000
 50
175.161906
  1
C34
  7
TQS_CALIBRI
  0
TEXT
  8
4
  6
CONTINUOUS
 10
52.091280
 20
17.890869
 40
0.250000
 50
175.161906
  1
C35
  7
TQS_CALIBRI
  0
TEXT
  8
4
  6
CONTINUOUS
 10
52.158752
 20
18.688019
 40
0.250000
 50
175.161906
  1
C36
  7
TQS_CALIBRI
  0
TEXT
  8
4
  6
CONTINUOUS
 10
52.226225
 20
19.485168
 40
0.250000
 50
175.161906
  1
C37
  7
TQS_CALIBRI
  0
TEXT
  8
4
  6
CONTINUOUS
 10
52.293697
 20
20.282318
 40
0.250000
 50
175.161906
  1
C38
  7
TQS_CALIBRI
  0
TEXT
  8
4
  6
CONTINUOUS
 10
52.361169
 20
21.079467
 40
0.250000
 50
175.161906
  1
C39
  7
TQS_CALIBRI
  0
TEXT
  8
4
  6
CONTINUOUS
 10
52.428641
 20
21.876617
 40
0.250000
 50
175.161906
  1
C40
  7
TQS_CALIBRI
  0
TEXT
  8
4
  6
CONTINUOUS
 10
52.496114
 20
22.673767
 40
0.250000
 50
175.161906
  1
C41
  7
TQS_CALIBRI
  0
TEXT
  8
4
  6
CONTINUOUS
 10
52.563586
 20
23.470916
 40
0.250000
 50
175.161906
  1
C42
  7
TQS_CALIBRI
  0
TEXT
  8
4
  6
CONTINUOUS
 10
52.631058
 20
24.268066
 40
0.250000
 50
175.161906
  1
C43
  7
TQS_CALIBRI
  0
TEXT
  8
4
  6
CONTINUOUS
 10
52.698531
 20
25.065215
 40
0.250000
 50
175.161906
  1
C44
  7
TQS_CALIBRI
  0
TEXT
  8
4
  6
CONTINUOUS
 10
51.818883
 20
11.049854
 40
0.250000
 50
175.161909
  1
C29
  7
TQS_CALIBRI
  0
TEXT
  8
4
  6
CONTINUOUS
 10
51.951017
 20
12.610939
 40
0.250000
 50
175.161909
  1
C30
  7
TQS_CALIBRI
  0
TEXT
  8
4
  6
CONTINUOUS
 10
52.083150
 20
14.172023
 40
0.250000
 50
175.161909
  1
C31
  7
TQS_CALIBRI
  0
TEXT
  8
4
  6
CONTINUOUS
 10
52.084853
 20
26.117014
 40
0.250000
 50
175.161901
  1
C45
  7
TQS_CALIBRI
  0
TEXT
  8
4
  6
CONTINUOUS
 10
52.152325
 20
26.914163
 40
0.250000
 50
175.161901
  1
C46
  7
TQS_CALIBRI
  0
TEXT
  8
4
  6
CONTINUOUS
 10
52.219797
 20
27.711313
 40
0.250000
 50
175.161901
  1
C47
  7
TQS_CALIBRI
  0
TEXT
  8
4
  6
CONTINUOUS
 10
52.287270
 20
28.508462
 40
0.250000
 50
175.161901
  1
C48
  7
TQS_CALIBRI
  0
TEXT
  8
4
  6
CONTINUOUS
 10
52.354742
 20
29.305612
 40
0.250000
 50
175.161901
  1
C49
  7
TQS_CALIBRI
  0
TEXT
  8
4
  6
CONTINUOUS
 10
52.422215
 20
30.102762
 40
0.250000
 50
175.161901
  1
C50
  7
TQS_CALIBRI
  0
TEXT
  8
4
  6
CONTINUOUS
 10
52.489687
 20
30.899911
 40
0.250000
 50
175.161901
  1
C51
  7
TQS_CALIBRI
  0
TEXT
  8
4
  6
CONTINUOUS
 10
52.557159
 20
31.697061
 40
0.250000
 50
175.161901
  1
C52
  7
TQS_CALIBRI
  0
TEXT
  8
4
  6
CONTINUOUS
 10
52.624632
 20
32.494210
 40
0.250000
 50
175.161901
  1
C53
  7
TQS_CALIBRI
  0
TEXT
  8
4
  6
CONTINUOUS
 10
52.692104
 20
33.291360
 40
0.250000
 50
175.161901
  1
C54
  7
TQS_CALIBRI
  0
TEXT
  8
4
  6
CONTINUOUS
 10
52.759576
 20
34.088510
 40
0.250000
 50
175.161901
  1
C55
  7
TQS_CALIBRI
  0
TEXT
  8
4
  6
CONTINUOUS
 10
52.827049
 20
34.885659
 40
0.250000
 50
175.161901
  1
C56
  7
TQS_CALIBRI
  0
TEXT
  8
4
  6
CONTINUOUS
 10
52.894521
 20
35.682809
 40
0.250000
 50
175.161901
  1
C57
  7
TQS_CALIBRI
  0
TEXT
  8
4
  6
CONTINUOUS
 10
52.542592
 20
36.743555
 40
0.250000
 50
175.161897
  1
C58
  7
TQS_CALIBRI
  0
TEXT
  8
4
  6
CONTINUOUS
 10
52.629744
 20
37.773207
 40
0.250000
 50
175.161897
  1
C59
  7
TQS_CALIBRI
  0
TEXT
  8
4
  6
CONTINUOUS
 10
52.716896
 20
38.802858
 40
0.250000
 50
175.161897
  1
C60
  7
TQS_CALIBRI
  0
TEXT
  8
4
  6
CONTINUOUS
 10
52.804048
 20
39.832510
 40
0.250000
 50
175.161897
  1
C61
  7
TQS_CALIBRI
  0
TEXT
  8
4
  6
CONTINUOUS
 10
52.891200
 20
40.862161
 40
0.250000
 50
175.161897
  1
C62
  7
TQS_CALIBRI
  0
TEXT
  8
4
  6
CONTINUOUS
 10
52.978352
 20
41.891813
 40
0.250000
 50
175.161897
  1
C63
  7
TQS_CALIBRI
  0
TEXT
  8
4
  6
CONTINUOUS
 10
53.065504
 20
42.921464
 40
0.250000
 50
175.161897
  1
C64
  7
TQS_CALIBRI
  0
TEXT
  8
4
  6
CONTINUOUS
 10
53.152655
 20
43.951116
 40
0.250000
 50
175.161897
  1
C65
  7
TQS_CALIBRI
  0
TEXT
  8
4
  6
CONTINUOUS
 10
53.239807
 20
44.980768
 40
0.250000
 50
175.161897
  1
C66
  7
TQS_CALIBRI
  0
TEXT
  8
4
  6
CONTINUOUS
 10
53.326959
 20
46.010419
 40
0.250000
 50
175.161897
  1
C67
  7
TQS_CALIBRI
  0
TEXT
  8
4
  6
CONTINUOUS
 10
53.414111
 20
47.040071
 40
0.250000
 50
175.161897
  1
C68
  7
TQS_CALIBRI
  0
TEXT
  8
4
  6
CONTINUOUS
 10
53.501263
 20
48.069722
 40
0.250000
 50
175.161897
  1
C70
  7
TQS_CALIBRI
  0
TEXT
  8
4
  6
CONTINUOUS
 10
79.656519
 20
47.197600
 40
0.250000
 50
175.161838
  1
C69
  7
TQS_CALIBRI
  0
TEXT
  8
4
  6
CONTINUOUS
 10
79.791465
 20
48.791899
 40
0.250000
 50
175.161838
  1
C71
  7
TQS_CALIBRI
  0
TEXT
  8
4
  6
CONTINUOUS
 10
21.833946
 20
52.091782
 40
0.250000
 50
175.161804
  1
C72
  7
TQS_CALIBRI
  0
TEXT
  8
4
  6
CONTINUOUS
 10
21.968893
 20
53.686081
 40
0.250000
 50
175.161804
  1
C73
  7
TQS_CALIBRI
  0
TEXT
  8
1
  6
CONTINUOUS
 10
8.599452
 20
76.346600
 40
0.220000
  1
CABO
  7
TQS_CALIBRI
  0
TEXT
  8
1
  6
CONTINUOUS
 10
15.663933
 20
76.636600
 40
0.220000
  1
COMPRIMENTO
  7
TQS_CALIBRI
  0
TEXT
  8
1
  6
CONTINUOUS
 10
18.658239
 20
76.136600
 40
0.220000
  1
TOTAL
  7
TQS_CALIBRI
  0
TEXT
  8
1
  6
CONTINUOUS
 10
21.488593
 20
76.136600
 40
0.220000
  1
A
  7
TQS_CALIBRI
  0
TEXT
  8
1
  6
CONTINUOUS
 10
22.533409
 20
76.136600
 40
0.220000
  1
P
  7
TQS_CALIBRI
  0
TEXT
  8
1
  6
CONTINUOUS
 10
23.578225
 20
76.136600
 40
0.220000
  1
I
  7
TQS_CALIBRI
  0
TEXT
  8
1
  6
CONTINUOUS
 10
21.505906
 20
76.636600
 40
0.220000
  1
ANCORAGENS
  7
TQS_CALIBRI
  0
TEXT
  8
1
  6
CONTINUOUS
 10
13.058413
 20
76.346600
 40
0.220000
  1
Q
  7
TQS_CALIBRI
  0
TEXT
  8
1
  6
CONTINUOUS
 10
9.758074
 20
77.296600
 40
0.400000
  1
PROTENSÃO: AÇO
  7
TQS_CALIBRI
  0
TEXT
  8
1
  6
CONTINUOUS
 10
15.076803
 20
76.136600
 40
0.220000
  1
UNITÁRIO
  7
TQS_CALIBRI
  0
TEXT
  8
1
  6
CONTINUOUS
 10
24.533288
 20
76.136600
 40
0.220000
  1
INI
  7
TQS_CALIBRI
  0
TEXT
  8
1
  6
CONTINUOUS
 10
26.100512
 20
76.136600
 40
0.220000
  1
FIN
  7
TQS_CALIBRI
  0
TEXT
  8
1
  6
CONTINUOUS
 10
10.987664
 20
76.348819
 40
0.220000
  1
%%c
  7
TQS_CALIBRI
  0
TEXT
  8
1
  6
CONTINUOUS
 10
24.627054
 20
76.636600
 40
0.220000
  1
ALONG
  7
TQS_CALIBRI
  0
TEXT
  8
1
  6
CONTINUOUS
 10
16.086304
 20
77.296600
 40
0.400000
  1
CP190 RB 12.7 - 12.7
  7
TQS_CALIBRI
  0
TEXT
  8
1
  6
CONTINUOUS
 10
11.272812
 20
76.348819
 40
0.220000
  1
(mm)
  7
TQS_CALIBRI
  0
TEXT
  8
1
  6
CONTINUOUS
 10
18.324009
 20
76.636600
 40
0.220000
  1
(m)
  7
TQS_CALIBRI
  0
TEXT
  8
1
  6
CONTINUOUS
 10
25.814550
 20
76.636600
 40
0.220000
  1
(mm)
  7
TQS_CALIBRI
  0
TEXT
  8
1
  6
CONTINUOUS
 10
8.244874
 20
75.636600
 40
0.220000
  1
C29 A C31
  7
TQS_CALIBRI
  0
TEXT
  8
1
  6
CONTINUOUS
 10
10.598355
 20
75.636600
 40
0.220000
  1
2 %%c 12.7
  7
TQS_CALIBRI
  0
TEXT
  8
1
  6
CONTINUOUS
 10
12.812752
 20
75.636600
 40
0.220000
  1
3
  7
TQS_CALIBRI
  0
TEXT
  8
1
  6
CONTINUOUS
 10
15.049335
 20
75.636600
 40
0.220000
  1
54.2
  7
TQS_CALIBRI
  0
TEXT
  8
1
  6
CONTINUOUS
 10
18.326168
 20
75.636600
 40
0.220000
  1
325.3
  7
TQS_CALIBRI
  0
TEXT
  8
1
  6
CONTINUOUS
 10
21.304140
 20
75.636600
 40
0.220000
  1
6
  7
TQS_CALIBRI
  0
TEXT
  8
1
  6
CONTINUOUS
 10
22.348956
 20
75.636600
 40
0.220000
  1
6
  7
TQS_CALIBRI
  0
TEXT
  8
1
  6
CONTINUOUS
 10
24.385779
 20
75.636600
 40
0.220000
  1
0
  7
TQS_CALIBRI
  0
TEXT
  8
1
  6
CONTINUOUS
 10
25.953003
 20
75.636600
 40
0.220000
  1
358
  7
TQS_CALIBRI
  0
TEXT
  8
1
  6
CONTINUOUS
 10
8.244874
 20
75.136599
 40
0.220000
  1
C32 A C44
  7
TQS_CALIBRI
  0
TEXT
  8
1
  6
CONTINUOUS
 10
10.598355
 20
75.136599
 40
0.220000
  1
3 %%c 12.7
  7
TQS_CALIBRI
  0
TEXT
  8
1
  6
CONTINUOUS
 10
12.812752
 20
75.136599
 40
0.220000
  1
13
  7
TQS_CALIBRI
  0
TEXT
  8
1
  6
CONTINUOUS
 10
15.049335
 20
75.136599
 40
0.220000
  1
54.6
  7
TQS_CALIBRI
  0
TEXT
  8
1
  6
CONTINUOUS
 10
18.326168
 20
75.136599
 40
0.220000
  1
2128.9
  7
TQS_CALIBRI
  0
TEXT
  8
1
  6
CONTINUOUS
 10
21.304140
 20
75.136599
 40
0.220000
  1
39
  7
TQS_CALIBRI
  0
TEXT
  8
1
  6
CONTINUOUS
 10
22.348956
 20
75.136599
 40
0.220000
  1
39
  7
TQS_CALIBRI
  0
TEXT
  8
1
  6
CONTINUOUS
 10
24.385779
 20
75.136599
 40
0.220000
  1
0
  7
TQS_CALIBRI
  0
TEXT
  8
1
  6
CONTINUOUS
 10
25.953003
 20
75.136599
 40
0.220000
  1
353
  7
TQS_CALIBRI
  0
TEXT
  8
1
  6
CONTINUOUS
 10
8.244874
 20
74.636598
 40
0.220000
  1
C45 A C57
  7
TQS_CALIBRI
  0
TEXT
  8
1
  6
CONTINUOUS
 10
10.598355
 20
74.636598
 40
0.220000
  1
   "
  7
TQS_CALIBRI
  0
TEXT
  8
1
  6
CONTINUOUS
 10
12.812752
 20
74.636598
 40
0.220000
  1
13
  7
TQS_CALIBRI
  0
TEXT
  8
1
  6
CONTINUOUS
 10
15.049335
 20
74.636598
 40
0.220000
  1
55.4
  7
TQS_CALIBRI
  0
TEXT
  8
1
  6
CONTINUOUS
 10
18.326168
 20
74.636598
 40
0.220000
  1
2161.6
  7
TQS_CALIBRI
  0
TEXT
  8
1
  6
CONTINUOUS
 10
21.304140
 20
74.636598
 40
0.220000
  1
39
  7
TQS_CALIBRI
  0
TEXT
  8
1
  6
CONTINUOUS
 10
22.348956
 20
74.636598
 40
0.220000
  1
39
  7
TQS_CALIBRI
  0
TEXT
  8
1
  6
CONTINUOUS
 10
24.385779
 20
74.636598
 40
0.220000
  1
0
  7
TQS_CALIBRI
  0
TEXT
  8
1
  6
CONTINUOUS
 10
25.953003
 20
74.636598
 40
0.220000
  1
357
  7
TQS_CALIBRI
  0
TEXT
  8
1
  6
CONTINUOUS
 10
8.244874
 20
74.136597
 40
0.220000
  1
C58 A C68
  7
TQS_CALIBRI
  0
TEXT
  8
1
  6
CONTINUOUS
 10
10.598355
 20
74.136597
 40
0.220000
  1
   "
  7
TQS_CALIBRI
  0
TEXT
  8
1
  6
CONTINUOUS
 10
12.812752
 20
74.136597
 40
0.220000
  1
11
  7
TQS_CALIBRI
  0
TEXT
  8
1
  6
CONTINUOUS
 10
15.049335
 20
74.136597
 40
0.220000
  1
56
  7
TQS_CALIBRI
  0
TEXT
  8
1
  6
CONTINUOUS
 10
18.326168
 20
74.136597
 40
0.220000
  1
1846.5
  7
TQS_CALIBRI
  0
TEXT
  8
1
  6
CONTINUOUS
 10
21.304140
 20
74.136597
 40
0.220000
  1
33
  7
TQS_CALIBRI
  0
TEXT
  8
1
  6
CONTINUOUS
 10
22.348956
 20
74.136597
 40
0.220000
  1
33
  7
TQS_CALIBRI
  0
TEXT
  8
1
  6
CONTINUOUS
 10
24.385779
 20
74.136597
 40
0.220000
  1
0
  7
TQS_CALIBRI
  0
TEXT
  8
1
  6
CONTINUOUS
 10
25.953003
 20
74.136597
 40
0.220000
  1
360
  7
TQS_CALIBRI
  0
TEXT
  8
1
  6
CONTINUOUS
 10
8.244874
 20
73.636597
 40
0.220000
  1
C69
  7
TQS_CALIBRI
  0
TEXT
  8
1
  6
CONTINUOUS
 10
10.598355
 20
73.636597
 40
0.220000
  1
2 %%c 12.7
  7
TQS_CALIBRI
  0
TEXT
  8
1
  6
CONTINUOUS
 10
12.812752
 20
73.636597
 40
0.220000
  1
1
  7
TQS_CALIBRI
  0
TEXT
  8
1
  6
CONTINUOUS
 10
15.049335
 20
73.636597
 40
0.220000
  1
24.6
  7
TQS_CALIBRI
  0
TEXT
  8
1
  6
CONTINUOUS
 10
18.326168
 20
73.636597
 40
0.220000
  1
49.2
  7
TQS_CALIBRI
  0
TEXT
  8
1
  6
CONTINUOUS
 10
21.304140
 20
73.636597
 40
0.220000
  1
2
  7
TQS_CALIBRI
  0
TEXT
  8
1
  6
CONTINUOUS
 10
22.348956
 20
73.636597
 40
0.220000
  1
2
  7
TQS_CALIBRI
  0
TEXT
  8
1
  6
CONTINUOUS
 10
24.385779
 20
73.636597
 40
0.220000
  1
0
  7
TQS_CALIBRI
  0
TEXT
  8
1
  6
CONTINUOUS
 10
25.953003
 20
73.636597
 40
0.220000
  1
169
  7
TQS_CALIBRI
  0
TEXT
  8
1
  6
CONTINUOUS
 10
8.244874
 20
73.136596
 40
0.220000
  1
C70
  7
TQS_CALIBRI
  0
TEXT
  8
1
  6
CONTINUOUS
 10
10.598355
 20
73.136596
 40
0.220000
  1
3 %%c 12.7
  7
TQS_CALIBRI
  0
TEXT
  8
1
  6
CONTINUOUS
 10
12.812752
 20
73.136596
 40
0.220000
  1
1
  7
TQS_CALIBRI
  0
TEXT
  8
1
  6
CONTINUOUS
 10
15.049335
 20
73.136596
 40
0.220000
  1
56
  7
TQS_CALIBRI
  0
TEXT
  8
1
  6
CONTINUOUS
 10
18.326168
 20
73.136596
 40
0.220000
  1
167.9
  7
TQS_CALIBRI
  0
TEXT
  8
1
  6
CONTINUOUS
 10
21.304140
 20
73.136596
 40
0.220000
  1
3
  7
TQS_CALIBRI
  0
TEXT
  8
1
  6
CONTINUOUS
 10
22.348956
 20
73.136596
 40
0.220000
  1
3
  7
TQS_CALIBRI
  0
TEXT
  8
1
  6
CONTINUOUS
 10
24.385779
 20
73.136596
 40
0.220000
  1
0
  7
TQS_CALIBRI
  0
TEXT
  8
1
  6
CONTINUOUS
 10
25.953003
 20
73.136596
 40
0.220000
  1
360
  7
TQS_CALIBRI
  0
TEXT
  8
1
  6
CONTINUOUS
 10
8.244874
 20
72.636595
 40
0.220000
  1
C71
  7
TQS_CALIBRI
  0
TEXT
  8
1
  6
CONTINUOUS
 10
10.598355
 20
72.636595
 40
0.220000
  1
2 %%c 12.7
  7
TQS_CALIBRI
  0
TEXT
  8
1
  6
CONTINUOUS
 10
12.812752
 20
72.636595
 40
0.220000
  1
1
  7
TQS_CALIBRI
  0
TEXT
  8
1
  6
CONTINUOUS
 10
15.049335
 20
72.636595
 40
0.220000
  1
24.6
  7
TQS_CALIBRI
  0
TEXT
  8
1
  6
CONTINUOUS
 10
18.326168
 20
72.636595
 40
0.220000
  1
49.2
  7
TQS_CALIBRI
  0
TEXT
  8
1
  6
CONTINUOUS
 10
21.304140
 20
72.636595
 40
0.220000
  1
2
  7
TQS_CALIBRI
  0
TEXT
  8
1
  6
CONTINUOUS
 10
22.348956
 20
72.636595
 40
0.220000
  1
2
  7
TQS_CALIBRI
  0
TEXT
  8
1
  6
CONTINUOUS
 10
24.385779
 20
72.636595
 40
0.220000
  1
0
  7
TQS_CALIBRI
  0
TEXT
  8
1
  6
CONTINUOUS
 10
25.953003
 20
72.636595
 40
0.220000
  1
169
  7
TQS_CALIBRI
  0
TEXT
  8
1
  6
CONTINUOUS
 10
8.244874
 20
72.136595
 40
0.220000
  1
C72 A C73
  7
TQS_CALIBRI
  0
TEXT
  8
1
  6
CONTINUOUS
 10
10.598355
 20
72.136595
 40
0.220000
  1
   "
  7
TQS_CALIBRI
  0
TEXT
  8
1
  6
CONTINUOUS
 10
12.812752
 20
72.136595
 40
0.220000
  1
2
  7
TQS_CALIBRI
  0
TEXT
  8
1
  6
CONTINUOUS
 10
15.049335
 20
72.136595
 40
0.220000
  1
18.6
  7
TQS_CALIBRI
  0
TEXT
  8
1
  6
CONTINUOUS
 10
18.326168
 20
72.136595
 40
0.220000
  1
74.5
  7
TQS_CALIBRI
  0
TEXT
  8
1
  6
CONTINUOUS
 10
21.304140
 20
72.136595
 40
0.220000
  1
4
  7
TQS_CALIBRI
  0
TEXT
  8
1
  6
CONTINUOUS
 10
22.348956
 20
72.136595
 40
0.220000
  1
4
  7
TQS_CALIBRI
  0
TEXT
  8
1
  6
CONTINUOUS
 10
24.385779
 20
72.136595
 40
0.220000
  1
0
  7
TQS_CALIBRI
  0
TEXT
  8
1
  6
CONTINUOUS
 10
25.953003
 20
72.136595
 40
0.220000
  1
127
  7
TQS_CALIBRI
  0
TEXT
  8
1
  6
CONTINUOUS
 10
8.731015
 20
69.136594
 40
0.220000
  1
%%c
  7
TQS_CALIBRI
  0
TEXT
  8
1
  6
CONTINUOUS
 10
12.304553
 20
69.636594
 40
0.220000
  1
CABO
  7
TQS_CALIBRI
  0
TEXT
  8
1
  6
CONTINUOUS
 10
18.489113
 20
68.886594
 40
0.220000
  1
A
  7
TQS_CALIBRI
  0
TEXT
  8
1
  6
CONTINUOUS
 10
19.533928
 20
68.886594
 40
0.220000
  1
P
  7
TQS_CALIBRI
  0
TEXT
  8
1
  6
CONTINUOUS
 10
20.578745
 20
68.886594
 40
0.220000
  1
I
  7
TQS_CALIBRI
  0
TEXT
  8
1
  6
CONTINUOUS
 10
14.800312
 20
69.136594
 40
0.220000
  1
PESO
  7
TQS_CALIBRI
  0
TEXT
  8
1
  6
CONTINUOUS
 10
18.559292
 20
69.636594
 40
0.220000
  1
ANCORAGENS
  7
TQS_CALIBRI
  0
TEXT
  8
1
  6
CONTINUOUS
 10
10.638072
 20
70.719926
 40
0.400000
  1
RESUMO DE PROTENSÃO
  7
TQS_CALIBRI
  0
TEXT
  8
1
  6
CONTINUOUS
 10
10.176209
 20
70.157227
 40
0.300000
  1
Monocordoalhas não aderentes
  7
TQS_CALIBRI
  0
TEXT
  8
1
  6
CONTINUOUS
 10
10.567310
 20
69.136594
 40
0.220000
  1
COMPR
  7
TQS_CALIBRI
  0
TEXT
  8
1
  6
CONTINUOUS
 10
12.417098
 20
68.636594
 40
0.220000
  1
kgf/m
  7
TQS_CALIBRI
  0
TEXT
  8
1
  6
CONTINUOUS
 10
14.568875
 20
68.636594
 40
0.220000
  1
kgf
  7
TQS_CALIBRI
  0
TEXT
  8
1
  6
CONTINUOUS
 10
16.383267
 20
68.636594
 40
0.220000
  1
kgf+4%
  7
TQS_CALIBRI
  0
TEXT
  8
1
  6
CONTINUOUS
 10
10.571856
 20
68.636594
 40
0.220000
  1
m
  7
TQS_CALIBRI
  0
TEXT
  8
1
  6
CONTINUOUS
 10
8.709395
 20
68.636594
 40
0.220000
  1
mm
  7
TQS_CALIBRI
  0
TEXT
  8
1
  6
CONTINUOUS
 10
10.297172
 20
68.136593
 40
0.220000
  1
498
  7
TQS_CALIBRI
  0
TEXT
  8
1
  6
CONTINUOUS
 10
19.342769
 20
68.136594
 40
0.220000
  1
14
  7
TQS_CALIBRI
  0
TEXT
  8
1
  6
CONTINUOUS
 10
18.297952
 20
68.136594
 40
0.220000
  1
14
  7
TQS_CALIBRI
  0
TEXT
  8
1
  6
CONTINUOUS
 10
12.417098
 20
68.136593
 40
0.220000
  1
0.886
  7
TQS_CALIBRI
  0
TEXT
  8
1
  6
CONTINUOUS
 10
14.006427
 20
68.136593
 40
0.220000
  1
441
  7
TQS_CALIBRI
  0
TEXT
  8
1
  6
CONTINUOUS
 10
16.066425
 20
68.136593
 40
0.220000
  1
459
  7
TQS_CALIBRI
  0
TEXT
  8
1
  6
CONTINUOUS
 10
8.109239
 20
68.136593
 40
0.220000
  1
2 %%c 12.7
  7
TQS_CALIBRI
  0
TEXT
  8
1
  6
CONTINUOUS
 10
10.297172
 20
67.636593
 40
0.220000
  1
6305
  7
TQS_CALIBRI
  0
TEXT
  8
1
  6
CONTINUOUS
 10
19.342769
 20
67.636593
 40
0.220000
  1
114
  7
TQS_CALIBRI
  0
TEXT
  8
1
  6
CONTINUOUS
 10
18.297952
 20
67.636593
 40
0.220000
  1
114
  7
TQS_CALIBRI
  0
TEXT
  8
1
  6
CONTINUOUS
 10
12.417098
 20
67.636593
 40
0.220000
  1
0.886
  7
TQS_CALIBRI
  0
TEXT
  8
1
  6
CONTINUOUS
 10
14.006427
 20
67.636593
 40
0.220000
  1
5586
  7
TQS_CALIBRI
  0
TEXT
  8
1
  6
CONTINUOUS
 10
16.066425
 20
67.636593
 40
0.220000
  1
5810
  7
TQS_CALIBRI
  0
TEXT
  8
1
  6
CONTINUOUS
 10
8.109239
 20
67.636593
 40
0.220000
  1
3 %%c 12.7
  7
TQS_CALIBRI
  0
TEXT
  8
1
  6
CONTINUOUS
 10
101.932386
 20
23.396411
 40
0.350000
  1
NOTAS:
  7
TQS_CALIBRI
  0
TEXT
  8
2
  6
CONTINUOUS
 10
101.965840
 20
22.812661
 40
0.240000
  1
1) CONFERIR INFORMAÇÕES DA TABELA ACIMA (TABELA DE FERRERAGEM) NA OBRA
  7
TQS_CALIBRI
  0
TEXT
  8
2
  6
CONTINUOUS
 10
101.965840
 20
22.343353
 40
0.240000
  1
ANTES DA COMPRA DAS ARMADURAS.
  7
TQS_CALIBRI
  0
TEXT
  8
1
  6
CONTINUOUS
 10
102.073109
 20
8.835799
 40
0.455000
  1
ENGENHARIA
  7
TQS_CALIBRI
  0
TEXT
  8
1
  6
CONTINUOUS
 10
101.876737
 20
16.222571
 40
0.250000
  1
REV
  7
TQS_CALIBRI
  0
TEXT
  8
1
  6
CONTINUOUS
 10
103.356169
 20
16.222571
 40
0.250000
  1
DATA
  7
TQS_CALIBRI
  0
TEXT
  8
1
  6
CONTINUOUS
 10
105.030516
 20
16.222571
 40
0.250000
  1
ASSUNTO
  7
TQS_CALIBRI
  0
TEXT
  8
1
  6
CONTINUOUS
 10
101.832253
 20
14.047181
 40
0.250000
  1
PROPRIETÁRIO - 
  7
TQS_CALIBRI
  0
TEXT
  8
1
  6
CONTINUOUS
 10
108.042444
 20
2.579059
 40
0.250000
  1
ENGENHEIRO:
  7
TQS_CALIBRI
  0
TEXT
  8
1
  6
CONTINUOUS
 10
108.046365
 20
2.149652
 40
0.250000
  1
CREA REG.:
  7
TQS_CALIBRI
  0
TEXT
  8
1
  6
CONTINUOUS
 10
110.430567
 20
2.160333
 40
0.250000
  1
020930945-8
  7
TQS_CALIBRI
  0
TEXT
  8
1
  6
CONTINUOUS
 10
103.739739
 20
9.759850
 40
1.000000
  1
VGF
  7
TQS_CALIBRI
  0
TEXT
  8
1
  6
CONTINUOUS
 10
101.832253
 20
12.147181
 40
0.250000
  1
PROJETO              Eng. Civil - CREA:020930945-8
  7
TQS_CALIBRI
  0
TEXT
  8
1
  6
CONTINUOUS
 10
101.800510
 20
2.752624
 40
0.150000
  1
DATA:
  7
TQS_CALIBRI
  0
TEXT
  8
1
  6
CONTINUOUS
 10
101.788178
 20
1.752624
 40
0.150000
  1
FASE:
  7
TQS_CALIBRI
  0
TEXT
  8
1
  6
CONTINUOUS
 10
105.124829
 20
2.752624
 40
0.150000
  1
ESCALA:
  7
TQS_CALIBRI
  0
TEXT
  8
1
  6
CONTINUOUS
 10
105.112497
 20
1.752624
 40
0.150000
  1
PLANTA:
  7
TQS_CALIBRI
  0
TEXT
  8
1
  6
CONTINUOUS
 10
101.800510
 20
6.352624
 40
0.150000
  1
TÍTULO:
  7
TQS_CALIBRI
  0
TEXT
  8
1
  6
CONTINUOUS
 10
101.787482
 20
5.577767
 40
0.150000
  1
ELEMENTOS DA PRANCHA:
  7
TQS_CALIBRI
  0
TEXT
  8
1
  6
CONTINUOUS
 10
101.800510
 20
8.252624
 40
0.150000
  1
EMPREENDIMENTO/LOCAL:
  7
TQS_CALIBRI
  0
TEXT
  8
1
  6
CONTINUOUS
 10
106.761120
 20
11.025301
 40
0.150000
  1
CONTATOS:
  7
TQS_CALIBRI
  0
TEXT
  8
1
  6
CONTINUOUS
 10
114.224829
 20
2.752624
 40
0.150000
  1
PLANTA-REVISÃO:
  7
TQS_CALIBRI
  0
TEXT
  8
1
  6
CONTINUOUS
 10
102.041441
 20
16.843956
 40
0.200000
  1
00
  7
TQS_CALIBRI
  0
TEXT
  8
1
  6
CONTINUOUS
 10
102.041441
 20
17.343956
 40
0.200000
  1
01
  7
TQS_CALIBRI
  0
TEXT
  8
1
  6
CONTINUOUS
 10
102.041441
 20
17.843956
 40
0.200000
  1
02
  7
TQS_CALIBRI
  0
TEXT
  8
1
  6
CONTINUOUS
 10
102.041441
 20
18.343956
 40
0.200000
  1
03
  7
TQS_CALIBRI
  0
TEXT
  8
1
  6
CONTINUOUS
 10
102.041441
 20
18.843956
 40
0.200000
  1
04
  7
TQS_CALIBRI
  0
TEXT
  8
1
  6
CONTINUOUS
 10
102.041441
 20
19.343956
 40
0.200000
  1
05
  7
TQS_CALIBRI
  0
TEXT
  8
1
  6
CONTINUOUS
 10
102.041441
 20
19.843956
 40
0.200000
  1
06
  7
TQS_CALIBRI
  0
TEXT
  8
1
  6
CONTINUOUS
 10
102.041441
 20
20.343956
 40
0.200000
  1
07
  7
TQS_CALIBRI
  0
TEXT
  8
1
  6
CONTINUOUS
 10
102.041441
 20
20.843956
 40
0.200000
  1
08
  7
TQS_CALIBRI
  0
TEXT
  8
1
  6
CONTINUOUS
 10
102.041441
 20
21.343956
 40
0.200000
  1
09
  7
TQS_CALIBRI
  0
TEXT
  8
1
  6
CONTINUOUS
 10
102.041441
 20
21.843956
 40
0.200000
  1
10
  7
TQS_CALIBRI
  0
TEXT
  8
1
  6
CONTINUOUS
 10
116.437973
 20
16.222571
 40
0.250000
  1
AUTOR
  7
TQS_CALIBRI
  0
TEXT
  8
1
  6
CONTINUOUS
 10
106.749019
 20
10.335784
 40
0.195000
  1
Tel: 99928-2128
  7
TQS_CALIBRI
  0
TEXT
  8
1
  6
CONTINUOUS
 10
106.749019
 20
10.012284
 40
0.195000
  1
franciscogonca@hotmail.com 
  7
TQS_CALIBRI
  0
TEXT
  8
1
  6
CONTINUOUS
 10
106.749019
 20
9.680784
 40
0.195000
  1
Tel: 99981-6458
  7
TQS_CALIBRI
  0
TEXT
  8
1
  6
CONTINUOUS
 10
106.749019
 20
9.357284
 40
0.195000
  1
tiago@vgfengenharia.com.br 
  7
TQS_CALIBRI
  0
TEXT
  8
1
  6
CONTINUOUS
 10
106.749019
 20
9.025784
 40
0.195000
  1
Tel: 99912-8379
  7
TQS_CALIBRI
  0
TEXT
  8
1
  6
CONTINUOUS
 10
110.809443
 20
11.052624
 40
0.150000
  1
CLIENTE:
  7
TQS_CALIBRI
  0
TEXT
  8
1
  6
CONTINUOUS
 10
116.009770
 20
1.647683
 40
0.500000
  1
-R
  7
TQS_CALIBRI
  0
TEXT
  8
1
  6
CONTINUOUS
 10
101.832253
 20
12.547181
 40
0.250000
  1
RESPONSÁVEL -  Diego de Vasconcelos Gonçalves Ferreira
  7
TQS_CALIBRI
  0
TEXT
  8
1
  6
CONTINUOUS
 10
110.422141
 20
2.578345
 40
0.250000
  1
Diego Vasconcelos
  7
TQS_CALIBRI
  0
TEXT
  8
1
  6
CONTINUOUS
 10
106.749019
 20
10.667284
 40
0.195000
  1
diego@vgfengenharia.com.br 
  7
TQS_CALIBRI
  0
TEXT
  8
1
  6
CONTINUOUS
 10
104.982892
 20
16.853163
 40
0.200000
  1
Emissão inicial.
  7
TQS_CALIBRI
  0
TEXT
  8
1
  6
CONTINUOUS
 10
101.795719
 20
7.825700
 40
0.250000
  1
Assembléia Legislativa de Alagoas
  7
TQS_CALIBRI
  0
TEXT
  8
1
  6
CONTINUOUS
 10
104.517953
 20
14.045361
 40
0.250000
  1
ALA
  7
TQS_CALIBRI
  0
TEXT
  8
1
  6
CONTINUOUS
 10
101.789281
 20
2.263237
 40
0.250000
  1
27/02/2024
  7
TQS_CALIBRI
  0
TEXT
  8
1
  6
CONTINUOUS
 10
102.992347
 20
16.854551
 40
0.200000
  1
27/02/24
  7
TQS_CALIBRI
  0
TEXT
  8
1
  6
CONTINUOUS
 10
101.787954
 20
7.415393
 40
0.200000
  1
RUA SÁ E ALBUQUERQUE, NÚMERO 807, JARAGUÁ - MACEIÓ-AL
  7
TQS_CALIBRI
  0
TEXT
  8
1
  6
CONTINUOUS
 10
101.789859
 20
1.251887
 40
0.250000
  1
PE
  7
TQS_CALIBRI
  0
TEXT
  8
1
  6
CONTINUOUS
 10
105.113600
 20
2.263237
 40
0.250000
  1
1:50
  7
TQS_CALIBRI
  0
TEXT
  8
1
  6
CONTINUOUS
 10
105.114178
 20
1.251887
 40
0.250000
  1
CLA-EEM-EST-PE-0537-ARM-R00
  7
TQS_CALIBRI
  0
TEXT
  8
1
  6
CONTINUOUS
 10
116.547332
 20
16.842370
 40
0.200000
  1
DIEGO
  7
TQS_CALIBRI
  0
TEXT
  8
1
  6
CONTINUOUS
 10
114.396264
 20
1.644018
 40
0.500000
  1
0537
  7
TQS_CALIBRI
  0
TEXT
  8
1
  6
CONTINUOUS
 10
116.689770
 20
1.647683
 40
0.500000
  1
00
  7
TQS_CALIBRI
  0
TEXT
  8
1
  6
CONTINUOUS
 10
110.802729
 20
10.513659
 40
0.400000
  1
ALA
  7
TQS_CALIBRI
  0
TEXT
  8
1
  6
CONTINUOUS
 10
101.762319
 20
5.951739
 40
0.250000
  1
ARM. PROTENSÃO VERTICAL (04-3Pavto) - 01 - J
  7
TQS_CALIBRI
  0
ENDSEC
  0
EOF
