  0
SECTION
  2
HEADER
  9
$ACADVER
  1
AC1002
  9
$USERI1
 70
0
  9
$INSBASE
 10
0.000000
 20
0.000000
  9
$EXTMIN
 10
0.000000
 20
0.000000
  9
$EXTMAX
 10
7.761771
 20
4.436620
  9
$LIMMIN
 10
0.000000
 20
0.000000
  9
$LIMMAX
 10
12.000000
 20
9.000000
  9
$VIEWCTR
 10
78.887138
 20
59.361758
  9
$VIEWSIZE
 40
127.522840
  9
$TEXTSIZE
 40
0.100000
  9
$TRACEWID
 40
0.010000
  9
$LTSCALE
 40
1.000000
  0
ENDSEC
  0
SECTION
  2
TABLES
  0
TABLE
  2
LTYPE
 70
     3
  0
LTYPE
  2
CONTINUOUS
 70
    64
  3
Solid line
 72
    65
 73
     0
 40
0.000000
  0
LTYPE
  2
ESTILO_TQS_0001
 70
    64
  3
-  -  -  -  -  -
 72
    65
 73
     2
 40
1.000000
 49
0.700000
 49
-0.300000
  0
LTYPE
  2
ESTILO_TQS_0002
 70
    64
  3
. . . . . . . .
 72
    65
 73
     2
 40
0.400000
 49
0.100000
 49
-0.300000
  0
LTYPE
  2
ESTILO_TQS_0003
 70
    64
  3
- . - . - . - .
 72
    65
 73
     4
 40
0.910000
 49
0.500000
 49
-0.200000
 49
0.010000
 49
-0.200000
  0
LTYPE
  2
ESTILO_TQS_0004
 70
    64
  3
- .. - .. - ..
 72
    65
 73
     6
 40
1.120000
 49
0.500000
 49
-0.200000
 49
0.010000
 49
-0.200000
 49
0.010000
 49
-0.200000
  0
LTYPE
  2
CONTINUOUS
 70
    64
  3
- - - - - - - -
 72
    65
 73
     2
 40
0.400000
 49
0.300000
 49
-0.100000
  0
ENDTAB
  0
TABLE
  2
LAYER
 70
    89
  0
LAYER
  2
0
 70
     0
 62
     7
  6
CONTINUOUS
  0
LAYER
  2
1
 70
     0
 62
     1
  6
CONTINUOUS
  0
LAYER
  2
2
 70
     0
 62
     2
  6
CONTINUOUS
  0
LAYER
  2
3
 70
     0
 62
     3
  6
CONTINUOUS
  0
LAYER
  2
4
 70
     0
 62
     4
  6
CONTINUOUS
  0
LAYER
  2
5
 70
     0
 62
     5
  6
CONTINUOUS
  0
LAYER
  2
6
 70
     0
 62
     6
  6
CONTINUOUS
  0
LAYER
  2
7
 70
     0
 62
     7
  6
CONTINUOUS
  0
LAYER
  2
8
 70
     0
 62
     8
  6
CONTINUOUS
  0
LAYER
  2
9
 70
     0
 62
     9
  6
CONTINUOUS
  0
LAYER
  2
10
 70
     0
 62
    10
  6
CONTINUOUS
  0
LAYER
  2
11
 70
     0
 62
    11
  6
CONTINUOUS
  0
LAYER
  2
12
 70
     0
 62
    12
  6
CONTINUOUS
  0
LAYER
  2
13
 70
     0
 62
    13
  6
CONTINUOUS
  0
LAYER
  2
14
 70
     0
 62
    14
  6
CONTINUOUS
  0
LAYER
  2
15
 70
     0
 62
    15
  6
CONTINUOUS
  0
LAYER
  2
16
 70
     0
 62
     7
  6
CONTINUOUS
  0
LAYER
  2
17
 70
     0
 62
     2
  6
CONTINUOUS
  0
LAYER
  2
18
 70
     0
 62
     4
  6
CONTINUOUS
  0
LAYER
  2
19
 70
     0
 62
     5
  6
CONTINUOUS
  0
LAYER
  2
20
 70
     0
 62
     4
  6
CONTINUOUS
  0
LAYER
  2
21
 70
     0
 62
     2
  6
CONTINUOUS
  0
LAYER
  2
22
 70
     0
 62
     1
  6
CONTINUOUS
  0
LAYER
  2
23
 70
     0
 62
     7
  6
CONTINUOUS
  0
LAYER
  2
24
 70
     0
 62
     6
  6
CONTINUOUS
  0
LAYER
  2
25
 70
     0
 62
     1
  6
CONTINUOUS
  0
LAYER
  2
26
 70
     0
 62
     3
  6
CONTINUOUS
  0
LAYER
  2
27
 70
     0
 62
     4
  6
CONTINUOUS
  0
LAYER
  2
28
 70
     0
 62
     4
  6
CONTINUOUS
  0
LAYER
  2
30
 70
     0
 62
     4
  6
CONTINUOUS
  0
LAYER
  2
100
 70
     0
 62
     1
  6
CONTINUOUS
  0
LAYER
  2
101
 70
     0
 62
     9
  6
CONTINUOUS
  0
LAYER
  2
102
 70
     0
 62
     7
  6
CONTINUOUS
  0
LAYER
  2
103
 70
     0
 62
     2
  6
CONTINUOUS
  0
LAYER
  2
104
 70
     0
 62
    11
  6
CONTINUOUS
  0
LAYER
  2
105
 70
     0
 62
     3
  6
CONTINUOUS
  0
LAYER
  2
106
 70
     0
 62
     5
  6
CONTINUOUS
  0
LAYER
  2
107
 70
     0
 62
     3
  6
CONTINUOUS
  0
LAYER
  2
108
 70
     0
 62
     5
  6
CONTINUOUS
  0
LAYER
  2
109
 70
     0
 62
     3
  6
CONTINUOUS
  0
LAYER
  2
197
 70
     0
 62
     3
  6
CONTINUOUS
  0
LAYER
  2
198
 70
     0
 62
     2
  6
CONTINUOUS
  0
LAYER
  2
199
 70
     0
 62
     6
  6
CONTINUOUS
  0
LAYER
  2
200
 70
     0
 62
     7
  6
ESTILO_TQS_0002
  0
LAYER
  2
201
 70
     0
 62
     7
  6
ESTILO_TQS_0001
  0
LAYER
  2
202
 70
     0
 62
     7
  6
CONTINUOUS
  0
LAYER
  2
203
 70
     0
 62
     7
  6
ESTILO_TQS_0001
  0
LAYER
  2
204
 70
     0
 62
     7
  6
ESTILO_TQS_0003
  0
LAYER
  2
205
 70
     0
 62
     5
  6
ESTILO_TQS_0004
  0
LAYER
  2
206
 70
     0
 62
    15
  6
CONTINUOUS
  0
LAYER
  2
207
 70
     0
 62
     2
  6
CONTINUOUS
  0
LAYER
  2
208
 70
     0
 62
     5
  6
CONTINUOUS
  0
LAYER
  2
210
 70
     0
 62
    15
  6
ESTILO_TQS_0002
  0
LAYER
  2
211
 70
     0
 62
     7
  6
ESTILO_TQS_0001
  0
LAYER
  2
214
 70
     0
 62
    15
  6
CONTINUOUS
  0
LAYER
  2
215
 70
     0
 62
     2
  6
CONTINUOUS
  0
LAYER
  2
216
 70
     0
 62
     3
  6
CONTINUOUS
  0
LAYER
  2
217
 70
     0
 62
     3
  6
CONTINUOUS
  0
LAYER
  2
218
 70
     0
 62
     2
  6
CONTINUOUS
  0
LAYER
  2
219
 70
     0
 62
    15
  6
CONTINUOUS
  0
LAYER
  2
220
 70
     0
 62
    10
  6
CONTINUOUS
  0
LAYER
  2
221
 70
     0
 62
    11
  6
CONTINUOUS
  0
LAYER
  2
222
 70
     0
 62
    12
  6
CONTINUOUS
  0
LAYER
  2
223
 70
     0
 62
     6
  6
CONTINUOUS
  0
LAYER
  2
224
 70
     0
 62
     1
  6
CONTINUOUS
  0
LAYER
  2
225
 70
     0
 62
    15
  6
CONTINUOUS
  0
LAYER
  2
226
 70
     0
 62
     2
  6
CONTINUOUS
  0
LAYER
  2
227
 70
     0
 62
    10
  6
CONTINUOUS
  0
LAYER
  2
228
 70
     0
 62
    11
  6
CONTINUOUS
  0
LAYER
  2
229
 70
     0
 62
    12
  6
CONTINUOUS
  0
LAYER
  2
230
 70
     0
 62
     6
  6
CONTINUOUS
  0
LAYER
  2
231
 70
     0
 62
     3
  6
CONTINUOUS
  0
LAYER
  2
232
 70
     0
 62
    12
  6
CONTINUOUS
  0
LAYER
  2
233
 70
     0
 62
     4
  6
CONTINUOUS
  0
LAYER
  2
234
 70
     0
 62
    13
  6
CONTINUOUS
  0
LAYER
  2
235
 70
     0
 62
     5
  6
CONTINUOUS
  0
LAYER
  2
236
 70
     0
 62
     2
  6
CONTINUOUS
  0
LAYER
  2
237
 70
     0
 62
     6
  6
CONTINUOUS
  0
LAYER
  2
238
 70
     0
 62
    12
  6
CONTINUOUS
  0
LAYER
  2
239
 70
     0
 62
    11
  6
CONTINUOUS
  0
LAYER
  2
240
 70
     0
 62
    11
  6
CONTINUOUS
  0
LAYER
  2
241
 70
     0
 62
    12
  6
CONTINUOUS
  0
ENDTAB
  0
TABLE
  2
STYLE
 70
     1
  0
STYLE
  2
STANDARD
 70
    64
 40
0.000000
 41
1.000000
 50
0.000000
 71
     0
 42
0.200000
  3
ROMANS.SHX
  4

  0
STYLE
  2
TQS_CALIBRI
 70
     0
 40
0.000000
 41
1.000000
 50
0.000000
 71
     0
 42
0.200000
  3
calibri.ttf
  0
STYLE
  2
TQS_CALIBRI_U
 70
     0
 40
0.000000
 41
1.000000
 50
0.000000
 71
     0
 42
0.200000
  3
calibri.ttf
  0
STYLE
  2
TQS_CALIBRI_I
 70
     0
 40
0.000000
 41
1.000000
 50
0.000000
 71
     0
 42
0.200000
  3
calibri.ttf
  0
STYLE
  2
TQS_CALIBRI_I_U
 70
     0
 40
0.000000
 41
1.000000
 50
0.000000
 71
     0
 42
0.200000
  3
calibri.ttf
  0
STYLE
  2
TQS_CALIBRI_B
 70
     0
 40
0.000000
 41
1.000000
 50
0.000000
 71
     0
 42
0.200000
  3
calibri.ttf
  0
STYLE
  2
TQS_CALIBRI_B_U
 70
     0
 40
0.000000
 41
1.000000
 50
0.000000
 71
     0
 42
0.200000
  3
calibri.ttf
  0
STYLE
  2
TQS_CALIBRI_B_I
 70
     0
 40
0.000000
 41
1.000000
 50
0.000000
 71
     0
 42
0.200000
  3
calibri.ttf
  0
STYLE
  2
TQS_CALIBRI_B_I_U
 70
     0
 40
0.000000
 41
1.000000
 50
0.000000
 71
     0
 42
0.200000
  3
calibri.ttf
  0
ENDTAB
  0
TABLE
  2
VIEW
 70
     0
  0
ENDTAB
  0
ENDSEC
  0
SECTION
  2
BLOCKS
  0
BLOCK
  8
0
  2
_PLWTQS
 70
    64
 10
0.000000
 20
0.000000
  0
TEXT
  8
0
  6
CONTINUOUS
 10
0.000000
 20
0.000000
 40
0.200000
  1
$PLWDWGGlBMVwAAAAAAAChABAAAABMAwISWV6Am2UD57H74XzCmYqnB4nABNzeHGSE2Y9eBopr2LDW5hB8wrn89lFrVFNvLkJyw7RQx5k923iyCwj7NBTalU42kEprxAqvQggohxlyarK1ohTfftwZPGyZpnE+l7jj4ubLJpiQIgQo4/BY=
  7
TQS_CALIBRI
  0
TEXT
  8
0
  6
CONTINUOUS
 10
0.000000
 20
-0.250000
 40
0.200000
  1
$PLWDWGrjlbB8m+MxMKRRYDWUve2Y2SjpLhb93E8IwfP05PGutEH3RCYke9HAClt4CkBGjlDEpVIy9CD4L6gtmYh8dGE8SojuWAt0+RSHMQVWuGTZBaZjeztYZ4ZH5af03GWeewztXdaAiLouqRI/oWOjCobCHGF2unB2pjWU1yUjPSKcI=
  7
TQS_CALIBRI
  0
TEXT
  8
0
  6
CONTINUOUS
 10
0.000000
 20
-0.500000
 40
0.200000
  1
$PLWDWGEX+tEGJ2spqvnwy/WAc+HslXW1wjO0UQpUKP2+mXZKe/5sRlYsgJxUfv/RucPauPSYZi0lS+SHv9fIgcgYeZtJK6L//mhaOs6yFJ8FbA3yIWJ2ze0EYGpBg16LZ2V249lM+fD5fPIn2X2p6vJxBgcD3aZHYZD+bb7M5kVRVFy3w=
  7
TQS_CALIBRI
  0
TEXT
  8
0
  6
CONTINUOUS
 10
0.000000
 20
-0.750000
 40
0.200000
  1
$PLWDWGMvKspsZqPQW7qSf5MvZzMIn35ImAL5rNWp/aSC825SZOpycuGHPqJQKB9MGq8ZxIWq/8hZFSe6aHVINNEqeEm/+H9rK+emXOs1R7mLivi1MGM3vUVOIaqr9T9heEzRk+xBOPUQZ7UVCS9BFtH+QxWUgfCvP1VJmABlwa5NBWoBU=
  7
TQS_CALIBRI
  0
TEXT
  8
0
  6
CONTINUOUS
 10
0.000000
 20
-1.000000
 40
0.200000
  1
$PLWDWGd17BqBOp0M6ePBB3Qj6RHaCmPRA2UIuhLE09rPUKFHCa3MwKmMSPIIZiI6MQgw88Q/jJarg7R/cRs2WX2qH1WibS8DeeL8MDx/vgzLtJtA0efYgS/gTvaogNa30fja2dl6qKgA1pdn0AAwthZTgE5JbbL1u6i92ObqxX/rI6UoY=
  7
TQS_CALIBRI
  0
TEXT
  8
0
  6
CONTINUOUS
 10
0.000000
 20
-1.250000
 40
0.200000
  1
$PLWDWGFPobyba72J9r7TeS3tC322TLOFZPcazjJ3ve1p1CyRZln/rJVVXwFFMSrdu5KigJZTUuaMNKnQt3BbBzGllCoXP3GiUEcTuVzpyL8wWmQRv67a19rqFocybnRJfnTUpwuK56ojw6rbYv4l3qPpsDNZXmF49C01wobNl3kMHeyMA=
  7
TQS_CALIBRI
  0
TEXT
  8
0
  6
CONTINUOUS
 10
0.000000
 20
-1.500000
 40
0.200000
  1
$PLWDWGOCHKKYuJiqaa71ZB1uEzTwMCZHlryE/jrC8eVjEFlUn40fADzGErW8uHdLgpO3m7Lm+hoJmlzyoBKXNGnmt5r/UdYT7bOtp2Tj/3Ivz2Hm+CUGrQt8X8doAHrV4ukrV/VbucTq0pbTLpMmoAqraxmMEVCpAQTHSqpD7XRy2QAYQ=
  7
TQS_CALIBRI
  0
TEXT
  8
0
  6
CONTINUOUS
 10
0.000000
 20
-1.750000
 40
0.200000
  1
$PLWDWGuGoQkQI8VIDKKluFZt+TnPXjhU8OhTWh3azHzOGhjRT5kE8aSoaLoRWILRPTWKFQmsHNUkysCTcAAAAA0/4jg41zXF4i0/cvDpLlf5rBzVJMrAk3AAAAAA==
  7
TQS_CALIBRI
  0
ENDBLK
  8
0
  0
ENDSEC
  0
SECTION
  2
ENTITIES
  0
SOLID
  8
13
  6
CONTINUOUS
 10
102.095046
 20
10.244446
 11
102.095046
 21
9.498246
 12
101.971546
 22
9.498246
 13
101.971546
 23
9.498246
  0
SOLID
  8
13
  6
CONTINUOUS
 10
102.095046
 20
10.244446
 11
101.971546
 21
9.498246
 12
101.971546
 22
11.162246
 13
101.971546
 23
11.162246
  0
SOLID
  8
13
  6
CONTINUOUS
 10
102.095046
 20
10.244446
 11
101.971546
 21
11.162246
 12
102.095046
 22
11.162246
 13
102.095046
 23
11.162246
  0
SOLID
  8
13
  6
CONTINUOUS
 10
102.095046
 20
10.244446
 11
102.095046
 21
11.162246
 12
102.095046
 22
10.244446
 13
102.095046
 23
10.244446
  0
SOLID
  8
13
  6
CONTINUOUS
 10
102.522746
 20
10.230979
 11
102.522746
 21
9.498246
 12
102.095046
 22
9.498246
 13
102.095046
 23
9.498246
  0
SOLID
  8
13
  6
CONTINUOUS
 10
102.522746
 20
10.230979
 11
102.095046
 21
9.498246
 12
102.095046
 22
10.244446
 13
102.095046
 23
10.244446
  0
SOLID
  8
13
  6
CONTINUOUS
 10
102.522746
 20
10.230979
 11
102.095046
 21
10.244446
 12
102.143544
 22
10.248642
 13
102.143544
 23
10.248642
  0
SOLID
  8
13
  6
CONTINUOUS
 10
102.522746
 20
10.230979
 11
102.143544
 21
10.248642
 12
102.211078
 22
10.252071
 13
102.211078
 23
10.252071
  0
SOLID
  8
13
  6
CONTINUOUS
 10
102.522746
 20
10.230979
 11
102.211078
 21
10.252071
 12
102.259959
 22
10.252484
 13
102.259959
 23
10.252484
  0
SOLID
  8
13
  6
CONTINUOUS
 10
102.522746
 20
10.230979
 11
102.259959
 21
10.252484
 12
102.290321
 22
10.252141
 13
102.290321
 23
10.252141
  0
SOLID
  8
13
  6
CONTINUOUS
 10
102.522746
 20
10.230979
 11
102.290321
 21
10.252141
 12
102.334203
 22
10.250668
 13
102.334203
 23
10.250668
  0
SOLID
  8
13
  6
CONTINUOUS
 10
102.522746
 20
10.230979
 11
102.334203
 21
10.250668
 12
102.394518
 22
10.246747
 13
102.394518
 23
10.246747
  0
SOLID
  8
13
  6
CONTINUOUS
 10
102.522746
 20
10.230979
 11
102.394518
 21
10.246747
 12
102.446340
 22
10.241621
 13
102.446340
 23
10.241621
  0
SOLID
  8
13
  6
CONTINUOUS
 10
102.522746
 20
10.230979
 11
102.446340
 21
10.241621
 12
102.490083
 22
10.235974
 13
102.490083
 23
10.235974
  0
SOLID
  8
13
  6
CONTINUOUS
 10
102.522746
 20
10.230979
 11
102.490083
 21
10.235974
 12
102.522746
 22
10.230979
 13
102.522746
 23
10.230979
  0
SOLID
  8
13
  6
CONTINUOUS
 10
102.594246
 20
10.217654
 11
102.594246
 21
9.498246
 12
103.021946
 22
9.498246
 13
103.021946
 23
9.498246
  0
SOLID
  8
13
  6
CONTINUOUS
 10
102.594246
 20
10.217654
 11
103.021946
 21
9.498246
 12
103.021946
 22
10.064184
 13
103.021946
 23
10.064184
  0
SOLID
  8
13
  6
CONTINUOUS
 10
102.594246
 20
10.217654
 11
103.021946
 21
10.064184
 12
103.003898
 22
10.073542
 13
103.003898
 23
10.073542
  0
SOLID
  8
13
  6
CONTINUOUS
 10
102.594246
 20
10.217654
 11
103.003898
 21
10.073542
 12
102.981716
 22
10.084501
 13
102.981716
 23
10.084501
  0
SOLID
  8
13
  6
CONTINUOUS
 10
102.594246
 20
10.217654
 11
102.981716
 21
10.084501
 12
102.953307
 22
10.098271
 13
102.953307
 23
10.098271
  0
SOLID
  8
13
  6
CONTINUOUS
 10
102.594246
 20
10.217654
 11
102.953307
 21
10.098271
 12
102.912865
 22
10.116383
 13
102.912865
 23
10.116383
  0
SOLID
  8
13
  6
CONTINUOUS
 10
102.594246
 20
10.217654
 11
102.912865
 21
10.116383
 12
102.885024
 22
10.128001
 13
102.885024
 23
10.128001
  0
SOLID
  8
13
  6
CONTINUOUS
 10
102.594246
 20
10.217654
 11
102.885024
 21
10.128001
 12
102.844071
 22
10.144755
 13
102.844071
 23
10.144755
  0
SOLID
  8
13
  6
CONTINUOUS
 10
102.594246
 20
10.217654
 11
102.844071
 21
10.144755
 12
102.813490
 22
10.155923
 13
102.813490
 23
10.155923
  0
SOLID
  8
13
  6
CONTINUOUS
 10
102.594246
 20
10.217654
 11
102.813490
 21
10.155923
 12
102.778388
 22
10.168156
 13
102.778388
 23
10.168156
  0
SOLID
  8
13
  6
CONTINUOUS
 10
102.594246
 20
10.217654
 11
102.778388
 21
10.168156
 12
102.744083
 22
10.178793
 13
102.744083
 23
10.178793
  0
SOLID
  8
13
  6
CONTINUOUS
 10
102.594246
 20
10.217654
 11
102.744083
 21
10.178793
 12
102.703465
 22
10.191172
 13
102.703465
 23
10.191172
  0
SOLID
  8
13
  6
CONTINUOUS
 10
102.594246
 20
10.217654
 11
102.703465
 21
10.191172
 12
102.665141
 22
10.201162
 13
102.665141
 23
10.201162
  0
SOLID
  8
13
  6
CONTINUOUS
 10
102.594246
 20
10.217654
 11
102.665141
 21
10.201162
 12
102.624819
 22
10.210970
 13
102.624819
 23
10.210970
  0
SOLID
  8
13
  6
CONTINUOUS
 10
102.594246
 20
10.217654
 11
102.624819
 21
10.210970
 12
102.594246
 22
10.217654
 13
102.594246
 23
10.217654
  0
SOLID
  8
13
  6
CONTINUOUS
 10
103.093446
 20
10.024343
 11
103.093446
 21
9.498246
 12
103.521146
 22
9.498246
 13
103.521146
 23
9.498246
  0
SOLID
  8
13
  6
CONTINUOUS
 10
103.093446
 20
10.024343
 11
103.521146
 21
9.498246
 12
103.521146
 22
9.661030
 13
103.521146
 23
9.661030
  0
SOLID
  8
13
  6
CONTINUOUS
 10
103.093446
 20
10.024343
 11
103.521146
 21
9.661030
 12
103.507797
 22
9.676793
 13
103.507797
 23
9.676793
  0
SOLID
  8
13
  6
CONTINUOUS
 10
103.093446
 20
10.024343
 11
103.507797
 21
9.676793
 12
103.495964
 22
9.690528
 13
103.495964
 23
9.690528
  0
SOLID
  8
13
  6
CONTINUOUS
 10
103.093446
 20
10.024343
 11
103.495964
 21
9.690528
 12
103.473877
 22
9.715277
 13
103.473877
 23
9.715277
  0
SOLID
  8
13
  6
CONTINUOUS
 10
103.093446
 20
10.024343
 11
103.473877
 21
9.715277
 12
103.454164
 22
9.736530
 13
103.454164
 23
9.736530
  0
SOLID
  8
13
  6
CONTINUOUS
 10
103.093446
 20
10.024343
 11
103.454164
 21
9.736530
 12
103.434048
 22
9.757502
 13
103.434048
 23
9.757502
  0
SOLID
  8
13
  6
CONTINUOUS
 10
103.093446
 20
10.024343
 11
103.434048
 21
9.757502
 12
103.410015
 22
9.781535
 13
103.410015
 23
9.781535
  0
SOLID
  8
13
  6
CONTINUOUS
 10
103.093446
 20
10.024343
 11
103.410015
 21
9.781535
 12
103.399294
 22
9.791943
 13
103.399294
 23
9.791943
  0
SOLID
  8
13
  6
CONTINUOUS
 10
103.093446
 20
10.024343
 11
103.399294
 21
9.791943
 12
103.388429
 22
9.802406
 13
103.388429
 23
9.802406
  0
SOLID
  8
13
  6
CONTINUOUS
 10
103.093446
 20
10.024343
 11
103.388429
 21
9.802406
 12
103.359952
 22
9.828752
 13
103.359952
 23
9.828752
  0
SOLID
  8
13
  6
CONTINUOUS
 10
103.093446
 20
10.024343
 11
103.359952
 21
9.828752
 12
103.325139
 22
9.859181
 13
103.325139
 23
9.859181
  0
SOLID
  8
13
  6
CONTINUOUS
 10
103.093446
 20
10.024343
 11
103.325139
 21
9.859181
 12
103.286846
 22
9.890826
 13
103.286846
 23
9.890826
  0
SOLID
  8
13
  6
CONTINUOUS
 10
103.093446
 20
10.024343
 11
103.286846
 21
9.890826
 12
103.251036
 22
9.918745
 13
103.251036
 23
9.918745
  0
SOLID
  8
13
  6
CONTINUOUS
 10
103.093446
 20
10.024343
 11
103.251036
 21
9.918745
 12
103.200839
 22
9.955427
 13
103.200839
 23
9.955427
  0
SOLID
  8
13
  6
CONTINUOUS
 10
103.093446
 20
10.024343
 11
103.200839
 21
9.955427
 12
103.134352
 22
9.999676
 13
103.134352
 23
9.999676
  0
SOLID
  8
13
  6
CONTINUOUS
 10
103.093446
 20
10.024343
 11
103.134352
 21
9.999676
 12
103.093446
 22
10.024343
 13
103.093446
 23
10.024343
  0
SOLID
  8
13
  6
CONTINUOUS
 10
102.522746
 20
10.635283
 11
102.522746
 21
11.162246
 12
102.095046
 22
11.162246
 13
102.095046
 23
11.162246
  0
SOLID
  8
13
  6
CONTINUOUS
 10
102.522746
 20
10.635283
 11
102.095046
 21
11.162246
 12
102.095046
 22
10.995122
 13
102.095046
 23
10.995122
  0
SOLID
  8
13
  6
CONTINUOUS
 10
102.522746
 20
10.635283
 11
102.095046
 21
10.995122
 12
102.153689
 22
10.929235
 13
102.153689
 23
10.929235
  0
SOLID
  8
13
  6
CONTINUOUS
 10
102.522746
 20
10.635283
 11
102.153689
 21
10.929235
 12
102.237359
 22
10.846559
 13
102.237359
 23
10.846559
  0
SOLID
  8
13
  6
CONTINUOUS
 10
102.522746
 20
10.635283
 11
102.237359
 21
10.846559
 12
102.308389
 22
10.784730
 13
102.308389
 23
10.784730
  0
SOLID
  8
13
  6
CONTINUOUS
 10
102.522746
 20
10.635283
 11
102.308389
 21
10.784730
 12
102.366624
 22
10.739274
 13
102.366624
 23
10.739274
  0
SOLID
  8
13
  6
CONTINUOUS
 10
102.522746
 20
10.635283
 11
102.366624
 21
10.739274
 12
102.406322
 22
10.710064
 13
102.406322
 23
10.710064
  0
SOLID
  8
13
  6
CONTINUOUS
 10
102.522746
 20
10.635283
 11
102.406322
 21
10.710064
 12
102.455827
 22
10.676682
 13
102.455827
 23
10.676682
  0
SOLID
  8
13
  6
CONTINUOUS
 10
102.522746
 20
10.635283
 11
102.455827
 21
10.676682
 12
102.493954
 22
10.652515
 13
102.493954
 23
10.652515
  0
SOLID
  8
13
  6
CONTINUOUS
 10
102.522746
 20
10.635283
 11
102.493954
 21
10.652515
 12
102.522746
 22
10.635283
 13
102.522746
 23
10.635283
  0
SOLID
  8
13
  6
CONTINUOUS
 10
103.021946
 20
10.443678
 11
103.021946
 21
11.162246
 12
102.594246
 22
11.162246
 13
102.594246
 23
11.162246
  0
SOLID
  8
13
  6
CONTINUOUS
 10
103.021946
 20
10.443678
 11
102.594246
 21
11.162246
 12
102.594246
 22
10.595859
 13
102.594246
 23
10.595859
  0
SOLID
  8
13
  6
CONTINUOUS
 10
103.021946
 20
10.443678
 11
102.594246
 21
10.595859
 12
102.663800
 22
10.561766
 13
102.663800
 23
10.561766
  0
SOLID
  8
13
  6
CONTINUOUS
 10
103.021946
 20
10.443678
 11
102.663800
 21
10.561766
 12
102.744359
 22
10.527375
 13
102.744359
 23
10.527375
  0
SOLID
  8
13
  6
CONTINUOUS
 10
103.021946
 20
10.443678
 11
102.744359
 21
10.527375
 12
102.812197
 22
10.501464
 13
102.812197
 23
10.501464
  0
SOLID
  8
13
  6
CONTINUOUS
 10
103.021946
 20
10.443678
 11
102.812197
 21
10.501464
 12
102.889458
 22
10.476967
 13
102.889458
 23
10.476967
  0
SOLID
  8
13
  6
CONTINUOUS
 10
103.021946
 20
10.443678
 11
102.889458
 21
10.476967
 12
102.950702
 22
10.460007
 13
102.950702
 23
10.460007
  0
SOLID
  8
13
  6
CONTINUOUS
 10
103.021946
 20
10.443678
 11
102.950702
 21
10.460007
 12
103.021946
 22
10.443678
 13
103.021946
 23
10.443678
  0
SOLID
  8
13
  6
CONTINUOUS
 10
103.093446
 20
10.430307
 11
103.093446
 21
11.162246
 12
103.521146
 22
11.162246
 13
103.521146
 23
11.162246
  0
SOLID
  8
13
  6
CONTINUOUS
 10
103.093446
 20
10.430307
 11
103.521146
 21
11.162246
 12
103.521146
 22
10.417580
 13
103.521146
 23
10.417580
  0
SOLID
  8
13
  6
CONTINUOUS
 10
103.093446
 20
10.430307
 11
103.521146
 21
10.417580
 12
103.476372
 22
10.413637
 13
103.476372
 23
10.413637
  0
SOLID
  8
13
  6
CONTINUOUS
 10
103.093446
 20
10.430307
 11
103.476372
 21
10.413637
 12
103.416577
 22
10.410480
 13
103.416577
 23
10.410480
  0
SOLID
  8
13
  6
CONTINUOUS
 10
103.093446
 20
10.430307
 11
103.416577
 21
10.410480
 12
103.366788
 22
10.409453
 13
103.366788
 23
10.409453
  0
SOLID
  8
13
  6
CONTINUOUS
 10
103.093446
 20
10.430307
 11
103.366788
 21
10.409453
 12
103.336830
 22
10.409453
 13
103.336830
 23
10.409453
  0
SOLID
  8
13
  6
CONTINUOUS
 10
103.093446
 20
10.430307
 11
103.336830
 21
10.409453
 12
103.286182
 22
10.410821
 13
103.286182
 23
10.410821
  0
SOLID
  8
13
  6
CONTINUOUS
 10
103.093446
 20
10.430307
 11
103.286182
 21
10.410821
 12
103.241261
 22
10.413321
 13
103.241261
 23
10.413321
  0
SOLID
  8
13
  6
CONTINUOUS
 10
103.093446
 20
10.430307
 11
103.241261
 21
10.413321
 12
103.205545
 22
10.416539
 13
103.205545
 23
10.416539
  0
SOLID
  8
13
  6
CONTINUOUS
 10
103.093446
 20
10.430307
 11
103.205545
 21
10.416539
 12
103.155349
 22
10.421044
 13
103.155349
 23
10.421044
  0
SOLID
  8
13
  6
CONTINUOUS
 10
103.093446
 20
10.430307
 11
103.155349
 21
10.421044
 12
103.093446
 22
10.430307
 13
103.093446
 23
10.430307
  0
SOLID
  8
13
  6
CONTINUOUS
 10
102.594246
 20
9.498246
 11
102.594246
 21
11.162246
 12
102.522746
 22
11.162246
 13
102.522746
 23
11.162246
  0
SOLID
  8
13
  6
CONTINUOUS
 10
102.594246
 20
9.498246
 11
102.522746
 21
11.162246
 12
102.522746
 22
9.498246
 13
102.522746
 23
9.498246
  0
SOLID
  8
13
  6
CONTINUOUS
 10
102.594246
 20
9.498246
 11
102.522746
 21
9.498246
 12
102.522746
 22
9.498246
 13
102.522746
 23
9.498246
  0
SOLID
  8
13
  6
CONTINUOUS
 10
103.021946
 20
11.162246
 11
103.093446
 21
11.162246
 12
103.093446
 22
9.498246
 13
103.093446
 23
9.498246
  0
SOLID
  8
13
  6
CONTINUOUS
 10
103.021946
 20
11.162246
 11
103.093446
 21
9.498246
 12
103.021946
 22
9.498246
 13
103.021946
 23
9.498246
  0
SOLID
  8
13
  6
CONTINUOUS
 10
103.021946
 20
11.162246
 11
103.021946
 21
9.498246
 12
103.021946
 22
11.162246
 13
103.021946
 23
11.162246
  0
SOLID
  8
13
  6
CONTINUOUS
 10
103.521146
 20
9.498246
 11
103.635546
 21
9.498246
 12
103.635546
 22
11.162246
 13
103.635546
 23
11.162246
  0
SOLID
  8
13
  6
CONTINUOUS
 10
103.521146
 20
9.498246
 11
103.635546
 21
11.162246
 12
103.521146
 22
11.162246
 13
103.521146
 23
11.162246
  0
SOLID
  8
13
  6
CONTINUOUS
 10
103.521146
 20
9.498246
 11
103.521146
 21
11.162246
 12
103.521146
 22
9.498246
 13
103.521146
 23
9.498246
  0
LINE
  8
1
  6
CONTINUOUS
 10
25.038160
 20
66.812940
 11
44.461888
 21
66.812940
  0
LINE
  8
1
  6
CONTINUOUS
 10
25.038160
 20
66.812940
 11
25.038160
 21
65.812940
  0
LINE
  8
1
  6
CONTINUOUS
 10
25.038160
 20
65.812940
 11
41.327440
 21
65.812940
  0
LINE
  8
1
  6
CONTINUOUS
 10
25.038160
 20
65.812940
 11
25.038160
 21
64.812940
  0
LINE
  8
1
  6
CONTINUOUS
 10
27.527276
 20
65.812940
 11
27.527276
 21
64.812940
  0
LINE
  8
1
  6
CONTINUOUS
 10
29.664989
 20
65.812940
 11
29.664989
 21
64.812940
  0
LINE
  8
1
  6
CONTINUOUS
 10
31.040356
 20
65.812940
 11
31.040356
 21
64.812940
  0
LINE
  8
1
  6
CONTINUOUS
 10
35.204869
 20
65.312940
 11
35.204869
 21
64.812940
  0
LINE
  8
1
  6
CONTINUOUS
 10
38.192992
 20
65.812940
 11
38.192992
 21
64.812940
  0
LINE
  8
1
  6
CONTINUOUS
 10
39.237807
 20
65.312940
 11
39.237808
 21
64.812940
  0
LINE
  8
1
  6
CONTINUOUS
 10
40.282624
 20
65.312940
 11
40.282624
 21
64.812940
  0
LINE
  8
1
  6
CONTINUOUS
 10
41.327440
 20
65.812940
 11
41.327440
 21
64.812940
  0
LINE
  8
1
  6
CONTINUOUS
 10
25.038160
 20
64.812940
 11
44.461888
 21
64.812940
  0
LINE
  8
1
  6
CONTINUOUS
 10
31.040356
 20
65.312940
 11
35.204869
 21
65.312940
  0
LINE
  8
1
  6
CONTINUOUS
 10
35.204869
 20
65.312940
 11
38.192992
 21
65.312940
  0
LINE
  8
1
  6
CONTINUOUS
 10
38.192992
 20
65.312940
 11
39.237808
 21
65.312940
  0
LINE
  8
1
  6
CONTINUOUS
 10
39.237808
 20
65.312940
 11
40.282624
 21
65.312940
  0
LINE
  8
1
  6
CONTINUOUS
 10
40.282624
 20
65.312940
 11
44.461888
 21
65.312940
  0
LINE
  8
1
  6
CONTINUOUS
 10
44.461888
 20
64.812940
 11
44.461888
 21
66.812940
  0
LINE
  8
1
  6
CONTINUOUS
 10
42.894664
 20
65.312940
 11
42.894664
 21
64.812940
  0
LINE
  8
1
  6
CONTINUOUS
 10
41.327440
 20
65.812940
 11
44.461888
 21
65.812940
  0
LINE
  8
1
  6
CONTINUOUS
 10
25.038160
 20
64.812940
 11
25.038160
 21
64.312939
  0
LINE
  8
1
  6
CONTINUOUS
 10
25.038160
 20
64.312939
 11
44.461888
 21
64.312939
  0
LINE
  8
1
  6
CONTINUOUS
 10
27.527276
 20
64.812940
 11
27.527276
 21
64.312939
  0
LINE
  8
1
  6
CONTINUOUS
 10
29.664989
 20
64.812940
 11
29.664989
 21
64.312939
  0
LINE
  8
1
  6
CONTINUOUS
 10
31.040356
 20
64.812940
 11
31.040356
 21
64.312939
  0
LINE
  8
1
  6
CONTINUOUS
 10
35.204869
 20
64.812940
 11
35.204869
 21
64.312939
  0
LINE
  8
1
  6
CONTINUOUS
 10
38.192992
 20
64.812940
 11
38.192992
 21
64.312939
  0
LINE
  8
1
  6
CONTINUOUS
 10
39.237808
 20
64.812940
 11
39.237808
 21
64.312939
  0
LINE
  8
1
  6
CONTINUOUS
 10
40.282624
 20
64.812940
 11
40.282624
 21
64.312939
  0
LINE
  8
1
  6
CONTINUOUS
 10
41.327440
 20
64.812940
 11
41.327440
 21
64.312939
  0
LINE
  8
1
  6
CONTINUOUS
 10
41.327440
 20
64.312939
 11
41.327440
 21
64.812940
  0
LINE
  8
1
  6
CONTINUOUS
 10
41.327440
 20
64.812940
 11
41.327440
 21
64.312939
  0
LINE
  8
1
  6
CONTINUOUS
 10
42.894664
 20
64.812940
 11
42.894664
 21
64.312939
  0
LINE
  8
1
  6
CONTINUOUS
 10
44.461888
 20
64.812940
 11
44.461888
 21
64.312939
  0
LINE
  8
1
  6
CONTINUOUS
 10
25.038160
 20
64.312939
 11
25.038160
 21
63.812939
  0
LINE
  8
1
  6
CONTINUOUS
 10
25.038160
 20
63.812939
 11
44.461888
 21
63.812939
  0
LINE
  8
1
  6
CONTINUOUS
 10
27.527276
 20
64.312939
 11
27.527276
 21
63.812939
  0
LINE
  8
1
  6
CONTINUOUS
 10
29.664989
 20
64.312939
 11
29.664989
 21
63.812939
  0
LINE
  8
1
  6
CONTINUOUS
 10
31.040356
 20
64.312939
 11
31.040356
 21
63.812939
  0
LINE
  8
1
  6
CONTINUOUS
 10
35.204869
 20
64.312939
 11
35.204869
 21
63.812939
  0
LINE
  8
1
  6
CONTINUOUS
 10
38.192992
 20
64.312939
 11
38.192992
 21
63.812939
  0
LINE
  8
1
  6
CONTINUOUS
 10
39.237808
 20
64.312939
 11
39.237808
 21
63.812939
  0
LINE
  8
1
  6
CONTINUOUS
 10
40.282624
 20
64.312939
 11
40.282624
 21
63.812939
  0
LINE
  8
1
  6
CONTINUOUS
 10
41.327440
 20
64.312939
 11
41.327440
 21
63.812939
  0
LINE
  8
1
  6
CONTINUOUS
 10
41.327440
 20
63.812939
 11
41.327440
 21
64.312939
  0
LINE
  8
1
  6
CONTINUOUS
 10
41.327440
 20
64.312939
 11
41.327440
 21
63.812939
  0
LINE
  8
1
  6
CONTINUOUS
 10
42.894664
 20
64.312939
 11
42.894664
 21
63.812939
  0
LINE
  8
1
  6
CONTINUOUS
 10
44.461888
 20
64.312939
 11
44.461888
 21
63.812939
  0
LINE
  8
1
  6
CONTINUOUS
 10
25.038160
 20
63.812938
 11
25.038160
 21
63.312938
  0
LINE
  8
1
  6
CONTINUOUS
 10
25.038160
 20
63.312938
 11
44.461888
 21
63.312938
  0
LINE
  8
1
  6
CONTINUOUS
 10
27.527276
 20
63.812938
 11
27.527276
 21
63.312938
  0
LINE
  8
1
  6
CONTINUOUS
 10
29.664989
 20
63.812938
 11
29.664989
 21
63.312938
  0
LINE
  8
1
  6
CONTINUOUS
 10
31.040356
 20
63.812938
 11
31.040356
 21
63.312938
  0
LINE
  8
1
  6
CONTINUOUS
 10
35.204869
 20
63.812938
 11
35.204869
 21
63.312938
  0
LINE
  8
1
  6
CONTINUOUS
 10
38.192992
 20
63.812938
 11
38.192992
 21
63.312938
  0
LINE
  8
1
  6
CONTINUOUS
 10
39.237808
 20
63.812938
 11
39.237808
 21
63.312938
  0
LINE
  8
1
  6
CONTINUOUS
 10
40.282624
 20
63.812938
 11
40.282624
 21
63.312938
  0
LINE
  8
1
  6
CONTINUOUS
 10
41.327440
 20
63.812938
 11
41.327440
 21
63.312938
  0
LINE
  8
1
  6
CONTINUOUS
 10
41.327440
 20
63.312938
 11
41.327440
 21
63.812938
  0
LINE
  8
1
  6
CONTINUOUS
 10
41.327440
 20
63.812939
 11
41.327440
 21
63.312938
  0
LINE
  8
1
  6
CONTINUOUS
 10
42.894664
 20
63.812938
 11
42.894664
 21
63.312938
  0
LINE
  8
1
  6
CONTINUOUS
 10
44.461888
 20
63.812938
 11
44.461888
 21
63.312938
  0
LINE
  8
1
  6
CONTINUOUS
 10
25.038160
 20
63.312937
 11
25.038160
 21
62.812937
  0
LINE
  8
1
  6
CONTINUOUS
 10
25.038160
 20
62.812937
 11
44.461888
 21
62.812937
  0
LINE
  8
1
  6
CONTINUOUS
 10
27.527276
 20
63.312937
 11
27.527276
 21
62.812937
  0
LINE
  8
1
  6
CONTINUOUS
 10
29.664989
 20
63.312937
 11
29.664989
 21
62.812937
  0
LINE
  8
1
  6
CONTINUOUS
 10
31.040356
 20
63.312937
 11
31.040356
 21
62.812937
  0
LINE
  8
1
  6
CONTINUOUS
 10
35.204869
 20
63.312937
 11
35.204869
 21
62.812937
  0
LINE
  8
1
  6
CONTINUOUS
 10
38.192992
 20
63.312937
 11
38.192992
 21
62.812937
  0
LINE
  8
1
  6
CONTINUOUS
 10
39.237808
 20
63.312937
 11
39.237808
 21
62.812937
  0
LINE
  8
1
  6
CONTINUOUS
 10
40.282624
 20
63.312937
 11
40.282624
 21
62.812937
  0
LINE
  8
1
  6
CONTINUOUS
 10
41.327440
 20
63.312937
 11
41.327440
 21
62.812937
  0
LINE
  8
1
  6
CONTINUOUS
 10
41.327440
 20
62.812937
 11
41.327440
 21
63.312937
  0
LINE
  8
1
  6
CONTINUOUS
 10
41.327440
 20
63.312938
 11
41.327440
 21
62.812937
  0
LINE
  8
1
  6
CONTINUOUS
 10
42.894664
 20
63.312937
 11
42.894664
 21
62.812937
  0
LINE
  8
1
  6
CONTINUOUS
 10
44.461888
 20
63.312937
 11
44.461888
 21
62.812937
  0
LINE
  8
1
  6
CONTINUOUS
 10
25.038160
 20
62.812937
 11
25.038160
 21
62.312937
  0
LINE
  8
1
  6
CONTINUOUS
 10
25.038160
 20
62.312937
 11
44.461888
 21
62.312937
  0
LINE
  8
1
  6
CONTINUOUS
 10
27.527276
 20
62.812937
 11
27.527276
 21
62.312937
  0
LINE
  8
1
  6
CONTINUOUS
 10
29.664989
 20
62.812937
 11
29.664989
 21
62.312937
  0
LINE
  8
1
  6
CONTINUOUS
 10
31.040356
 20
62.812937
 11
31.040356
 21
62.312937
  0
LINE
  8
1
  6
CONTINUOUS
 10
35.204869
 20
62.812937
 11
35.204869
 21
62.312937
  0
LINE
  8
1
  6
CONTINUOUS
 10
38.192992
 20
62.812937
 11
38.192992
 21
62.312937
  0
LINE
  8
1
  6
CONTINUOUS
 10
39.237808
 20
62.812937
 11
39.237808
 21
62.312937
  0
LINE
  8
1
  6
CONTINUOUS
 10
40.282624
 20
62.812937
 11
40.282624
 21
62.312937
  0
LINE
  8
1
  6
CONTINUOUS
 10
41.327440
 20
62.812937
 11
41.327440
 21
62.312937
  0
LINE
  8
1
  6
CONTINUOUS
 10
41.327440
 20
62.312937
 11
41.327440
 21
62.812937
  0
LINE
  8
1
  6
CONTINUOUS
 10
41.327440
 20
62.812937
 11
41.327440
 21
62.312936
  0
LINE
  8
1
  6
CONTINUOUS
 10
42.894664
 20
62.812937
 11
42.894664
 21
62.312937
  0
LINE
  8
1
  6
CONTINUOUS
 10
44.461888
 20
62.812937
 11
44.461888
 21
62.312937
  0
LINE
  8
1
  6
CONTINUOUS
 10
25.038160
 20
62.312936
 11
25.038160
 21
61.812936
  0
LINE
  8
1
  6
CONTINUOUS
 10
25.038160
 20
61.812936
 11
44.461888
 21
61.812936
  0
LINE
  8
1
  6
CONTINUOUS
 10
27.527276
 20
62.312936
 11
27.527276
 21
61.812936
  0
LINE
  8
1
  6
CONTINUOUS
 10
29.664989
 20
62.312936
 11
29.664989
 21
61.812936
  0
LINE
  8
1
  6
CONTINUOUS
 10
31.040356
 20
62.312936
 11
31.040356
 21
61.812936
  0
LINE
  8
1
  6
CONTINUOUS
 10
35.204869
 20
62.312936
 11
35.204869
 21
61.812936
  0
LINE
  8
1
  6
CONTINUOUS
 10
38.192992
 20
62.312936
 11
38.192992
 21
61.812936
  0
LINE
  8
1
  6
CONTINUOUS
 10
39.237808
 20
62.312936
 11
39.237808
 21
61.812936
  0
LINE
  8
1
  6
CONTINUOUS
 10
40.282624
 20
62.312936
 11
40.282624
 21
61.812936
  0
LINE
  8
1
  6
CONTINUOUS
 10
41.327440
 20
62.312936
 11
41.327440
 21
61.812936
  0
LINE
  8
1
  6
CONTINUOUS
 10
41.327440
 20
61.812936
 11
41.327440
 21
62.312936
  0
LINE
  8
1
  6
CONTINUOUS
 10
41.327440
 20
62.312936
 11
41.327440
 21
61.812936
  0
LINE
  8
1
  6
CONTINUOUS
 10
42.894664
 20
62.312936
 11
42.894664
 21
61.812936
  0
LINE
  8
1
  6
CONTINUOUS
 10
44.461888
 20
62.312936
 11
44.461888
 21
61.812936
  0
LINE
  8
1
  6
CONTINUOUS
 10
25.038160
 20
61.812935
 11
25.038160
 21
61.312935
  0
LINE
  8
1
  6
CONTINUOUS
 10
25.038160
 20
61.312935
 11
44.461888
 21
61.312935
  0
LINE
  8
1
  6
CONTINUOUS
 10
27.527276
 20
61.812935
 11
27.527276
 21
61.312935
  0
LINE
  8
1
  6
CONTINUOUS
 10
29.664989
 20
61.812935
 11
29.664989
 21
61.312935
  0
LINE
  8
1
  6
CONTINUOUS
 10
31.040356
 20
61.812935
 11
31.040356
 21
61.312935
  0
LINE
  8
1
  6
CONTINUOUS
 10
35.204869
 20
61.812935
 11
35.204869
 21
61.312935
  0
LINE
  8
1
  6
CONTINUOUS
 10
38.192992
 20
61.812935
 11
38.192992
 21
61.312935
  0
LINE
  8
1
  6
CONTINUOUS
 10
39.237808
 20
61.812935
 11
39.237808
 21
61.312935
  0
LINE
  8
1
  6
CONTINUOUS
 10
40.282624
 20
61.812935
 11
40.282624
 21
61.312935
  0
LINE
  8
1
  6
CONTINUOUS
 10
41.327440
 20
61.812935
 11
41.327440
 21
61.312935
  0
LINE
  8
1
  6
CONTINUOUS
 10
41.327440
 20
61.312935
 11
41.327440
 21
61.812935
  0
LINE
  8
1
  6
CONTINUOUS
 10
41.327440
 20
61.812936
 11
41.327440
 21
61.312935
  0
LINE
  8
1
  6
CONTINUOUS
 10
42.894664
 20
61.812935
 11
42.894664
 21
61.312935
  0
LINE
  8
1
  6
CONTINUOUS
 10
44.461888
 20
61.812935
 11
44.461888
 21
61.312935
  0
LINE
  8
1
  6
CONTINUOUS
 10
25.038160
 20
61.312935
 11
25.038160
 21
60.812934
  0
LINE
  8
1
  6
CONTINUOUS
 10
25.038160
 20
60.812934
 11
44.461888
 21
60.812934
  0
LINE
  8
1
  6
CONTINUOUS
 10
27.527276
 20
61.312935
 11
27.527276
 21
60.812934
  0
LINE
  8
1
  6
CONTINUOUS
 10
29.664989
 20
61.312935
 11
29.664989
 21
60.812934
  0
LINE
  8
1
  6
CONTINUOUS
 10
31.040356
 20
61.312935
 11
31.040356
 21
60.812934
  0
LINE
  8
1
  6
CONTINUOUS
 10
35.204869
 20
61.312935
 11
35.204869
 21
60.812934
  0
LINE
  8
1
  6
CONTINUOUS
 10
38.192992
 20
61.312935
 11
38.192992
 21
60.812934
  0
LINE
  8
1
  6
CONTINUOUS
 10
39.237808
 20
61.312935
 11
39.237808
 21
60.812934
  0
LINE
  8
1
  6
CONTINUOUS
 10
40.282624
 20
61.312935
 11
40.282624
 21
60.812934
  0
LINE
  8
1
  6
CONTINUOUS
 10
41.327440
 20
61.312935
 11
41.327440
 21
60.812934
  0
LINE
  8
1
  6
CONTINUOUS
 10
41.327440
 20
60.812934
 11
41.327440
 21
61.312935
  0
LINE
  8
1
  6
CONTINUOUS
 10
41.327440
 20
61.312935
 11
41.327440
 21
60.812934
  0
LINE
  8
1
  6
CONTINUOUS
 10
42.894664
 20
61.312935
 11
42.894664
 21
60.812934
  0
LINE
  8
1
  6
CONTINUOUS
 10
44.461888
 20
61.312935
 11
44.461888
 21
60.812934
  0
LINE
  8
1
  6
CONTINUOUS
 10
25.038160
 20
60.812934
 11
25.038160
 21
60.312934
  0
LINE
  8
1
  6
CONTINUOUS
 10
25.038160
 20
60.312934
 11
44.461888
 21
60.312934
  0
LINE
  8
1
  6
CONTINUOUS
 10
27.527276
 20
60.812934
 11
27.527276
 21
60.312934
  0
LINE
  8
1
  6
CONTINUOUS
 10
29.664989
 20
60.812934
 11
29.664989
 21
60.312934
  0
LINE
  8
1
  6
CONTINUOUS
 10
31.040356
 20
60.812934
 11
31.040356
 21
60.312934
  0
LINE
  8
1
  6
CONTINUOUS
 10
35.204869
 20
60.812934
 11
35.204869
 21
60.312934
  0
LINE
  8
1
  6
CONTINUOUS
 10
38.192992
 20
60.812934
 11
38.192992
 21
60.312934
  0
LINE
  8
1
  6
CONTINUOUS
 10
39.237808
 20
60.812934
 11
39.237808
 21
60.312934
  0
LINE
  8
1
  6
CONTINUOUS
 10
40.282624
 20
60.812934
 11
40.282624
 21
60.312934
  0
LINE
  8
1
  6
CONTINUOUS
 10
41.327440
 20
60.812934
 11
41.327440
 21
60.312934
  0
LINE
  8
1
  6
CONTINUOUS
 10
41.327440
 20
60.312934
 11
41.327440
 21
60.812934
  0
LINE
  8
1
  6
CONTINUOUS
 10
41.327440
 20
60.812934
 11
41.327440
 21
60.312934
  0
LINE
  8
1
  6
CONTINUOUS
 10
42.894664
 20
60.812934
 11
42.894664
 21
60.312934
  0
LINE
  8
1
  6
CONTINUOUS
 10
44.461888
 20
60.812934
 11
44.461888
 21
60.312934
  0
LINE
  8
1
  6
CONTINUOUS
 10
25.038160
 20
60.312933
 11
25.038160
 21
59.812933
  0
LINE
  8
1
  6
CONTINUOUS
 10
25.038160
 20
59.812933
 11
44.461888
 21
59.812933
  0
LINE
  8
1
  6
CONTINUOUS
 10
27.527276
 20
60.312933
 11
27.527276
 21
59.812933
  0
LINE
  8
1
  6
CONTINUOUS
 10
29.664989
 20
60.312933
 11
29.664989
 21
59.812933
  0
LINE
  8
1
  6
CONTINUOUS
 10
31.040356
 20
60.312933
 11
31.040356
 21
59.812933
  0
LINE
  8
1
  6
CONTINUOUS
 10
35.204869
 20
60.312933
 11
35.204869
 21
59.812933
  0
LINE
  8
1
  6
CONTINUOUS
 10
38.192992
 20
60.312933
 11
38.192992
 21
59.812933
  0
LINE
  8
1
  6
CONTINUOUS
 10
39.237808
 20
60.312933
 11
39.237808
 21
59.812933
  0
LINE
  8
1
  6
CONTINUOUS
 10
40.282624
 20
60.312933
 11
40.282624
 21
59.812933
  0
LINE
  8
1
  6
CONTINUOUS
 10
41.327440
 20
60.312933
 11
41.327440
 21
59.812933
  0
LINE
  8
1
  6
CONTINUOUS
 10
41.327440
 20
59.812933
 11
41.327440
 21
60.312933
  0
LINE
  8
1
  6
CONTINUOUS
 10
41.327440
 20
60.312934
 11
41.327440
 21
59.812933
  0
LINE
  8
1
  6
CONTINUOUS
 10
42.894664
 20
60.312933
 11
42.894664
 21
59.812933
  0
LINE
  8
1
  6
CONTINUOUS
 10
44.461888
 20
60.312933
 11
44.461888
 21
59.812933
  0
LINE
  8
1
  6
CONTINUOUS
 10
25.038160
 20
59.812932
 11
25.038160
 21
59.312932
  0
LINE
  8
1
  6
CONTINUOUS
 10
25.038160
 20
59.312932
 11
44.461888
 21
59.312932
  0
LINE
  8
1
  6
CONTINUOUS
 10
27.527276
 20
59.812932
 11
27.527276
 21
59.312932
  0
LINE
  8
1
  6
CONTINUOUS
 10
29.664989
 20
59.812932
 11
29.664989
 21
59.312932
  0
LINE
  8
1
  6
CONTINUOUS
 10
31.040356
 20
59.812932
 11
31.040356
 21
59.312932
  0
LINE
  8
1
  6
CONTINUOUS
 10
35.204869
 20
59.812932
 11
35.204869
 21
59.312932
  0
LINE
  8
1
  6
CONTINUOUS
 10
38.192992
 20
59.812932
 11
38.192992
 21
59.312932
  0
LINE
  8
1
  6
CONTINUOUS
 10
39.237808
 20
59.812932
 11
39.237808
 21
59.312932
  0
LINE
  8
1
  6
CONTINUOUS
 10
40.282624
 20
59.812932
 11
40.282624
 21
59.312932
  0
LINE
  8
1
  6
CONTINUOUS
 10
41.327440
 20
59.812932
 11
41.327440
 21
59.312932
  0
LINE
  8
1
  6
CONTINUOUS
 10
41.327440
 20
59.312932
 11
41.327440
 21
59.812932
  0
LINE
  8
1
  6
CONTINUOUS
 10
41.327440
 20
59.812933
 11
41.327440
 21
59.312932
  0
LINE
  8
1
  6
CONTINUOUS
 10
42.894664
 20
59.812932
 11
42.894664
 21
59.312932
  0
LINE
  8
1
  6
CONTINUOUS
 10
44.461888
 20
59.812932
 11
44.461888
 21
59.312932
  0
LINE
  8
1
  6
CONTINUOUS
 10
25.038160
 20
59.312932
 11
25.038160
 21
58.812932
  0
LINE
  8
1
  6
CONTINUOUS
 10
25.038160
 20
58.812932
 11
44.461888
 21
58.812932
  0
LINE
  8
1
  6
CONTINUOUS
 10
27.527276
 20
59.312932
 11
27.527276
 21
58.812932
  0
LINE
  8
1
  6
CONTINUOUS
 10
29.664989
 20
59.312932
 11
29.664989
 21
58.812932
  0
LINE
  8
1
  6
CONTINUOUS
 10
31.040356
 20
59.312932
 11
31.040356
 21
58.812932
  0
LINE
  8
1
  6
CONTINUOUS
 10
35.204869
 20
59.312932
 11
35.204869
 21
58.812932
  0
LINE
  8
1
  6
CONTINUOUS
 10
38.192992
 20
59.312932
 11
38.192992
 21
58.812932
  0
LINE
  8
1
  6
CONTINUOUS
 10
39.237808
 20
59.312932
 11
39.237808
 21
58.812932
  0
LINE
  8
1
  6
CONTINUOUS
 10
40.282624
 20
59.312932
 11
40.282624
 21
58.812932
  0
LINE
  8
1
  6
CONTINUOUS
 10
41.327440
 20
59.312932
 11
41.327440
 21
58.812932
  0
LINE
  8
1
  6
CONTINUOUS
 10
41.327440
 20
58.812932
 11
41.327440
 21
59.312932
  0
LINE
  8
1
  6
CONTINUOUS
 10
41.327440
 20
59.312932
 11
41.327440
 21
58.812931
  0
LINE
  8
1
  6
CONTINUOUS
 10
42.894664
 20
59.312932
 11
42.894664
 21
58.812932
  0
LINE
  8
1
  6
CONTINUOUS
 10
44.461888
 20
59.312932
 11
44.461888
 21
58.812932
  0
LINE
  8
1
  6
CONTINUOUS
 10
25.038160
 20
58.175579
 11
38.321252
 21
58.175579
  0
LINE
  8
1
  6
CONTINUOUS
 10
25.038160
 20
56.812931
 11
38.321252
 21
56.812931
  0
LINE
  8
1
  6
CONTINUOUS
 10
25.038160
 20
56.312931
 11
33.959869
 21
56.312931
  0
LINE
  8
1
  6
CONTINUOUS
 10
33.959869
 20
56.312931
 11
36.147992
 21
56.312931
  0
LINE
  8
1
  6
CONTINUOUS
 10
35.527972
 20
56.312931
 11
36.572788
 21
56.312931
  0
LINE
  8
1
  6
CONTINUOUS
 10
36.572788
 20
56.312931
 11
38.237624
 21
56.312931
  0
LINE
  8
1
  6
CONTINUOUS
 10
38.237624
 20
56.312931
 11
38.321252
 21
56.312931
  0
LINE
  8
1
  6
CONTINUOUS
 10
25.038160
 20
58.175579
 11
25.038160
 21
55.312931
  0
LINE
  8
1
  6
CONTINUOUS
 10
25.038160
 20
55.312931
 11
38.321252
 21
55.312932
  0
LINE
  8
1
  6
CONTINUOUS
 10
27.175872
 20
56.312931
 11
27.175872
 21
55.312931
  0
LINE
  8
1
  6
CONTINUOUS
 10
29.363996
 20
55.312931
 11
29.363996
 21
56.312931
  0
LINE
  8
1
  6
CONTINUOUS
 10
36.231620
 20
56.312931
 11
36.231620
 21
55.312932
  0
LINE
  8
1
  6
CONTINUOUS
 10
37.276437
 20
56.312931
 11
37.276437
 21
55.312932
  0
LINE
  8
1
  6
CONTINUOUS
 10
31.066808
 20
55.312931
 11
31.066808
 21
55.812931
  0
LINE
  8
1
  6
CONTINUOUS
 10
38.321252
 20
55.312932
 11
38.321252
 21
58.175579
  0
LINE
  8
1
  6
CONTINUOUS
 10
29.363996
 20
55.812931
 11
35.186805
 21
55.812931
  0
LINE
  8
1
  6
CONTINUOUS
 10
35.186805
 20
55.312932
 11
35.186805
 21
56.812931
  0
LINE
  8
1
  6
CONTINUOUS
 10
33.126807
 20
55.312931
 11
33.126807
 21
55.812931
  0
LINE
  8
1
  6
CONTINUOUS
 10
25.038160
 20
55.312931
 11
25.038160
 21
54.812930
  0
LINE
  8
1
  6
CONTINUOUS
 10
27.175872
 20
55.312931
 11
27.175872
 21
54.812930
  0
LINE
  8
1
  6
CONTINUOUS
 10
29.363996
 20
55.312931
 11
29.363996
 21
54.812930
  0
LINE
  8
1
  6
CONTINUOUS
 10
25.038160
 20
54.812930
 11
38.321252
 21
54.812930
  0
LINE
  8
1
  6
CONTINUOUS
 10
35.186805
 20
55.312931
 11
35.186805
 21
54.812931
  0
LINE
  8
1
  6
CONTINUOUS
 10
36.231620
 20
55.312931
 11
36.231620
 21
54.812931
  0
LINE
  8
1
  6
CONTINUOUS
 10
37.276437
 20
55.312931
 11
37.276437
 21
54.812931
  0
LINE
  8
1
  6
CONTINUOUS
 10
31.066808
 20
55.312931
 11
31.066808
 21
54.812930
  0
LINE
  8
1
  6
CONTINUOUS
 10
33.126807
 20
54.812930
 11
33.126807
 21
55.312931
  0
LINE
  8
1
  6
CONTINUOUS
 10
35.186805
 20
54.812930
 11
35.186805
 21
55.312931
  0
LINE
  8
1
  6
CONTINUOUS
 10
38.321252
 20
55.312931
 11
38.321252
 21
54.812930
  0
LINE
  8
1
  6
CONTINUOUS
 10
25.038160
 20
54.812930
 11
25.038160
 21
54.312930
  0
LINE
  8
1
  6
CONTINUOUS
 10
27.175872
 20
54.812930
 11
27.175872
 21
54.312930
  0
LINE
  8
1
  6
CONTINUOUS
 10
29.363996
 20
54.812930
 11
29.363996
 21
54.312930
  0
LINE
  8
1
  6
CONTINUOUS
 10
25.038160
 20
54.312930
 11
38.321252
 21
54.312930
  0
LINE
  8
1
  6
CONTINUOUS
 10
35.186805
 20
54.812930
 11
35.186805
 21
54.312930
  0
LINE
  8
1
  6
CONTINUOUS
 10
36.231620
 20
54.812930
 11
36.231620
 21
54.312930
  0
LINE
  8
1
  6
CONTINUOUS
 10
37.276437
 20
54.812930
 11
37.276437
 21
54.312930
  0
LINE
  8
1
  6
CONTINUOUS
 10
31.066808
 20
54.812930
 11
31.066808
 21
54.312930
  0
LINE
  8
1
  6
CONTINUOUS
 10
33.126807
 20
54.312930
 11
33.126807
 21
54.812930
  0
LINE
  8
1
  6
CONTINUOUS
 10
35.186805
 20
54.312930
 11
35.186805
 21
54.812930
  0
LINE
  8
1
  6
CONTINUOUS
 10
38.321252
 20
54.812930
 11
38.321252
 21
54.312930
  0
POLYLINE
  8
1
  6
CONTINUOUS
 66
     1
  0
VERTEX
  8
1
  6
CONTINUOUS
 10
10.023359
 20
41.181720
  0
VERTEX
  8
1
  6
CONTINUOUS
 10
5.023359
 20
41.181720
  0
SEQEND
  8
1
  6
CONTINUOUS
  0
POLYLINE
  8
1
  6
CONTINUOUS
 66
     1
  0
VERTEX
  8
1
  6
CONTINUOUS
 10
5.023359
 20
40.781720
  0
VERTEX
  8
1
  6
CONTINUOUS
 10
10.023359
 20
40.781720
  0
SEQEND
  8
1
  6
CONTINUOUS
  0
POLYLINE
  8
1
  6
CONTINUOUS
 66
     1
  0
VERTEX
  8
1
  6
CONTINUOUS
 10
25.823359
 20
41.181720
  0
VERTEX
  8
1
  6
CONTINUOUS
 10
10.823359
 20
41.181720
  0
SEQEND
  8
1
  6
CONTINUOUS
  0
POLYLINE
  8
1
  6
ESTILO_TQS_0001
 66
     1
  0
VERTEX
  8
1
  6
ESTILO_TQS_0001
 10
10.823359
 20
40.781720
  0
VERTEX
  8
1
  6
ESTILO_TQS_0001
 10
25.823359
 20
40.781720
  0
SEQEND
  8
1
  6
ESTILO_TQS_0001
  0
POLYLINE
  8
1
  6
CONTINUOUS
 66
     1
  0
VERTEX
  8
1
  6
CONTINUOUS
 10
36.233742
 20
41.181720
  0
VERTEX
  8
1
  6
CONTINUOUS
 10
26.623359
 20
41.181720
  0
SEQEND
  8
1
  6
CONTINUOUS
  0
POLYLINE
  8
1
  6
ESTILO_TQS_0001
 66
     1
  0
VERTEX
  8
1
  6
ESTILO_TQS_0001
 10
26.623359
 20
40.781720
  0
VERTEX
  8
1
  6
ESTILO_TQS_0001
 10
36.033742
 20
40.781720
  0
SEQEND
  8
1
  6
ESTILO_TQS_0001
  0
POLYLINE
  8
1
  6
CONTINUOUS
 66
     1
  0
VERTEX
  8
1
  6
CONTINUOUS
 10
41.823359
 20
41.181720
  0
VERTEX
  8
1
  6
CONTINUOUS
 10
36.233742
 20
41.181720
  0
SEQEND
  8
1
  6
CONTINUOUS
  0
POLYLINE
  8
1
  6
ESTILO_TQS_0001
 66
     1
  0
VERTEX
  8
1
  6
ESTILO_TQS_0001
 10
36.433742
 20
40.781720
  0
VERTEX
  8
1
  6
ESTILO_TQS_0001
 10
41.823359
 20
40.781720
  0
SEQEND
  8
1
  6
ESTILO_TQS_0001
  0
POLYLINE
  8
1
  6
CONTINUOUS
 66
     1
  0
VERTEX
  8
1
  6
CONTINUOUS
 10
57.823359
 20
41.181720
  0
VERTEX
  8
1
  6
CONTINUOUS
 10
42.623359
 20
41.181720
  0
SEQEND
  8
1
  6
CONTINUOUS
  0
POLYLINE
  8
1
  6
ESTILO_TQS_0001
 66
     1
  0
VERTEX
  8
1
  6
ESTILO_TQS_0001
 10
42.623359
 20
40.781720
  0
VERTEX
  8
1
  6
ESTILO_TQS_0001
 10
57.823359
 20
40.781720
  0
SEQEND
  8
1
  6
ESTILO_TQS_0001
  0
POLYLINE
  8
1
  6
CONTINUOUS
 66
     1
  0
VERTEX
  8
1
  6
CONTINUOUS
 10
77.065360
 20
41.181720
  0
VERTEX
  8
1
  6
CONTINUOUS
 10
58.623359
 20
41.181720
  0
SEQEND
  8
1
  6
CONTINUOUS
  0
POLYLINE
  8
1
  6
ESTILO_TQS_0001
 66
     1
  0
VERTEX
  8
1
  6
ESTILO_TQS_0001
 10
58.623359
 20
40.781720
  0
VERTEX
  8
1
  6
ESTILO_TQS_0001
 10
77.065360
 20
40.781720
  0
SEQEND
  8
1
  6
ESTILO_TQS_0001
  0
POLYLINE
  8
1
  6
CONTINUOUS
 66
     1
  0
VERTEX
  8
1
  6
CONTINUOUS
 10
5.023359
 20
41.181720
  0
VERTEX
  8
1
  6
CONTINUOUS
 10
5.023359
 20
40.781720
  0
SEQEND
  8
1
  6
CONTINUOUS
  0
POLYLINE
  8
1
  6
CONTINUOUS
 66
     1
  0
VERTEX
  8
1
  6
CONTINUOUS
 10
10.023359
 20
5.377850
  0
VERTEX
  8
1
  6
CONTINUOUS
 10
5.023359
 20
5.377850
  0
SEQEND
  8
1
  6
CONTINUOUS
  0
POLYLINE
  8
1
  6
CONTINUOUS
 66
     1
  0
VERTEX
  8
1
  6
CONTINUOUS
 10
5.023359
 20
4.977850
  0
VERTEX
  8
1
  6
CONTINUOUS
 10
10.023359
 20
4.977850
  0
SEQEND
  8
1
  6
CONTINUOUS
  0
POLYLINE
  8
1
  6
ESTILO_TQS_0001
 66
     1
  0
VERTEX
  8
1
  6
ESTILO_TQS_0001
 10
25.823359
 20
5.377850
  0
VERTEX
  8
1
  6
ESTILO_TQS_0001
 10
10.823359
 20
5.377850
  0
SEQEND
  8
1
  6
ESTILO_TQS_0001
  0
POLYLINE
  8
1
  6
CONTINUOUS
 66
     1
  0
VERTEX
  8
1
  6
CONTINUOUS
 10
10.823359
 20
4.977850
  0
VERTEX
  8
1
  6
CONTINUOUS
 10
25.823359
 20
4.977850
  0
SEQEND
  8
1
  6
CONTINUOUS
  0
POLYLINE
  8
1
  6
ESTILO_TQS_0001
 66
     1
  0
VERTEX
  8
1
  6
ESTILO_TQS_0001
 10
36.033742
 20
5.377850
  0
VERTEX
  8
1
  6
ESTILO_TQS_0001
 10
26.623359
 20
5.377850
  0
SEQEND
  8
1
  6
ESTILO_TQS_0001
  0
POLYLINE
  8
1
  6
CONTINUOUS
 66
     1
  0
VERTEX
  8
1
  6
CONTINUOUS
 10
26.623359
 20
4.977850
  0
VERTEX
  8
1
  6
CONTINUOUS
 10
36.233742
 20
4.977850
  0
SEQEND
  8
1
  6
CONTINUOUS
  0
POLYLINE
  8
1
  6
ESTILO_TQS_0001
 66
     1
  0
VERTEX
  8
1
  6
ESTILO_TQS_0001
 10
41.823359
 20
5.377850
  0
VERTEX
  8
1
  6
ESTILO_TQS_0001
 10
36.433742
 20
5.377850
  0
SEQEND
  8
1
  6
ESTILO_TQS_0001
  0
POLYLINE
  8
1
  6
CONTINUOUS
 66
     1
  0
VERTEX
  8
1
  6
CONTINUOUS
 10
36.233742
 20
4.977850
  0
VERTEX
  8
1
  6
CONTINUOUS
 10
41.823359
 20
4.977850
  0
SEQEND
  8
1
  6
CONTINUOUS
  0
POLYLINE
  8
1
  6
ESTILO_TQS_0001
 66
     1
  0
VERTEX
  8
1
  6
ESTILO_TQS_0001
 10
57.823359
 20
5.377850
  0
VERTEX
  8
1
  6
ESTILO_TQS_0001
 10
42.623359
 20
5.377850
  0
SEQEND
  8
1
  6
ESTILO_TQS_0001
  0
POLYLINE
  8
1
  6
CONTINUOUS
 66
     1
  0
VERTEX
  8
1
  6
CONTINUOUS
 10
42.623359
 20
4.977850
  0
VERTEX
  8
1
  6
CONTINUOUS
 10
57.823359
 20
4.977850
  0
SEQEND
  8
1
  6
CONTINUOUS
  0
POLYLINE
  8
1
  6
ESTILO_TQS_0001
 66
     1
  0
VERTEX
  8
1
  6
ESTILO_TQS_0001
 10
73.823359
 20
5.377850
  0
VERTEX
  8
1
  6
ESTILO_TQS_0001
 10
58.623359
 20
5.377850
  0
SEQEND
  8
1
  6
ESTILO_TQS_0001
  0
POLYLINE
  8
1
  6
CONTINUOUS
 66
     1
  0
VERTEX
  8
1
  6
CONTINUOUS
 10
58.623359
 20
4.977850
  0
VERTEX
  8
1
  6
CONTINUOUS
 10
73.823359
 20
4.977850
  0
SEQEND
  8
1
  6
CONTINUOUS
  0
POLYLINE
  8
1
  6
CONTINUOUS
 66
     1
  0
VERTEX
  8
1
  6
CONTINUOUS
 10
74.628000
 20
5.377850
  0
VERTEX
  8
1
  6
CONTINUOUS
 10
74.623359
 20
5.377850
  0
SEQEND
  8
1
  6
CONTINUOUS
  0
POLYLINE
  8
1
  6
CONTINUOUS
 66
     1
  0
VERTEX
  8
1
  6
CONTINUOUS
 10
74.623359
 20
4.977850
  0
VERTEX
  8
1
  6
CONTINUOUS
 10
74.828000
 20
4.977850
  0
SEQEND
  8
1
  6
CONTINUOUS
  0
POLYLINE
  8
1
  6
ESTILO_TQS_0001
 66
     1
  0
VERTEX
  8
1
  6
ESTILO_TQS_0001
 10
86.091145
 20
5.377850
  0
VERTEX
  8
1
  6
ESTILO_TQS_0001
 10
75.028000
 20
5.377850
  0
SEQEND
  8
1
  6
ESTILO_TQS_0001
  0
POLYLINE
  8
1
  6
CONTINUOUS
 66
     1
  0
VERTEX
  8
1
  6
CONTINUOUS
 10
74.828000
 20
4.977850
  0
VERTEX
  8
1
  6
CONTINUOUS
 10
86.291145
 20
4.977850
  0
SEQEND
  8
1
  6
CONTINUOUS
  0
POLYLINE
  8
1
  6
ESTILO_TQS_0001
 66
     1
  0
VERTEX
  8
1
  6
ESTILO_TQS_0001
 10
90.980925
 20
5.377850
  0
VERTEX
  8
1
  6
ESTILO_TQS_0001
 10
86.491145
 20
5.377850
  0
SEQEND
  8
1
  6
ESTILO_TQS_0001
  0
POLYLINE
  8
1
  6
CONTINUOUS
 66
     1
  0
VERTEX
  8
1
  6
CONTINUOUS
 10
86.291145
 20
4.977850
  0
VERTEX
  8
1
  6
CONTINUOUS
 10
90.947069
 20
4.977850
  0
SEQEND
  8
1
  6
CONTINUOUS
  0
POLYLINE
  8
1
  6
CONTINUOUS
 66
     1
  0
VERTEX
  8
1
  6
CONTINUOUS
 10
5.023359
 20
5.377850
  0
VERTEX
  8
1
  6
CONTINUOUS
 10
5.023359
 20
4.977850
  0
SEQEND
  8
1
  6
CONTINUOUS
  0
POLYLINE
  8
1
  6
CONTINUOUS
 66
     1
  0
VERTEX
  8
1
  6
CONTINUOUS
 10
10.023359
 20
20.381720
  0
VERTEX
  8
1
  6
CONTINUOUS
 10
10.023359
 20
5.377850
  0
SEQEND
  8
1
  6
CONTINUOUS
  0
POLYLINE
  8
1
  6
ESTILO_TQS_0001
 66
     1
  0
VERTEX
  8
1
  6
ESTILO_TQS_0001
 10
10.423359
 20
5.377850
  0
VERTEX
  8
1
  6
ESTILO_TQS_0001
 10
10.423359
 20
20.381720
  0
SEQEND
  8
1
  6
ESTILO_TQS_0001
  0
POLYLINE
  8
1
  6
CONTINUOUS
 66
     1
  0
VERTEX
  8
1
  6
CONTINUOUS
 10
10.023359
 20
25.181720
  0
VERTEX
  8
1
  6
CONTINUOUS
 10
10.023359
 20
21.181720
  0
SEQEND
  8
1
  6
CONTINUOUS
  0
POLYLINE
  8
1
  6
ESTILO_TQS_0001
 66
     1
  0
VERTEX
  8
1
  6
ESTILO_TQS_0001
 10
10.423359
 20
21.181720
  0
VERTEX
  8
1
  6
ESTILO_TQS_0001
 10
10.423359
 20
25.181720
  0
SEQEND
  8
1
  6
ESTILO_TQS_0001
  0
POLYLINE
  8
1
  6
CONTINUOUS
 66
     1
  0
VERTEX
  8
1
  6
CONTINUOUS
 10
10.023359
 20
40.781720
  0
VERTEX
  8
1
  6
CONTINUOUS
 10
10.023359
 20
25.981720
  0
SEQEND
  8
1
  6
CONTINUOUS
  0
POLYLINE
  8
1
  6
ESTILO_TQS_0001
 66
     1
  0
VERTEX
  8
1
  6
ESTILO_TQS_0001
 10
10.423359
 20
25.981720
  0
VERTEX
  8
1
  6
ESTILO_TQS_0001
 10
10.423359
 20
40.781720
  0
SEQEND
  8
1
  6
ESTILO_TQS_0001
  0
POLYLINE
  8
1
  6
CONTINUOUS
 66
     1
  0
VERTEX
  8
1
  6
CONTINUOUS
 10
82.018476
 20
76.611582
  0
VERTEX
  8
1
  6
CONTINUOUS
 10
77.865356
 20
76.611582
  0
SEQEND
  8
1
  6
CONTINUOUS
  0
POLYLINE
  8
1
  6
CONTINUOUS
 66
     1
  0
VERTEX
  8
1
  6
CONTINUOUS
 10
77.865356
 20
76.211582
  0
VERTEX
  8
1
  6
CONTINUOUS
 10
81.878476
 20
76.211582
  0
SEQEND
  8
1
  6
CONTINUOUS
  0
POLYLINE
  8
1
  6
CONTINUOUS
 66
     1
  0
VERTEX
  8
1
  6
CONTINUOUS
 10
86.168473
 20
76.611582
  0
VERTEX
  8
1
  6
CONTINUOUS
 10
82.018476
 20
76.611582
  0
SEQEND
  8
1
  6
CONTINUOUS
  0
POLYLINE
  8
1
  6
CONTINUOUS
 66
     1
  0
VERTEX
  8
1
  6
CONTINUOUS
 10
82.158476
 20
76.211582
  0
VERTEX
  8
1
  6
CONTINUOUS
 10
86.168473
 20
76.211582
  0
SEQEND
  8
1
  6
CONTINUOUS
  0
POLYLINE
  8
1
  6
CONTINUOUS
 66
     1
  0
VERTEX
  8
1
  6
CONTINUOUS
 10
81.878476
 20
76.211582
  0
VERTEX
  8
1
  6
CONTINUOUS
 10
81.878476
 20
72.311583
  0
SEQEND
  8
1
  6
CONTINUOUS
  0
POLYLINE
  8
1
  6
CONTINUOUS
 66
     1
  0
VERTEX
  8
1
  6
CONTINUOUS
 10
82.158476
 20
72.311583
  0
VERTEX
  8
1
  6
CONTINUOUS
 10
82.158476
 20
76.211582
  0
SEQEND
  8
1
  6
CONTINUOUS
  0
POLYLINE
  8
1
  6
CONTINUOUS
 66
     1
  0
VERTEX
  8
1
  6
CONTINUOUS
 10
81.878476
 20
72.311583
  0
VERTEX
  8
1
  6
CONTINUOUS
 10
77.865356
 20
72.311583
  0
SEQEND
  8
1
  6
CONTINUOUS
  0
POLYLINE
  8
1
  6
CONTINUOUS
 66
     1
  0
VERTEX
  8
1
  6
CONTINUOUS
 10
77.865360
 20
71.911583
  0
VERTEX
  8
1
  6
CONTINUOUS
 10
82.018476
 20
71.911583
  0
SEQEND
  8
1
  6
CONTINUOUS
  0
POLYLINE
  8
1
  6
CONTINUOUS
 66
     1
  0
VERTEX
  8
1
  6
CONTINUOUS
 10
86.168473
 20
72.311583
  0
VERTEX
  8
1
  6
CONTINUOUS
 10
82.158476
 20
72.311583
  0
SEQEND
  8
1
  6
CONTINUOUS
  0
POLYLINE
  8
1
  6
CONTINUOUS
 66
     1
  0
VERTEX
  8
1
  6
CONTINUOUS
 10
82.018476
 20
71.911583
  0
VERTEX
  8
1
  6
CONTINUOUS
 10
86.168473
 20
71.911583
  0
SEQEND
  8
1
  6
CONTINUOUS
  0
POLYLINE
  8
1
  6
CONTINUOUS
 66
     1
  0
VERTEX
  8
1
  6
CONTINUOUS
 10
86.168477
 20
71.911582
  0
VERTEX
  8
1
  6
CONTINUOUS
 10
86.168477
 20
66.510749
  0
SEQEND
  8
1
  6
CONTINUOUS
  0
POLYLINE
  8
1
  6
CONTINUOUS
 66
     1
  0
VERTEX
  8
1
  6
CONTINUOUS
 10
86.568477
 20
66.910749
  0
VERTEX
  8
1
  6
CONTINUOUS
 10
86.568477
 20
71.911582
  0
SEQEND
  8
1
  6
CONTINUOUS
  0
POLYLINE
  8
1
  6
CONTINUOUS
 66
     1
  0
VERTEX
  8
1
  6
CONTINUOUS
 10
77.465360
 20
50.271715
  0
VERTEX
  8
1
  6
CONTINUOUS
 10
77.465360
 20
41.181720
  0
SEQEND
  8
1
  6
CONTINUOUS
  0
POLYLINE
  8
1
  6
CONTINUOUS
 66
     1
  0
VERTEX
  8
1
  6
CONTINUOUS
 10
77.865360
 20
41.181720
  0
VERTEX
  8
1
  6
CONTINUOUS
 10
77.865360
 20
50.271710
  0
SEQEND
  8
1
  6
CONTINUOUS
  0
POLYLINE
  8
1
  6
CONTINUOUS
 66
     1
  0
VERTEX
  8
1
  6
CONTINUOUS
 10
77.465360
 20
57.611710
  0
VERTEX
  8
1
  6
CONTINUOUS
 10
77.465360
 20
51.071715
  0
SEQEND
  8
1
  6
CONTINUOUS
  0
POLYLINE
  8
1
  6
CONTINUOUS
 66
     1
  0
VERTEX
  8
1
  6
CONTINUOUS
 10
77.865360
 20
51.071715
  0
VERTEX
  8
1
  6
CONTINUOUS
 10
77.865360
 20
57.611710
  0
SEQEND
  8
1
  6
CONTINUOUS
  0
POLYLINE
  8
1
  6
CONTINUOUS
 66
     1
  0
VERTEX
  8
1
  6
CONTINUOUS
 10
77.465360
 20
71.911582
  0
VERTEX
  8
1
  6
CONTINUOUS
 10
77.465360
 20
62.211710
  0
SEQEND
  8
1
  6
CONTINUOUS
  0
POLYLINE
  8
1
  6
CONTINUOUS
 66
     1
  0
VERTEX
  8
1
  6
CONTINUOUS
 10
77.865360
 20
62.211710
  0
VERTEX
  8
1
  6
CONTINUOUS
 10
77.865360
 20
71.911582
  0
SEQEND
  8
1
  6
CONTINUOUS
  0
POLYLINE
  8
1
  6
CONTINUOUS
 66
     1
  0
VERTEX
  8
1
  6
CONTINUOUS
 10
81.365356
 20
58.011710
  0
VERTEX
  8
1
  6
CONTINUOUS
 10
77.865356
 20
58.011710
  0
SEQEND
  8
1
  6
CONTINUOUS
  0
POLYLINE
  8
1
  6
CONTINUOUS
 66
     1
  0
VERTEX
  8
1
  6
CONTINUOUS
 10
77.865360
 20
57.611710
  0
VERTEX
  8
1
  6
CONTINUOUS
 10
81.365356
 20
57.611710
  0
SEQEND
  8
1
  6
CONTINUOUS
  0
POLYLINE
  8
1
  6
CONTINUOUS
 66
     1
  0
VERTEX
  8
1
  6
CONTINUOUS
 10
85.355360
 20
58.011710
  0
VERTEX
  8
1
  6
CONTINUOUS
 10
82.165749
 20
58.011710
  0
SEQEND
  8
1
  6
CONTINUOUS
  0
POLYLINE
  8
1
  6
CONTINUOUS
 66
     1
  0
VERTEX
  8
1
  6
CONTINUOUS
 10
82.165356
 20
57.611710
  0
VERTEX
  8
1
  6
CONTINUOUS
 10
85.355360
 20
57.611710
  0
SEQEND
  8
1
  6
CONTINUOUS
  0
POLYLINE
  8
1
  6
CONTINUOUS
 66
     1
  0
VERTEX
  8
1
  6
CONTINUOUS
 10
85.355360
 20
57.611710
  0
VERTEX
  8
1
  6
CONTINUOUS
 10
85.355360
 20
58.011710
  0
SEQEND
  8
1
  6
CONTINUOUS
  0
POLYLINE
  8
1
  6
CONTINUOUS
 66
     1
  0
VERTEX
  8
1
  6
CONTINUOUS
 10
81.765749
 20
61.811715
  0
VERTEX
  8
1
  6
CONTINUOUS
 10
81.765749
 20
58.011715
  0
SEQEND
  8
1
  6
CONTINUOUS
  0
POLYLINE
  8
1
  6
CONTINUOUS
 66
     1
  0
VERTEX
  8
1
  6
CONTINUOUS
 10
82.165749
 20
58.011715
  0
VERTEX
  8
1
  6
CONTINUOUS
 10
82.165749
 20
61.811710
  0
SEQEND
  8
1
  6
CONTINUOUS
  0
POLYLINE
  8
1
  6
CONTINUOUS
 66
     1
  0
VERTEX
  8
1
  6
CONTINUOUS
 10
81.365356
 20
62.211710
  0
VERTEX
  8
1
  6
CONTINUOUS
 10
77.865360
 20
62.211710
  0
SEQEND
  8
1
  6
CONTINUOUS
  0
POLYLINE
  8
1
  6
CONTINUOUS
 66
     1
  0
VERTEX
  8
1
  6
CONTINUOUS
 10
77.865356
 20
61.811710
  0
VERTEX
  8
1
  6
CONTINUOUS
 10
81.365356
 20
61.811710
  0
SEQEND
  8
1
  6
CONTINUOUS
  0
POLYLINE
  8
1
  6
CONTINUOUS
 66
     1
  0
VERTEX
  8
1
  6
CONTINUOUS
 10
85.355360
 20
62.211710
  0
VERTEX
  8
1
  6
CONTINUOUS
 10
82.165356
 20
62.211710
  0
SEQEND
  8
1
  6
CONTINUOUS
  0
POLYLINE
  8
1
  6
CONTINUOUS
 66
     1
  0
VERTEX
  8
1
  6
CONTINUOUS
 10
82.165749
 20
61.811710
  0
VERTEX
  8
1
  6
CONTINUOUS
 10
85.355360
 20
61.811710
  0
SEQEND
  8
1
  6
CONTINUOUS
  0
POLYLINE
  8
1
  6
CONTINUOUS
 66
     1
  0
VERTEX
  8
1
  6
CONTINUOUS
 10
85.355360
 20
55.841710
  0
VERTEX
  8
1
  6
CONTINUOUS
 10
85.355360
 20
51.071710
  0
SEQEND
  8
1
  6
CONTINUOUS
  0
POLYLINE
  8
1
  6
CONTINUOUS
 66
     1
  0
VERTEX
  8
1
  6
CONTINUOUS
 10
85.755360
 20
51.071710
  0
VERTEX
  8
1
  6
CONTINUOUS
 10
85.755360
 20
55.841710
  0
SEQEND
  8
1
  6
CONTINUOUS
  0
POLYLINE
  8
1
  6
CONTINUOUS
 66
     1
  0
VERTEX
  8
1
  6
CONTINUOUS
 10
85.355360
 20
57.611710
  0
VERTEX
  8
1
  6
CONTINUOUS
 10
85.355360
 20
56.641710
  0
SEQEND
  8
1
  6
CONTINUOUS
  0
POLYLINE
  8
1
  6
CONTINUOUS
 66
     1
  0
VERTEX
  8
1
  6
CONTINUOUS
 10
85.755360
 20
56.641710
  0
VERTEX
  8
1
  6
CONTINUOUS
 10
85.755360
 20
57.811710
  0
SEQEND
  8
1
  6
CONTINUOUS
  0
POLYLINE
  8
1
  6
CONTINUOUS
 66
     1
  0
VERTEX
  8
1
  6
CONTINUOUS
 10
85.355360
 20
61.411710
  0
VERTEX
  8
1
  6
CONTINUOUS
 10
85.355360
 20
58.011710
  0
SEQEND
  8
1
  6
CONTINUOUS
  0
POLYLINE
  8
1
  6
CONTINUOUS
 66
     1
  0
VERTEX
  8
1
  6
CONTINUOUS
 10
85.755360
 20
57.811710
  0
VERTEX
  8
1
  6
CONTINUOUS
 10
85.755360
 20
61.411710
  0
SEQEND
  8
1
  6
CONTINUOUS
  0
POLYLINE
  8
1
  6
CONTINUOUS
 66
     1
  0
VERTEX
  8
1
  6
CONTINUOUS
 10
85.355360
 20
50.671710
  0
VERTEX
  8
1
  6
CONTINUOUS
 10
77.865356
 20
50.671710
  0
SEQEND
  8
1
  6
CONTINUOUS
  0
POLYLINE
  8
1
  6
CONTINUOUS
 66
     1
  0
VERTEX
  8
1
  6
CONTINUOUS
 10
77.865360
 20
50.271710
  0
VERTEX
  8
1
  6
CONTINUOUS
 10
85.355360
 20
50.271710
  0
SEQEND
  8
1
  6
CONTINUOUS
  0
POLYLINE
  8
1
  6
ESTILO_TQS_0001
 66
     1
  0
VERTEX
  8
1
  6
ESTILO_TQS_0001
 10
91.941724
 20
16.726725
  0
VERTEX
  8
1
  6
ESTILO_TQS_0001
 10
90.990143
 20
5.486817
  0
SEQEND
  8
1
  6
ESTILO_TQS_0001
  0
POLYLINE
  8
1
  6
CONTINUOUS
 66
     1
  0
VERTEX
  8
1
  6
CONTINUOUS
 10
91.588006
 20
5.436214
  0
VERTEX
  8
1
  6
CONTINUOUS
 10
92.539586
 20
16.676122
  0
SEQEND
  8
1
  6
CONTINUOUS
  0
POLYLINE
  8
1
  6
ESTILO_TQS_0001
 66
     1
  0
VERTEX
  8
1
  6
ESTILO_TQS_0001
 10
92.981850
 20
29.012517
  0
VERTEX
  8
1
  6
ESTILO_TQS_0001
 10
92.026083
 20
17.723161
  0
SEQEND
  8
1
  6
ESTILO_TQS_0001
  0
POLYLINE
  8
1
  6
CONTINUOUS
 66
     1
  0
VERTEX
  8
1
  6
CONTINUOUS
 10
92.623945
 20
17.672558
  0
VERTEX
  8
1
  6
CONTINUOUS
 10
93.579712
 20
28.961914
  0
SEQEND
  8
1
  6
CONTINUOUS
  0
POLYLINE
  8
1
  6
ESTILO_TQS_0001
 66
     1
  0
VERTEX
  8
1
  6
ESTILO_TQS_0001
 10
93.452727
 20
34.574433
  0
VERTEX
  8
1
  6
ESTILO_TQS_0001
 10
93.066209
 20
30.008952
  0
SEQEND
  8
1
  6
ESTILO_TQS_0001
  0
POLYLINE
  8
1
  6
CONTINUOUS
 66
     1
  0
VERTEX
  8
1
  6
CONTINUOUS
 10
93.664071
 20
29.958349
  0
VERTEX
  8
1
  6
CONTINUOUS
 10
94.069663
 20
34.749125
  0
SEQEND
  8
1
  6
CONTINUOUS
  0
POLYLINE
  8
1
  6
ESTILO_TQS_0001
 66
     1
  0
VERTEX
  8
1
  6
ESTILO_TQS_0001
 10
93.974110
 20
40.732925
  0
VERTEX
  8
1
  6
ESTILO_TQS_0001
 10
93.486591
 20
34.974433
  0
SEQEND
  8
1
  6
ESTILO_TQS_0001
  0
POLYLINE
  8
1
  6
CONTINUOUS
 66
     1
  0
VERTEX
  8
1
  6
CONTINUOUS
 10
94.069663
 20
34.749125
  0
VERTEX
  8
1
  6
CONTINUOUS
 10
94.571972
 20
40.682322
  0
SEQEND
  8
1
  6
CONTINUOUS
  0
POLYLINE
  8
1
  6
CONTINUOUS
 66
     1
  0
VERTEX
  8
1
  6
CONTINUOUS
 10
94.922110
 20
51.930545
  0
VERTEX
  8
1
  6
CONTINUOUS
 10
94.024725
 20
41.330786
  0
SEQEND
  8
1
  6
CONTINUOUS
  0
POLYLINE
  8
1
  6
CONTINUOUS
 66
     1
  0
VERTEX
  8
1
  6
CONTINUOUS
 10
94.622588
 20
41.280183
  0
VERTEX
  8
1
  6
CONTINUOUS
 10
95.519973
 20
51.879942
  0
SEQEND
  8
1
  6
CONTINUOUS
  0
POLYLINE
  8
1
  6
CONTINUOUS
 66
     1
  0
VERTEX
  8
1
  6
CONTINUOUS
 10
95.521958
 20
59.015847
  0
VERTEX
  8
1
  6
CONTINUOUS
 10
94.972726
 20
52.528407
  0
SEQEND
  8
1
  6
CONTINUOUS
  0
POLYLINE
  8
1
  6
CONTINUOUS
 66
     1
  0
VERTEX
  8
1
  6
CONTINUOUS
 10
95.570588
 20
52.477803
  0
VERTEX
  8
1
  6
CONTINUOUS
 10
96.138894
 20
59.190540
  0
SEQEND
  8
1
  6
CONTINUOUS
  0
POLYLINE
  8
1
  6
CONTINUOUS
 66
     1
  0
VERTEX
  8
1
  6
CONTINUOUS
 10
95.685560
 20
60.948286
  0
VERTEX
  8
1
  6
CONTINUOUS
 10
95.555823
 20
59.415847
  0
SEQEND
  8
1
  6
CONTINUOUS
  0
POLYLINE
  8
1
  6
CONTINUOUS
 66
     1
  0
VERTEX
  8
1
  6
CONTINUOUS
 10
96.138894
 20
59.190540
  0
VERTEX
  8
1
  6
CONTINUOUS
 10
96.283423
 20
60.897683
  0
SEQEND
  8
1
  6
CONTINUOUS
  0
POLYLINE
  8
1
  6
CONTINUOUS
 66
     1
  0
VERTEX
  8
1
  6
CONTINUOUS
 10
96.139589
 20
66.311200
  0
VERTEX
  8
1
  6
CONTINUOUS
 10
95.736176
 20
61.546148
  0
SEQEND
  8
1
  6
CONTINUOUS
  0
POLYLINE
  8
1
  6
CONTINUOUS
 66
     1
  0
VERTEX
  8
1
  6
CONTINUOUS
 10
96.334038
 20
61.495544
  0
VERTEX
  8
1
  6
CONTINUOUS
 10
96.737452
 20
66.260597
  0
SEQEND
  8
1
  6
CONTINUOUS
  0
POLYLINE
  8
1
  6
CONTINUOUS
 66
     1
  0
VERTEX
  8
1
  6
CONTINUOUS
 10
88.965355
 20
66.910749
  0
VERTEX
  8
1
  6
CONTINUOUS
 10
86.568477
 20
66.910749
  0
SEQEND
  8
1
  6
CONTINUOUS
  0
POLYLINE
  8
1
  6
CONTINUOUS
 66
     1
  0
VERTEX
  8
1
  6
CONTINUOUS
 10
86.168477
 20
66.510749
  0
VERTEX
  8
1
  6
CONTINUOUS
 10
88.765355
 20
66.510749
  0
SEQEND
  8
1
  6
CONTINUOUS
  0
POLYLINE
  8
1
  6
CONTINUOUS
 66
     1
  0
VERTEX
  8
1
  6
CONTINUOUS
 10
89.278905
 20
66.910749
  0
VERTEX
  8
1
  6
CONTINUOUS
 10
88.965355
 20
66.910749
  0
SEQEND
  8
1
  6
CONTINUOUS
  0
POLYLINE
  8
1
  6
CONTINUOUS
 66
     1
  0
VERTEX
  8
1
  6
CONTINUOUS
 10
89.165355
 20
66.510749
  0
VERTEX
  8
1
  6
CONTINUOUS
 10
89.278905
 20
66.510749
  0
SEQEND
  8
1
  6
CONTINUOUS
  0
POLYLINE
  8
1
  6
CONTINUOUS
 66
     1
  0
VERTEX
  8
1
  6
CONTINUOUS
 10
96.190307
 20
66.910749
  0
VERTEX
  8
1
  6
CONTINUOUS
 10
90.138905
 20
66.910749
  0
SEQEND
  8
1
  6
CONTINUOUS
  0
POLYLINE
  8
1
  6
CONTINUOUS
 66
     1
  0
VERTEX
  8
1
  6
CONTINUOUS
 10
90.138905
 20
66.510749
  0
VERTEX
  8
1
  6
CONTINUOUS
 10
96.156451
 20
66.510749
  0
SEQEND
  8
1
  6
CONTINUOUS
  0
POLYLINE
  8
1
  6
CONTINUOUS
 66
     1
  0
VERTEX
  8
1
  6
CONTINUOUS
 10
88.765355
 20
50.715905
  0
VERTEX
  8
1
  6
CONTINUOUS
 10
88.765355
 20
41.181720
  0
SEQEND
  8
1
  6
CONTINUOUS
  0
POLYLINE
  8
1
  6
CONTINUOUS
 66
     1
  0
VERTEX
  8
1
  6
CONTINUOUS
 10
89.165355
 20
41.181720
  0
VERTEX
  8
1
  6
CONTINUOUS
 10
89.165355
 20
50.715905
  0
SEQEND
  8
1
  6
CONTINUOUS
  0
POLYLINE
  8
1
  6
CONTINUOUS
 66
     1
  0
VERTEX
  8
1
  6
CONTINUOUS
 10
88.765355
 20
59.015843
  0
VERTEX
  8
1
  6
CONTINUOUS
 10
88.765355
 20
51.115905
  0
SEQEND
  8
1
  6
CONTINUOUS
  0
POLYLINE
  8
1
  6
CONTINUOUS
 66
     1
  0
VERTEX
  8
1
  6
CONTINUOUS
 10
89.165355
 20
51.115905
  0
VERTEX
  8
1
  6
CONTINUOUS
 10
89.165355
 20
59.015843
  0
SEQEND
  8
1
  6
CONTINUOUS
  0
POLYLINE
  8
1
  6
CONTINUOUS
 66
     1
  0
VERTEX
  8
1
  6
CONTINUOUS
 10
88.765355
 20
66.510749
  0
VERTEX
  8
1
  6
CONTINUOUS
 10
88.765355
 20
59.415843
  0
SEQEND
  8
1
  6
CONTINUOUS
  0
POLYLINE
  8
1
  6
CONTINUOUS
 66
     1
  0
VERTEX
  8
1
  6
CONTINUOUS
 10
89.165355
 20
59.415847
  0
VERTEX
  8
1
  6
CONTINUOUS
 10
89.165355
 20
66.510749
  0
SEQEND
  8
1
  6
CONTINUOUS
  0
POLYLINE
  8
1
  6
CONTINUOUS
 66
     1
  0
VERTEX
  8
1
  6
CONTINUOUS
 10
89.858905
 20
59.415847
  0
VERTEX
  8
1
  6
CONTINUOUS
 10
89.165355
 20
59.415847
  0
SEQEND
  8
1
  6
CONTINUOUS
  0
POLYLINE
  8
1
  6
CONTINUOUS
 66
     1
  0
VERTEX
  8
1
  6
CONTINUOUS
 10
89.165355
 20
59.015847
  0
VERTEX
  8
1
  6
CONTINUOUS
 10
89.998905
 20
59.015847
  0
SEQEND
  8
1
  6
CONTINUOUS
  0
POLYLINE
  8
1
  6
CONTINUOUS
 66
     1
  0
VERTEX
  8
1
  6
CONTINUOUS
 10
95.555823
 20
59.415847
  0
VERTEX
  8
1
  6
CONTINUOUS
 10
90.138905
 20
59.415847
  0
SEQEND
  8
1
  6
CONTINUOUS
  0
POLYLINE
  8
1
  6
CONTINUOUS
 66
     1
  0
VERTEX
  8
1
  6
CONTINUOUS
 10
89.998905
 20
59.015847
  0
VERTEX
  8
1
  6
CONTINUOUS
 10
95.521958
 20
59.015847
  0
SEQEND
  8
1
  6
CONTINUOUS
  0
POLYLINE
  8
1
  6
CONTINUOUS
 66
     1
  0
VERTEX
  8
1
  6
CONTINUOUS
 10
89.858905
 20
66.510749
  0
VERTEX
  8
1
  6
CONTINUOUS
 10
89.858905
 20
59.415847
  0
SEQEND
  8
1
  6
CONTINUOUS
  0
POLYLINE
  8
1
  6
CONTINUOUS
 66
     1
  0
VERTEX
  8
1
  6
CONTINUOUS
 10
90.138905
 20
59.415847
  0
VERTEX
  8
1
  6
CONTINUOUS
 10
90.138905
 20
66.510749
  0
SEQEND
  8
1
  6
CONTINUOUS
  0
POLYLINE
  8
1
  6
ESTILO_TQS_0001
 66
     1
  0
VERTEX
  8
1
  6
ESTILO_TQS_0001
 10
36.033742
 20
16.089267
  0
VERTEX
  8
1
  6
ESTILO_TQS_0001
 10
36.033742
 20
5.377850
  0
SEQEND
  8
1
  6
ESTILO_TQS_0001
  0
POLYLINE
  8
1
  6
ESTILO_TQS_0001
 66
     1
  0
VERTEX
  8
1
  6
ESTILO_TQS_0001
 10
36.433742
 20
5.377850
  0
VERTEX
  8
1
  6
ESTILO_TQS_0001
 10
36.433742
 20
16.089267
  0
SEQEND
  8
1
  6
ESTILO_TQS_0001
  0
POLYLINE
  8
1
  6
ESTILO_TQS_0001
 66
     1
  0
VERTEX
  8
1
  6
ESTILO_TQS_0001
 10
36.033742
 20
25.331850
  0
VERTEX
  8
1
  6
ESTILO_TQS_0001
 10
36.033742
 20
16.489267
  0
SEQEND
  8
1
  6
ESTILO_TQS_0001
  0
POLYLINE
  8
1
  6
ESTILO_TQS_0001
 66
     1
  0
VERTEX
  8
1
  6
ESTILO_TQS_0001
 10
36.433742
 20
16.489267
  0
VERTEX
  8
1
  6
ESTILO_TQS_0001
 10
36.433742
 20
25.331850
  0
SEQEND
  8
1
  6
ESTILO_TQS_0001
  0
POLYLINE
  8
1
  6
ESTILO_TQS_0001
 66
     1
  0
VERTEX
  8
1
  6
ESTILO_TQS_0001
 10
36.033742
 20
34.574433
  0
VERTEX
  8
1
  6
ESTILO_TQS_0001
 10
36.033742
 20
25.731850
  0
SEQEND
  8
1
  6
ESTILO_TQS_0001
  0
POLYLINE
  8
1
  6
ESTILO_TQS_0001
 66
     1
  0
VERTEX
  8
1
  6
ESTILO_TQS_0001
 10
36.433742
 20
25.731850
  0
VERTEX
  8
1
  6
ESTILO_TQS_0001
 10
36.433742
 20
34.574433
  0
SEQEND
  8
1
  6
ESTILO_TQS_0001
  0
POLYLINE
  8
1
  6
ESTILO_TQS_0001
 66
     1
  0
VERTEX
  8
1
  6
ESTILO_TQS_0001
 10
36.033742
 20
40.781720
  0
VERTEX
  8
1
  6
ESTILO_TQS_0001
 10
36.033742
 20
34.974433
  0
SEQEND
  8
1
  6
ESTILO_TQS_0001
  0
POLYLINE
  8
1
  6
ESTILO_TQS_0001
 66
     1
  0
VERTEX
  8
1
  6
ESTILO_TQS_0001
 10
36.433742
 20
34.974433
  0
VERTEX
  8
1
  6
ESTILO_TQS_0001
 10
36.433742
 20
40.781720
  0
SEQEND
  8
1
  6
ESTILO_TQS_0001
  0
POLYLINE
  8
1
  6
ESTILO_TQS_0001
 66
     1
  0
VERTEX
  8
1
  6
ESTILO_TQS_0001
 10
48.633742
 20
34.974433
  0
VERTEX
  8
1
  6
ESTILO_TQS_0001
 10
36.433742
 20
34.974433
  0
SEQEND
  8
1
  6
ESTILO_TQS_0001
  0
POLYLINE
  8
1
  6
ESTILO_TQS_0001
 66
     1
  0
VERTEX
  8
1
  6
ESTILO_TQS_0001
 10
36.433742
 20
34.574433
  0
VERTEX
  8
1
  6
ESTILO_TQS_0001
 10
48.633742
 20
34.574433
  0
SEQEND
  8
1
  6
ESTILO_TQS_0001
  0
POLYLINE
  8
1
  6
ESTILO_TQS_0001
 66
     1
  0
VERTEX
  8
1
  6
ESTILO_TQS_0001
 10
61.328000
 20
34.974433
  0
VERTEX
  8
1
  6
ESTILO_TQS_0001
 10
49.033742
 20
34.974433
  0
SEQEND
  8
1
  6
ESTILO_TQS_0001
  0
POLYLINE
  8
1
  6
ESTILO_TQS_0001
 66
     1
  0
VERTEX
  8
1
  6
ESTILO_TQS_0001
 10
49.075871
 20
34.574433
  0
VERTEX
  8
1
  6
ESTILO_TQS_0001
 10
61.328000
 20
34.574433
  0
SEQEND
  8
1
  6
ESTILO_TQS_0001
  0
POLYLINE
  8
1
  6
ESTILO_TQS_0001
 66
     1
  0
VERTEX
  8
1
  6
ESTILO_TQS_0001
 10
74.617617
 20
34.974433
  0
VERTEX
  8
1
  6
ESTILO_TQS_0001
 10
61.728000
 20
34.974433
  0
SEQEND
  8
1
  6
ESTILO_TQS_0001
  0
POLYLINE
  8
1
  6
ESTILO_TQS_0001
 66
     1
  0
VERTEX
  8
1
  6
ESTILO_TQS_0001
 10
61.728000
 20
34.574433
  0
VERTEX
  8
1
  6
ESTILO_TQS_0001
 10
74.617617
 20
34.574433
  0
SEQEND
  8
1
  6
ESTILO_TQS_0001
  0
POLYLINE
  8
1
  6
ESTILO_TQS_0001
 66
     1
  0
VERTEX
  8
1
  6
ESTILO_TQS_0001
 10
85.365355
 20
34.974433
  0
VERTEX
  8
1
  6
ESTILO_TQS_0001
 10
75.017617
 20
34.974433
  0
SEQEND
  8
1
  6
ESTILO_TQS_0001
  0
POLYLINE
  8
1
  6
ESTILO_TQS_0001
 66
     1
  0
VERTEX
  8
1
  6
ESTILO_TQS_0001
 10
75.028000
 20
34.574433
  0
VERTEX
  8
1
  6
ESTILO_TQS_0001
 10
85.365355
 20
34.574433
  0
SEQEND
  8
1
  6
ESTILO_TQS_0001
  0
POLYLINE
  8
1
  6
ESTILO_TQS_0001
 66
     1
  0
VERTEX
  8
1
  6
ESTILO_TQS_0001
 10
86.291145
 20
34.974433
  0
VERTEX
  8
1
  6
ESTILO_TQS_0001
 10
85.765355
 20
34.974433
  0
SEQEND
  8
1
  6
ESTILO_TQS_0001
  0
POLYLINE
  8
1
  6
ESTILO_TQS_0001
 66
     1
  0
VERTEX
  8
1
  6
ESTILO_TQS_0001
 10
85.765355
 20
34.574433
  0
VERTEX
  8
1
  6
ESTILO_TQS_0001
 10
86.091145
 20
34.574433
  0
SEQEND
  8
1
  6
ESTILO_TQS_0001
  0
POLYLINE
  8
1
  6
ESTILO_TQS_0001
 66
     1
  0
VERTEX
  8
1
  6
ESTILO_TQS_0001
 10
93.486591
 20
34.974433
  0
VERTEX
  8
1
  6
ESTILO_TQS_0001
 10
86.291145
 20
34.974433
  0
SEQEND
  8
1
  6
ESTILO_TQS_0001
  0
POLYLINE
  8
1
  6
ESTILO_TQS_0001
 66
     1
  0
VERTEX
  8
1
  6
ESTILO_TQS_0001
 10
86.491145
 20
34.574433
  0
VERTEX
  8
1
  6
ESTILO_TQS_0001
 10
93.452727
 20
34.574433
  0
SEQEND
  8
1
  6
ESTILO_TQS_0001
  0
POLYLINE
  8
1
  6
ESTILO_TQS_0001
 66
     1
  0
VERTEX
  8
1
  6
ESTILO_TQS_0001
 10
74.628000
 20
11.389267
  0
VERTEX
  8
1
  6
ESTILO_TQS_0001
 10
74.628000
 20
5.377850
  0
SEQEND
  8
1
  6
ESTILO_TQS_0001
  0
POLYLINE
  8
1
  6
ESTILO_TQS_0001
 66
     1
  0
VERTEX
  8
1
  6
ESTILO_TQS_0001
 10
75.028000
 20
5.377850
  0
VERTEX
  8
1
  6
ESTILO_TQS_0001
 10
75.028000
 20
11.389267
  0
SEQEND
  8
1
  6
ESTILO_TQS_0001
  0
POLYLINE
  8
1
  6
ESTILO_TQS_0001
 66
     1
  0
VERTEX
  8
1
  6
ESTILO_TQS_0001
 10
74.628000
 20
16.089267
  0
VERTEX
  8
1
  6
ESTILO_TQS_0001
 10
74.628000
 20
11.789267
  0
SEQEND
  8
1
  6
ESTILO_TQS_0001
  0
POLYLINE
  8
1
  6
ESTILO_TQS_0001
 66
     1
  0
VERTEX
  8
1
  6
ESTILO_TQS_0001
 10
75.028000
 20
11.789267
  0
VERTEX
  8
1
  6
ESTILO_TQS_0001
 10
75.028000
 20
16.289267
  0
SEQEND
  8
1
  6
ESTILO_TQS_0001
  0
POLYLINE
  8
1
  6
ESTILO_TQS_0001
 66
     1
  0
VERTEX
  8
1
  6
ESTILO_TQS_0001
 10
74.628000
 20
18.789267
  0
VERTEX
  8
1
  6
ESTILO_TQS_0001
 10
74.628000
 20
16.489267
  0
SEQEND
  8
1
  6
ESTILO_TQS_0001
  0
POLYLINE
  8
1
  6
ESTILO_TQS_0001
 66
     1
  0
VERTEX
  8
1
  6
ESTILO_TQS_0001
 10
75.028000
 20
16.289267
  0
VERTEX
  8
1
  6
ESTILO_TQS_0001
 10
75.028000
 20
18.789267
  0
SEQEND
  8
1
  6
ESTILO_TQS_0001
  0
POLYLINE
  8
1
  6
ESTILO_TQS_0001
 66
     1
  0
VERTEX
  8
1
  6
ESTILO_TQS_0001
 10
74.628000
 20
27.969267
  0
VERTEX
  8
1
  6
ESTILO_TQS_0001
 10
74.628000
 20
19.189267
  0
SEQEND
  8
1
  6
ESTILO_TQS_0001
  0
POLYLINE
  8
1
  6
ESTILO_TQS_0001
 66
     1
  0
VERTEX
  8
1
  6
ESTILO_TQS_0001
 10
75.028000
 20
19.189267
  0
VERTEX
  8
1
  6
ESTILO_TQS_0001
 10
75.028000
 20
27.969267
  0
SEQEND
  8
1
  6
ESTILO_TQS_0001
  0
POLYLINE
  8
1
  6
ESTILO_TQS_0001
 66
     1
  0
VERTEX
  8
1
  6
ESTILO_TQS_0001
 10
74.628000
 20
34.574433
  0
VERTEX
  8
1
  6
ESTILO_TQS_0001
 10
74.628000
 20
28.369267
  0
SEQEND
  8
1
  6
ESTILO_TQS_0001
  0
POLYLINE
  8
1
  6
ESTILO_TQS_0001
 66
     1
  0
VERTEX
  8
1
  6
ESTILO_TQS_0001
 10
75.028000
 20
28.369267
  0
VERTEX
  8
1
  6
ESTILO_TQS_0001
 10
75.028000
 20
34.574433
  0
SEQEND
  8
1
  6
ESTILO_TQS_0001
  0
POLYLINE
  8
1
  6
CONTINUOUS
 66
     1
  0
VERTEX
  8
1
  6
CONTINUOUS
 10
75.028000
 20
5.377850
  0
VERTEX
  8
1
  6
CONTINUOUS
 10
74.628000
 20
5.377850
  0
SEQEND
  8
1
  6
CONTINUOUS
  0
POLYLINE
  8
1
  6
CONTINUOUS
 66
     1
  0
VERTEX
  8
1
  6
CONTINUOUS
 10
75.017617
 20
34.574433
  0
VERTEX
  8
1
  6
CONTINUOUS
 10
75.028000
 20
34.574433
  0
SEQEND
  8
1
  6
CONTINUOUS
  0
POLYLINE
  8
1
  6
ESTILO_TQS_0001
 66
     1
  0
VERTEX
  8
1
  6
ESTILO_TQS_0001
 10
86.091145
 20
11.389267
  0
VERTEX
  8
1
  6
ESTILO_TQS_0001
 10
86.091145
 20
5.377850
  0
SEQEND
  8
1
  6
ESTILO_TQS_0001
  0
POLYLINE
  8
1
  6
ESTILO_TQS_0001
 66
     1
  0
VERTEX
  8
1
  6
ESTILO_TQS_0001
 10
86.491145
 20
5.377850
  0
VERTEX
  8
1
  6
ESTILO_TQS_0001
 10
86.491145
 20
11.389267
  0
SEQEND
  8
1
  6
ESTILO_TQS_0001
  0
POLYLINE
  8
1
  6
ESTILO_TQS_0001
 66
     1
  0
VERTEX
  8
1
  6
ESTILO_TQS_0001
 10
86.091145
 20
22.981850
  0
VERTEX
  8
1
  6
ESTILO_TQS_0001
 10
86.091145
 20
11.789267
  0
SEQEND
  8
1
  6
ESTILO_TQS_0001
  0
POLYLINE
  8
1
  6
ESTILO_TQS_0001
 66
     1
  0
VERTEX
  8
1
  6
ESTILO_TQS_0001
 10
86.491145
 20
11.789267
  0
VERTEX
  8
1
  6
ESTILO_TQS_0001
 10
86.491145
 20
22.981850
  0
SEQEND
  8
1
  6
ESTILO_TQS_0001
  0
POLYLINE
  8
1
  6
ESTILO_TQS_0001
 66
     1
  0
VERTEX
  8
1
  6
ESTILO_TQS_0001
 10
86.091145
 20
34.574433
  0
VERTEX
  8
1
  6
ESTILO_TQS_0001
 10
86.091145
 20
23.381850
  0
SEQEND
  8
1
  6
ESTILO_TQS_0001
  0
POLYLINE
  8
1
  6
ESTILO_TQS_0001
 66
     1
  0
VERTEX
  8
1
  6
ESTILO_TQS_0001
 10
86.491145
 20
23.381850
  0
VERTEX
  8
1
  6
ESTILO_TQS_0001
 10
86.491145
 20
34.574433
  0
SEQEND
  8
1
  6
ESTILO_TQS_0001
  0
POLYLINE
  8
1
  6
ESTILO_TQS_0001
 66
     1
  0
VERTEX
  8
1
  6
ESTILO_TQS_0001
 10
47.289553
 20
16.489267
  0
VERTEX
  8
1
  6
ESTILO_TQS_0001
 10
36.433742
 20
16.489267
  0
SEQEND
  8
1
  6
ESTILO_TQS_0001
  0
POLYLINE
  8
1
  6
ESTILO_TQS_0001
 66
     1
  0
VERTEX
  8
1
  6
ESTILO_TQS_0001
 10
36.433742
 20
16.089267
  0
VERTEX
  8
1
  6
ESTILO_TQS_0001
 10
47.289553
 20
16.089267
  0
SEQEND
  8
1
  6
ESTILO_TQS_0001
  0
POLYLINE
  8
1
  6
ESTILO_TQS_0001
 66
     1
  0
VERTEX
  8
1
  6
ESTILO_TQS_0001
 10
48.675871
 20
16.489267
  0
VERTEX
  8
1
  6
ESTILO_TQS_0001
 10
47.689553
 20
16.489267
  0
SEQEND
  8
1
  6
ESTILO_TQS_0001
  0
POLYLINE
  8
1
  6
ESTILO_TQS_0001
 66
     1
  0
VERTEX
  8
1
  6
ESTILO_TQS_0001
 10
47.689553
 20
16.089267
  0
VERTEX
  8
1
  6
ESTILO_TQS_0001
 10
48.875871
 20
16.089267
  0
SEQEND
  8
1
  6
ESTILO_TQS_0001
  0
POLYLINE
  8
1
  6
ESTILO_TQS_0001
 66
     1
  0
VERTEX
  8
1
  6
ESTILO_TQS_0001
 10
61.328000
 20
16.489267
  0
VERTEX
  8
1
  6
ESTILO_TQS_0001
 10
49.075871
 20
16.489267
  0
SEQEND
  8
1
  6
ESTILO_TQS_0001
  0
POLYLINE
  8
1
  6
ESTILO_TQS_0001
 66
     1
  0
VERTEX
  8
1
  6
ESTILO_TQS_0001
 10
48.875871
 20
16.089267
  0
VERTEX
  8
1
  6
ESTILO_TQS_0001
 10
61.328000
 20
16.089267
  0
SEQEND
  8
1
  6
ESTILO_TQS_0001
  0
POLYLINE
  8
1
  6
ESTILO_TQS_0001
 66
     1
  0
VERTEX
  8
1
  6
ESTILO_TQS_0001
 10
74.628000
 20
16.489267
  0
VERTEX
  8
1
  6
ESTILO_TQS_0001
 10
61.728000
 20
16.489267
  0
SEQEND
  8
1
  6
ESTILO_TQS_0001
  0
POLYLINE
  8
1
  6
ESTILO_TQS_0001
 66
     1
  0
VERTEX
  8
1
  6
ESTILO_TQS_0001
 10
61.728000
 20
16.089267
  0
VERTEX
  8
1
  6
ESTILO_TQS_0001
 10
74.628000
 20
16.089267
  0
SEQEND
  8
1
  6
ESTILO_TQS_0001
  0
POLYLINE
  8
1
  6
ESTILO_TQS_0001
 66
     1
  0
VERTEX
  8
1
  6
ESTILO_TQS_0001
 10
48.675871
 20
21.492953
  0
VERTEX
  8
1
  6
ESTILO_TQS_0001
 10
48.675871
 20
16.489267
  0
SEQEND
  8
1
  6
ESTILO_TQS_0001
  0
POLYLINE
  8
1
  6
ESTILO_TQS_0001
 66
     1
  0
VERTEX
  8
1
  6
ESTILO_TQS_0001
 10
49.075871
 20
16.489267
  0
VERTEX
  8
1
  6
ESTILO_TQS_0001
 10
49.075871
 20
21.742953
  0
SEQEND
  8
1
  6
ESTILO_TQS_0001
  0
POLYLINE
  8
1
  6
ESTILO_TQS_0001
 66
     1
  0
VERTEX
  8
1
  6
ESTILO_TQS_0001
 10
48.675871
 20
25.331850
  0
VERTEX
  8
1
  6
ESTILO_TQS_0001
 10
48.675871
 20
21.992953
  0
SEQEND
  8
1
  6
ESTILO_TQS_0001
  0
POLYLINE
  8
1
  6
ESTILO_TQS_0001
 66
     1
  0
VERTEX
  8
1
  6
ESTILO_TQS_0001
 10
49.075871
 20
21.742953
  0
VERTEX
  8
1
  6
ESTILO_TQS_0001
 10
49.075871
 20
25.331850
  0
SEQEND
  8
1
  6
ESTILO_TQS_0001
  0
POLYLINE
  8
1
  6
ESTILO_TQS_0001
 66
     1
  0
VERTEX
  8
1
  6
ESTILO_TQS_0001
 10
48.675871
 20
25.792877
  0
VERTEX
  8
1
  6
ESTILO_TQS_0001
 10
48.675871
 20
25.731850
  0
SEQEND
  8
1
  6
ESTILO_TQS_0001
  0
POLYLINE
  8
1
  6
ESTILO_TQS_0001
 66
     1
  0
VERTEX
  8
1
  6
ESTILO_TQS_0001
 10
49.075871
 20
25.731850
  0
VERTEX
  8
1
  6
ESTILO_TQS_0001
 10
49.075871
 20
26.042877
  0
SEQEND
  8
1
  6
ESTILO_TQS_0001
  0
POLYLINE
  8
1
  6
ESTILO_TQS_0001
 66
     1
  0
VERTEX
  8
1
  6
ESTILO_TQS_0001
 10
48.675871
 20
34.574433
  0
VERTEX
  8
1
  6
ESTILO_TQS_0001
 10
48.675871
 20
26.292877
  0
SEQEND
  8
1
  6
ESTILO_TQS_0001
  0
POLYLINE
  8
1
  6
ESTILO_TQS_0001
 66
     1
  0
VERTEX
  8
1
  6
ESTILO_TQS_0001
 10
49.075871
 20
26.042877
  0
VERTEX
  8
1
  6
ESTILO_TQS_0001
 10
49.075871
 20
34.574433
  0
SEQEND
  8
1
  6
ESTILO_TQS_0001
  0
POLYLINE
  8
1
  6
CONTINUOUS
 66
     1
  0
VERTEX
  8
1
  6
CONTINUOUS
 10
49.033742
 20
34.574433
  0
VERTEX
  8
1
  6
CONTINUOUS
 10
49.075871
 20
34.574433
  0
SEQEND
  8
1
  6
CONTINUOUS
  0
POLYLINE
  8
1
  6
ESTILO_TQS_0001
 66
     1
  0
VERTEX
  8
1
  6
ESTILO_TQS_0001
 10
61.328000
 20
27.969267
  0
VERTEX
  8
1
  6
ESTILO_TQS_0001
 10
61.328000
 20
16.489267
  0
SEQEND
  8
1
  6
ESTILO_TQS_0001
  0
POLYLINE
  8
1
  6
ESTILO_TQS_0001
 66
     1
  0
VERTEX
  8
1
  6
ESTILO_TQS_0001
 10
61.728000
 20
16.489267
  0
VERTEX
  8
1
  6
ESTILO_TQS_0001
 10
61.728000
 20
27.969267
  0
SEQEND
  8
1
  6
ESTILO_TQS_0001
  0
POLYLINE
  8
1
  6
ESTILO_TQS_0001
 66
     1
  0
VERTEX
  8
1
  6
ESTILO_TQS_0001
 10
61.328000
 20
34.574433
  0
VERTEX
  8
1
  6
ESTILO_TQS_0001
 10
61.328000
 20
28.369267
  0
SEQEND
  8
1
  6
ESTILO_TQS_0001
  0
POLYLINE
  8
1
  6
ESTILO_TQS_0001
 66
     1
  0
VERTEX
  8
1
  6
ESTILO_TQS_0001
 10
61.728000
 20
28.369267
  0
VERTEX
  8
1
  6
ESTILO_TQS_0001
 10
61.728000
 20
34.574433
  0
SEQEND
  8
1
  6
ESTILO_TQS_0001
  0
POLYLINE
  8
1
  6
CONTINUOUS
 66
     1
  0
VERTEX
  8
1
  6
CONTINUOUS
 10
88.765355
 20
41.181720
  0
VERTEX
  8
1
  6
CONTINUOUS
 10
77.865360
 20
41.181720
  0
SEQEND
  8
1
  6
CONTINUOUS
  0
POLYLINE
  8
1
  6
CONTINUOUS
 66
     1
  0
VERTEX
  8
1
  6
CONTINUOUS
 10
77.865360
 20
40.781720
  0
VERTEX
  8
1
  6
CONTINUOUS
 10
88.765355
 20
40.781720
  0
SEQEND
  8
1
  6
CONTINUOUS
  0
POLYLINE
  8
1
  6
CONTINUOUS
 66
     1
  0
VERTEX
  8
1
  6
CONTINUOUS
 10
94.014739
 20
41.181720
  0
VERTEX
  8
1
  6
CONTINUOUS
 10
89.565355
 20
41.181720
  0
SEQEND
  8
1
  6
CONTINUOUS
  0
POLYLINE
  8
1
  6
CONTINUOUS
 66
     1
  0
VERTEX
  8
1
  6
CONTINUOUS
 10
89.565355
 20
40.781720
  0
VERTEX
  8
1
  6
CONTINUOUS
 10
93.980883
 20
40.781720
  0
SEQEND
  8
1
  6
CONTINUOUS
  0
POLYLINE
  8
1
  6
CONTINUOUS
 66
     1
  0
VERTEX
  8
1
  6
CONTINUOUS
 10
41.212628
 20
26.292877
  0
VERTEX
  8
1
  6
CONTINUOUS
 10
37.812623
 20
26.292877
  0
SEQEND
  8
1
  6
CONTINUOUS
  0
POLYLINE
  8
1
  6
CONTINUOUS
 66
     1
  0
VERTEX
  8
1
  6
CONTINUOUS
 10
37.812623
 20
25.792877
  0
VERTEX
  8
1
  6
CONTINUOUS
 10
41.212628
 20
25.792877
  0
SEQEND
  8
1
  6
CONTINUOUS
  0
POLYLINE
  8
1
  6
CONTINUOUS
 66
     1
  0
VERTEX
  8
1
  6
CONTINUOUS
 10
41.612628
 20
25.792877
  0
VERTEX
  8
1
  6
CONTINUOUS
 10
41.612628
 20
21.992953
  0
SEQEND
  8
1
  6
CONTINUOUS
  0
POLYLINE
  8
1
  6
CONTINUOUS
 66
     1
  0
VERTEX
  8
1
  6
CONTINUOUS
 10
42.012628
 20
21.992953
  0
VERTEX
  8
1
  6
CONTINUOUS
 10
42.012628
 20
25.792877
  0
SEQEND
  8
1
  6
CONTINUOUS
  0
POLYLINE
  8
1
  6
ESTILO_TQS_0001
 66
     1
  0
VERTEX
  8
1
  6
ESTILO_TQS_0001
 10
48.675871
 20
26.292877
  0
VERTEX
  8
1
  6
ESTILO_TQS_0001
 10
42.012628
 20
26.292877
  0
SEQEND
  8
1
  6
ESTILO_TQS_0001
  0
POLYLINE
  8
1
  6
ESTILO_TQS_0001
 66
     1
  0
VERTEX
  8
1
  6
ESTILO_TQS_0001
 10
42.012628
 20
25.792877
  0
VERTEX
  8
1
  6
ESTILO_TQS_0001
 10
48.675871
 20
25.792877
  0
SEQEND
  8
1
  6
ESTILO_TQS_0001
  0
POLYLINE
  8
1
  6
ESTILO_TQS_0001
 66
     1
  0
VERTEX
  8
1
  6
ESTILO_TQS_0001
 10
48.675871
 20
21.992953
  0
VERTEX
  8
1
  6
ESTILO_TQS_0001
 10
42.012628
 20
21.992953
  0
SEQEND
  8
1
  6
ESTILO_TQS_0001
  0
POLYLINE
  8
1
  6
ESTILO_TQS_0001
 66
     1
  0
VERTEX
  8
1
  6
ESTILO_TQS_0001
 10
42.012623
 20
21.492953
  0
VERTEX
  8
1
  6
ESTILO_TQS_0001
 10
48.675871
 20
21.492953
  0
SEQEND
  8
1
  6
ESTILO_TQS_0001
  0
POLYLINE
  8
1
  6
CONTINUOUS
 66
     1
  0
VERTEX
  8
1
  6
CONTINUOUS
 10
61.465360
 20
18.771710
  0
VERTEX
  8
1
  6
CONTINUOUS
 10
61.465360
 20
15.771710
  0
VERTEX
  8
1
  6
CONTINUOUS
 10
65.065360
 20
15.771710
  0
VERTEX
  8
1
  6
CONTINUOUS
 10
65.065360
 20
18.771710
  0
VERTEX
  8
1
  6
CONTINUOUS
 10
61.465360
 20
18.771710
  0
SEQEND
  8
1
  6
CONTINUOUS
  0
POLYLINE
  8
1
  6
CONTINUOUS
 66
     1
  0
VERTEX
  8
1
  6
CONTINUOUS
 10
43.465360
 20
18.771710
  0
VERTEX
  8
1
  6
CONTINUOUS
 10
43.465360
 20
15.771710
  0
VERTEX
  8
1
  6
CONTINUOUS
 10
47.065360
 20
15.771710
  0
VERTEX
  8
1
  6
CONTINUOUS
 10
47.065360
 20
18.771710
  0
VERTEX
  8
1
  6
CONTINUOUS
 10
43.465360
 20
18.771710
  0
SEQEND
  8
1
  6
CONTINUOUS
  0
POLYLINE
  8
1
  6
CONTINUOUS
 66
     1
  0
VERTEX
  8
1
  6
CONTINUOUS
 10
43.465360
 20
31.371710
  0
VERTEX
  8
1
  6
CONTINUOUS
 10
43.465360
 20
27.771710
  0
VERTEX
  8
1
  6
CONTINUOUS
 10
47.065360
 20
27.771710
  0
VERTEX
  8
1
  6
CONTINUOUS
 10
47.065360
 20
31.371710
  0
VERTEX
  8
1
  6
CONTINUOUS
 10
43.465360
 20
31.371710
  0
SEQEND
  8
1
  6
CONTINUOUS
  0
POLYLINE
  8
1
  6
CONTINUOUS
 66
     1
  0
VERTEX
  8
1
  6
CONTINUOUS
 10
52.465360
 20
27.171710
  0
VERTEX
  8
1
  6
CONTINUOUS
 10
52.465360
 20
24.171710
  0
VERTEX
  8
1
  6
CONTINUOUS
 10
56.065360
 20
24.171710
  0
VERTEX
  8
1
  6
CONTINUOUS
 10
56.065360
 20
27.171710
  0
VERTEX
  8
1
  6
CONTINUOUS
 10
52.465360
 20
27.171710
  0
SEQEND
  8
1
  6
CONTINUOUS
  0
POLYLINE
  8
1
  6
CONTINUOUS
 66
     1
  0
VERTEX
  8
1
  6
CONTINUOUS
 10
30.865360
 20
18.771710
  0
VERTEX
  8
1
  6
CONTINUOUS
 10
30.865360
 20
15.771710
  0
VERTEX
  8
1
  6
CONTINUOUS
 10
34.465360
 20
15.771710
  0
VERTEX
  8
1
  6
CONTINUOUS
 10
34.465360
 20
18.771710
  0
VERTEX
  8
1
  6
CONTINUOUS
 10
30.865360
 20
18.771710
  0
SEQEND
  8
1
  6
CONTINUOUS
  0
POLYLINE
  8
1
  6
CONTINUOUS
 66
     1
  0
VERTEX
  8
1
  6
CONTINUOUS
 10
30.865360
 20
30.771710
  0
VERTEX
  8
1
  6
CONTINUOUS
 10
30.865360
 20
27.771710
  0
VERTEX
  8
1
  6
CONTINUOUS
 10
34.465360
 20
27.771710
  0
VERTEX
  8
1
  6
CONTINUOUS
 10
34.465360
 20
30.771710
  0
VERTEX
  8
1
  6
CONTINUOUS
 10
30.865360
 20
30.771710
  0
SEQEND
  8
1
  6
CONTINUOUS
  0
POLYLINE
  8
1
  6
CONTINUOUS
 66
     1
  0
VERTEX
  8
1
  6
CONTINUOUS
 10
35.665360
 20
27.171710
  0
VERTEX
  8
1
  6
CONTINUOUS
 10
35.665360
 20
21.171710
  0
VERTEX
  8
1
  6
CONTINUOUS
 10
38.065360
 20
21.171710
  0
VERTEX
  8
1
  6
CONTINUOUS
 10
38.065360
 20
27.171710
  0
VERTEX
  8
1
  6
CONTINUOUS
 10
35.665360
 20
27.171710
  0
SEQEND
  8
1
  6
CONTINUOUS
  0
POLYLINE
  8
1
  6
CONTINUOUS
 66
     1
  0
VERTEX
  8
1
  6
CONTINUOUS
 10
18.265360
 20
27.171710
  0
VERTEX
  8
1
  6
CONTINUOUS
 10
18.265360
 20
19.371710
  0
VERTEX
  8
1
  6
CONTINUOUS
 10
21.865360
 20
19.371710
  0
VERTEX
  8
1
  6
CONTINUOUS
 10
21.865360
 20
27.171710
  0
VERTEX
  8
1
  6
CONTINUOUS
 10
18.265360
 20
27.171710
  0
SEQEND
  8
1
  6
CONTINUOUS
  0
POLYLINE
  8
1
  6
CONTINUOUS
 66
     1
  0
VERTEX
  8
1
  6
CONTINUOUS
 10
78.265360
 20
18.771710
  0
VERTEX
  8
1
  6
CONTINUOUS
 10
78.265360
 20
15.771710
  0
VERTEX
  8
1
  6
CONTINUOUS
 10
81.865360
 20
15.771710
  0
VERTEX
  8
1
  6
CONTINUOUS
 10
81.865360
 20
18.771710
  0
VERTEX
  8
1
  6
CONTINUOUS
 10
78.265360
 20
18.771710
  0
SEQEND
  8
1
  6
CONTINUOUS
  0
POLYLINE
  8
1
  6
CONTINUOUS
 66
     1
  0
VERTEX
  8
1
  6
CONTINUOUS
 10
78.265360
 20
31.371710
  0
VERTEX
  8
1
  6
CONTINUOUS
 10
78.265360
 20
28.371710
  0
VERTEX
  8
1
  6
CONTINUOUS
 10
81.865360
 20
28.371710
  0
VERTEX
  8
1
  6
CONTINUOUS
 10
81.865360
 20
31.371710
  0
VERTEX
  8
1
  6
CONTINUOUS
 10
78.265360
 20
31.371710
  0
SEQEND
  8
1
  6
CONTINUOUS
  0
POLYLINE
  8
1
  6
CONTINUOUS
 66
     1
  0
VERTEX
  8
1
  6
CONTINUOUS
 10
52.465360
 20
15.171710
  0
VERTEX
  8
1
  6
CONTINUOUS
 10
52.465360
 20
12.171710
  0
VERTEX
  8
1
  6
CONTINUOUS
 10
56.065360
 20
12.171710
  0
VERTEX
  8
1
  6
CONTINUOUS
 10
56.065360
 20
15.171710
  0
VERTEX
  8
1
  6
CONTINUOUS
 10
52.465360
 20
15.171710
  0
SEQEND
  8
1
  6
CONTINUOUS
  0
POLYLINE
  8
1
  6
CONTINUOUS
 66
     1
  0
VERTEX
  8
1
  6
CONTINUOUS
 10
69.865360
 20
18.771710
  0
VERTEX
  8
1
  6
CONTINUOUS
 10
69.865360
 20
15.771710
  0
VERTEX
  8
1
  6
CONTINUOUS
 10
73.465360
 20
15.771710
  0
VERTEX
  8
1
  6
CONTINUOUS
 10
73.465360
 20
18.771710
  0
VERTEX
  8
1
  6
CONTINUOUS
 10
69.865360
 20
18.771710
  0
SEQEND
  8
1
  6
CONTINUOUS
  0
POLYLINE
  8
1
  6
CONTINUOUS
 66
     1
  0
VERTEX
  8
1
  6
CONTINUOUS
 10
69.865360
 20
28.971710
  0
VERTEX
  8
1
  6
CONTINUOUS
 10
69.865360
 20
25.971710
  0
VERTEX
  8
1
  6
CONTINUOUS
 10
73.465360
 20
25.971710
  0
VERTEX
  8
1
  6
CONTINUOUS
 10
73.465360
 20
28.971710
  0
VERTEX
  8
1
  6
CONTINUOUS
 10
69.865360
 20
28.971710
  0
SEQEND
  8
1
  6
CONTINUOUS
  0
POLYLINE
  8
1
  6
CONTINUOUS
 66
     1
  0
VERTEX
  8
1
  6
CONTINUOUS
 10
61.465360
 20
28.971710
  0
VERTEX
  8
1
  6
CONTINUOUS
 10
61.465360
 20
25.971710
  0
VERTEX
  8
1
  6
CONTINUOUS
 10
65.065360
 20
25.971710
  0
VERTEX
  8
1
  6
CONTINUOUS
 10
65.065360
 20
28.971710
  0
VERTEX
  8
1
  6
CONTINUOUS
 10
61.465360
 20
28.971710
  0
SEQEND
  8
1
  6
CONTINUOUS
  0
LINE
  8
1
  6
CONTINUOUS
 10
5.023359
 20
5.377850
 11
5.023359
 21
40.781720
  0
LINE
  8
1
  6
CONTINUOUS
 10
80.265355
 20
55.211710
 11
81.945355
 21
55.211710
  0
LINE
  8
1
  6
CONTINUOUS
 10
81.945355
 20
55.211710
 11
81.945355
 21
57.611710
  0
LINE
  8
1
  6
CONTINUOUS
 10
80.265355
 20
55.211710
 11
80.265355
 21
52.971711
  0
LINE
  8
1
  6
CONTINUOUS
 10
80.265355
 20
52.971711
 11
83.067471
 21
52.971711
  0
LINE
  8
1
  6
CONTINUOUS
 10
83.067471
 20
52.971711
 11
83.067471
 21
53.531711
  0
LINE
  8
1
  6
CONTINUOUS
 10
83.067471
 20
53.531711
 11
85.355360
 21
53.531711
  0
LINE
  8
1
  6
CONTINUOUS
 10
77.665356
 20
50.671715
 11
77.665356
 21
50.671715
  0
POLYLINE
  8
1
  6
CONTINUOUS
 66
     1
  0
VERTEX
  8
1
  6
CONTINUOUS
 10
77.465356
 20
50.271715
  0
VERTEX
  8
1
  6
CONTINUOUS
 10
77.865356
 20
50.271715
  0
VERTEX
  8
1
  6
CONTINUOUS
 10
77.865356
 20
51.071715
  0
VERTEX
  8
1
  6
CONTINUOUS
 10
77.465356
 20
51.071715
  0
VERTEX
  8
1
  6
CONTINUOUS
 10
77.465356
 20
50.271715
  0
SEQEND
  8
1
  6
CONTINUOUS
  0
LINE
  8
1
  6
CONTINUOUS
 10
36.233742
 20
16.289267
 11
36.233742
 21
16.289267
  0
POLYLINE
  8
1
  6
CONTINUOUS
 66
     1
  0
VERTEX
  8
1
  6
CONTINUOUS
 10
36.033742
 20
16.089267
  0
VERTEX
  8
1
  6
CONTINUOUS
 10
36.433742
 20
16.089267
  0
VERTEX
  8
1
  6
CONTINUOUS
 10
36.433742
 20
16.489267
  0
VERTEX
  8
1
  6
CONTINUOUS
 10
36.033742
 20
16.489267
  0
VERTEX
  8
1
  6
CONTINUOUS
 10
36.033742
 20
16.089267
  0
SEQEND
  8
1
  6
CONTINUOUS
  0
LINE
  8
5
  6
CONTINUOUS
 10
36.433742
 20
16.089267
 11
36.633742
 21
15.889267
  0
LINE
  8
5
  6
CONTINUOUS
 10
36.433742
 20
16.489267
 11
36.633742
 21
16.689267
  0
LINE
  8
5
  6
CONTINUOUS
 10
36.033742
 20
16.489267
 11
35.833742
 21
16.689267
  0
LINE
  8
5
  6
CONTINUOUS
 10
36.033742
 20
16.089267
 11
35.833742
 21
15.889267
  0
LINE
  8
1
  6
CONTINUOUS
 10
61.528000
 20
16.289267
 11
61.528000
 21
16.289267
  0
POLYLINE
  8
1
  6
CONTINUOUS
 66
     1
  0
VERTEX
  8
1
  6
CONTINUOUS
 10
61.328000
 20
16.089267
  0
VERTEX
  8
1
  6
CONTINUOUS
 10
61.728000
 20
16.089267
  0
VERTEX
  8
1
  6
CONTINUOUS
 10
61.728000
 20
16.489267
  0
VERTEX
  8
1
  6
CONTINUOUS
 10
61.328000
 20
16.489267
  0
VERTEX
  8
1
  6
CONTINUOUS
 10
61.328000
 20
16.089267
  0
SEQEND
  8
1
  6
CONTINUOUS
  0
LINE
  8
5
  6
CONTINUOUS
 10
61.728000
 20
16.089267
 11
61.928000
 21
15.889267
  0
LINE
  8
5
  6
CONTINUOUS
 10
61.728000
 20
16.489267
 11
61.928000
 21
16.689267
  0
LINE
  8
5
  6
CONTINUOUS
 10
61.328000
 20
16.489267
 11
61.128000
 21
16.689267
  0
LINE
  8
5
  6
CONTINUOUS
 10
61.328000
 20
16.089267
 11
61.128000
 21
15.889267
  0
LINE
  8
1
  6
CONTINUOUS
 10
74.828000
 20
18.989267
 11
74.828000
 21
18.989267
  0
POLYLINE
  8
1
  6
CONTINUOUS
 66
     1
  0
VERTEX
  8
1
  6
CONTINUOUS
 10
74.628000
 20
18.789267
  0
VERTEX
  8
1
  6
CONTINUOUS
 10
75.028000
 20
18.789267
  0
VERTEX
  8
1
  6
CONTINUOUS
 10
75.028000
 20
19.189267
  0
VERTEX
  8
1
  6
CONTINUOUS
 10
74.628000
 20
19.189267
  0
VERTEX
  8
1
  6
CONTINUOUS
 10
74.628000
 20
18.789267
  0
SEQEND
  8
1
  6
CONTINUOUS
  0
LINE
  8
5
  6
CONTINUOUS
 10
75.028000
 20
18.789267
 11
75.228000
 21
18.589267
  0
LINE
  8
5
  6
CONTINUOUS
 10
75.028000
 20
19.189267
 11
75.228000
 21
19.389267
  0
LINE
  8
5
  6
CONTINUOUS
 10
74.628000
 20
19.189267
 11
74.428000
 21
19.389267
  0
LINE
  8
5
  6
CONTINUOUS
 10
74.628000
 20
18.789267
 11
74.428000
 21
18.589267
  0
LINE
  8
1
  6
CONTINUOUS
 10
61.528000
 20
28.169267
 11
61.528000
 21
28.169267
  0
POLYLINE
  8
1
  6
CONTINUOUS
 66
     1
  0
VERTEX
  8
1
  6
CONTINUOUS
 10
61.328000
 20
27.969267
  0
VERTEX
  8
1
  6
CONTINUOUS
 10
61.728000
 20
27.969267
  0
VERTEX
  8
1
  6
CONTINUOUS
 10
61.728000
 20
28.369267
  0
VERTEX
  8
1
  6
CONTINUOUS
 10
61.328000
 20
28.369267
  0
VERTEX
  8
1
  6
CONTINUOUS
 10
61.328000
 20
27.969267
  0
SEQEND
  8
1
  6
CONTINUOUS
  0
LINE
  8
5
  6
CONTINUOUS
 10
61.728000
 20
27.969267
 11
61.928000
 21
27.769267
  0
LINE
  8
5
  6
CONTINUOUS
 10
61.728000
 20
28.369267
 11
61.928000
 21
28.569267
  0
LINE
  8
5
  6
CONTINUOUS
 10
61.328000
 20
28.369267
 11
61.128000
 21
28.569267
  0
LINE
  8
5
  6
CONTINUOUS
 10
61.328000
 20
27.969267
 11
61.128000
 21
27.769267
  0
LINE
  8
1
  6
CONTINUOUS
 10
74.828000
 20
28.169267
 11
74.828000
 21
28.169267
  0
POLYLINE
  8
1
  6
CONTINUOUS
 66
     1
  0
VERTEX
  8
1
  6
CONTINUOUS
 10
74.628000
 20
27.969267
  0
VERTEX
  8
1
  6
CONTINUOUS
 10
75.028000
 20
27.969267
  0
VERTEX
  8
1
  6
CONTINUOUS
 10
75.028000
 20
28.369267
  0
VERTEX
  8
1
  6
CONTINUOUS
 10
74.628000
 20
28.369267
  0
VERTEX
  8
1
  6
CONTINUOUS
 10
74.628000
 20
27.969267
  0
SEQEND
  8
1
  6
CONTINUOUS
  0
LINE
  8
5
  6
CONTINUOUS
 10
75.028000
 20
27.969267
 11
75.228000
 21
27.769267
  0
LINE
  8
5
  6
CONTINUOUS
 10
75.028000
 20
28.369267
 11
75.228000
 21
28.569267
  0
LINE
  8
5
  6
CONTINUOUS
 10
74.628000
 20
28.369267
 11
74.428000
 21
28.569267
  0
LINE
  8
5
  6
CONTINUOUS
 10
74.628000
 20
27.969267
 11
74.428000
 21
27.769267
  0
LINE
  8
1
  6
CONTINUOUS
 10
61.528000
 20
34.774433
 11
61.528000
 21
34.774433
  0
POLYLINE
  8
1
  6
CONTINUOUS
 66
     1
  0
VERTEX
  8
1
  6
CONTINUOUS
 10
61.328000
 20
34.574433
  0
VERTEX
  8
1
  6
CONTINUOUS
 10
61.728000
 20
34.574433
  0
VERTEX
  8
1
  6
CONTINUOUS
 10
61.728000
 20
34.974433
  0
VERTEX
  8
1
  6
CONTINUOUS
 10
61.328000
 20
34.974433
  0
VERTEX
  8
1
  6
CONTINUOUS
 10
61.328000
 20
34.574433
  0
SEQEND
  8
1
  6
CONTINUOUS
  0
LINE
  8
5
  6
CONTINUOUS
 10
61.728000
 20
34.574433
 11
61.928000
 21
34.374433
  0
LINE
  8
5
  6
CONTINUOUS
 10
61.728000
 20
34.974433
 11
61.928000
 21
35.174433
  0
LINE
  8
5
  6
CONTINUOUS
 10
61.328000
 20
34.974433
 11
61.128000
 21
35.174433
  0
LINE
  8
5
  6
CONTINUOUS
 10
61.328000
 20
34.574433
 11
61.128000
 21
34.374433
  0
LINE
  8
1
  6
CONTINUOUS
 10
77.465360
 20
40.981720
 11
77.465360
 21
40.981720
  0
POLYLINE
  8
1
  6
CONTINUOUS
 66
     1
  0
VERTEX
  8
1
  6
CONTINUOUS
 10
77.065360
 20
40.781720
  0
VERTEX
  8
1
  6
CONTINUOUS
 10
77.865360
 20
40.781720
  0
VERTEX
  8
1
  6
CONTINUOUS
 10
77.865360
 20
41.181720
  0
VERTEX
  8
1
  6
CONTINUOUS
 10
77.065360
 20
41.181720
  0
VERTEX
  8
1
  6
CONTINUOUS
 10
77.065360
 20
40.781720
  0
SEQEND
  8
1
  6
CONTINUOUS
  0
LINE
  8
1
  6
CONTINUOUS
 10
74.828000
 20
11.589267
 11
74.828000
 21
11.589267
  0
POLYLINE
  8
1
  6
CONTINUOUS
 66
     1
  0
VERTEX
  8
1
  6
CONTINUOUS
 10
74.628000
 20
11.389267
  0
VERTEX
  8
1
  6
CONTINUOUS
 10
75.028000
 20
11.389267
  0
VERTEX
  8
1
  6
CONTINUOUS
 10
75.028000
 20
11.789267
  0
VERTEX
  8
1
  6
CONTINUOUS
 10
74.628000
 20
11.789267
  0
VERTEX
  8
1
  6
CONTINUOUS
 10
74.628000
 20
11.389267
  0
SEQEND
  8
1
  6
CONTINUOUS
  0
LINE
  8
5
  6
CONTINUOUS
 10
75.028000
 20
11.389267
 11
75.228000
 21
11.189267
  0
LINE
  8
5
  6
CONTINUOUS
 10
75.028000
 20
11.789267
 11
75.228000
 21
11.989267
  0
LINE
  8
5
  6
CONTINUOUS
 10
74.628000
 20
11.789267
 11
74.428000
 21
11.989267
  0
LINE
  8
5
  6
CONTINUOUS
 10
74.628000
 20
11.389267
 11
74.428000
 21
11.189267
  0
LINE
  8
1
  6
CONTINUOUS
 10
97.754290
 20
21.289267
 11
97.754290
 21
21.289267
  0
POLYLINE
  8
1
  6
CONTINUOUS
 66
     1
  0
VERTEX
  8
1
  6
CONTINUOUS
 10
97.554290
 20
21.089267
  0
VERTEX
  8
1
  6
CONTINUOUS
 10
97.954290
 20
21.089267
  0
VERTEX
  8
1
  6
CONTINUOUS
 10
97.954290
 20
21.489267
  0
VERTEX
  8
1
  6
CONTINUOUS
 10
97.554290
 20
21.489267
  0
VERTEX
  8
1
  6
CONTINUOUS
 10
97.554290
 20
21.089267
  0
SEQEND
  8
1
  6
CONTINUOUS
  0
LINE
  8
5
  6
CONTINUOUS
 10
97.954290
 20
21.089267
 11
98.154290
 21
20.889267
  0
LINE
  8
5
  6
CONTINUOUS
 10
97.954290
 20
21.489267
 11
98.154290
 21
21.689267
  0
LINE
  8
5
  6
CONTINUOUS
 10
97.554290
 20
21.489267
 11
97.354290
 21
21.689267
  0
LINE
  8
5
  6
CONTINUOUS
 10
97.554290
 20
21.089267
 11
97.354290
 21
20.889267
  0
LINE
  8
1
  6
CONTINUOUS
 10
97.754290
 20
31.181720
 11
97.754290
 21
31.181720
  0
POLYLINE
  8
1
  6
CONTINUOUS
 66
     1
  0
VERTEX
  8
1
  6
CONTINUOUS
 10
97.554290
 20
30.981720
  0
VERTEX
  8
1
  6
CONTINUOUS
 10
97.954290
 20
30.981720
  0
VERTEX
  8
1
  6
CONTINUOUS
 10
97.954290
 20
31.381720
  0
VERTEX
  8
1
  6
CONTINUOUS
 10
97.554290
 20
31.381720
  0
VERTEX
  8
1
  6
CONTINUOUS
 10
97.554290
 20
30.981720
  0
SEQEND
  8
1
  6
CONTINUOUS
  0
LINE
  8
5
  6
CONTINUOUS
 10
97.954290
 20
30.981720
 11
98.154290
 21
30.781720
  0
LINE
  8
5
  6
CONTINUOUS
 10
97.954290
 20
31.381720
 11
98.154290
 21
31.581720
  0
LINE
  8
5
  6
CONTINUOUS
 10
97.554290
 20
31.381720
 11
97.354290
 21
31.581720
  0
LINE
  8
5
  6
CONTINUOUS
 10
97.554290
 20
30.981720
 11
97.354290
 21
30.781720
  0
LINE
  8
1
  6
CONTINUOUS
 10
97.754290
 20
40.981720
 11
97.754290
 21
40.981720
  0
POLYLINE
  8
1
  6
CONTINUOUS
 66
     1
  0
VERTEX
  8
1
  6
CONTINUOUS
 10
97.554290
 20
40.781720
  0
VERTEX
  8
1
  6
CONTINUOUS
 10
97.954290
 20
40.781720
  0
VERTEX
  8
1
  6
CONTINUOUS
 10
97.954290
 20
41.181720
  0
VERTEX
  8
1
  6
CONTINUOUS
 10
97.554290
 20
41.181720
  0
VERTEX
  8
1
  6
CONTINUOUS
 10
97.554290
 20
40.781720
  0
SEQEND
  8
1
  6
CONTINUOUS
  0
LINE
  8
5
  6
CONTINUOUS
 10
97.954290
 20
40.781720
 11
98.154290
 21
40.581720
  0
LINE
  8
5
  6
CONTINUOUS
 10
97.954290
 20
41.181720
 11
98.154290
 21
41.381720
  0
LINE
  8
5
  6
CONTINUOUS
 10
97.554290
 20
41.181720
 11
97.354290
 21
41.381720
  0
LINE
  8
5
  6
CONTINUOUS
 10
97.554290
 20
40.781720
 11
97.354290
 21
40.581720
  0
LINE
  8
1
  6
CONTINUOUS
 10
97.754290
 20
11.589267
 11
97.754290
 21
11.589267
  0
POLYLINE
  8
1
  6
CONTINUOUS
 66
     1
  0
VERTEX
  8
1
  6
CONTINUOUS
 10
97.554290
 20
11.389267
  0
VERTEX
  8
1
  6
CONTINUOUS
 10
97.954290
 20
11.389267
  0
VERTEX
  8
1
  6
CONTINUOUS
 10
97.954290
 20
11.789267
  0
VERTEX
  8
1
  6
CONTINUOUS
 10
97.554290
 20
11.789267
  0
VERTEX
  8
1
  6
CONTINUOUS
 10
97.554290
 20
11.389267
  0
SEQEND
  8
1
  6
CONTINUOUS
  0
LINE
  8
5
  6
CONTINUOUS
 10
97.954290
 20
11.389267
 11
98.154290
 21
11.189267
  0
LINE
  8
5
  6
CONTINUOUS
 10
97.954290
 20
11.789267
 11
98.154290
 21
11.989267
  0
LINE
  8
5
  6
CONTINUOUS
 10
97.554290
 20
11.789267
 11
97.354290
 21
11.989267
  0
LINE
  8
5
  6
CONTINUOUS
 10
97.554290
 20
11.389267
 11
97.354290
 21
11.189267
  0
LINE
  8
1
  6
CONTINUOUS
 10
77.665356
 20
74.261582
 11
77.665356
 21
74.261582
  0
POLYLINE
  8
1
  6
CONTINUOUS
 66
     1
  0
VERTEX
  8
1
  6
CONTINUOUS
 10
77.465356
 20
71.911582
  0
VERTEX
  8
1
  6
CONTINUOUS
 10
77.865356
 20
71.911582
  0
VERTEX
  8
1
  6
CONTINUOUS
 10
77.865356
 20
76.611582
  0
VERTEX
  8
1
  6
CONTINUOUS
 10
77.465356
 20
76.611582
  0
VERTEX
  8
1
  6
CONTINUOUS
 10
77.465356
 20
71.911582
  0
SEQEND
  8
1
  6
CONTINUOUS
  0
LINE
  8
1
  6
CONTINUOUS
 10
86.368473
 20
74.261582
 11
86.368473
 21
74.261582
  0
POLYLINE
  8
1
  6
CONTINUOUS
 66
     1
  0
VERTEX
  8
1
  6
CONTINUOUS
 10
86.168473
 20
71.911582
  0
VERTEX
  8
1
  6
CONTINUOUS
 10
86.568473
 20
71.911582
  0
VERTEX
  8
1
  6
CONTINUOUS
 10
86.568473
 20
76.611582
  0
VERTEX
  8
1
  6
CONTINUOUS
 10
86.168473
 20
76.611582
  0
VERTEX
  8
1
  6
CONTINUOUS
 10
86.168473
 20
71.911582
  0
SEQEND
  8
1
  6
CONTINUOUS
  0
LINE
  8
1
  6
CONTINUOUS
 10
41.612628
 20
26.042877
 11
41.612628
 21
26.042877
  0
POLYLINE
  8
1
  6
CONTINUOUS
 66
     1
  0
VERTEX
  8
1
  6
CONTINUOUS
 10
41.212628
 20
25.792877
  0
VERTEX
  8
1
  6
CONTINUOUS
 10
42.012628
 20
25.792877
  0
VERTEX
  8
1
  6
CONTINUOUS
 10
42.012628
 20
26.292877
  0
VERTEX
  8
1
  6
CONTINUOUS
 10
41.212628
 20
26.292877
  0
VERTEX
  8
1
  6
CONTINUOUS
 10
41.212628
 20
25.792877
  0
SEQEND
  8
1
  6
CONTINUOUS
  0
LINE
  8
1
  6
CONTINUOUS
 10
85.555360
 20
50.671710
 11
85.555360
 21
50.671710
  0
POLYLINE
  8
1
  6
CONTINUOUS
 66
     1
  0
VERTEX
  8
1
  6
CONTINUOUS
 10
85.355360
 20
50.271710
  0
VERTEX
  8
1
  6
CONTINUOUS
 10
85.755360
 20
50.271710
  0
VERTEX
  8
1
  6
CONTINUOUS
 10
85.755360
 20
51.071710
  0
VERTEX
  8
1
  6
CONTINUOUS
 10
85.355360
 20
51.071710
  0
VERTEX
  8
1
  6
CONTINUOUS
 10
85.355360
 20
50.271710
  0
SEQEND
  8
1
  6
CONTINUOUS
  0
LINE
  8
1
  6
CONTINUOUS
 10
85.555360
 20
61.811710
 11
85.555360
 21
61.811710
  0
POLYLINE
  8
1
  6
CONTINUOUS
 66
     1
  0
VERTEX
  8
1
  6
CONTINUOUS
 10
85.355360
 20
61.411710
  0
VERTEX
  8
1
  6
CONTINUOUS
 10
85.755360
 20
61.411710
  0
VERTEX
  8
1
  6
CONTINUOUS
 10
85.755360
 20
62.211710
  0
VERTEX
  8
1
  6
CONTINUOUS
 10
85.355360
 20
62.211710
  0
VERTEX
  8
1
  6
CONTINUOUS
 10
85.355360
 20
61.411710
  0
SEQEND
  8
1
  6
CONTINUOUS
  0
LINE
  8
1
  6
CONTINUOUS
 10
81.765356
 20
62.011715
 11
81.765356
 21
62.011715
  0
POLYLINE
  8
1
  6
CONTINUOUS
 66
     1
  0
VERTEX
  8
1
  6
CONTINUOUS
 10
81.365356
 20
61.811715
  0
VERTEX
  8
1
  6
CONTINUOUS
 10
82.165356
 20
61.811715
  0
VERTEX
  8
1
  6
CONTINUOUS
 10
82.165356
 20
62.211715
  0
VERTEX
  8
1
  6
CONTINUOUS
 10
81.365356
 20
62.211715
  0
VERTEX
  8
1
  6
CONTINUOUS
 10
81.365356
 20
61.811715
  0
SEQEND
  8
1
  6
CONTINUOUS
  0
LINE
  8
1
  6
CONTINUOUS
 10
81.765356
 20
57.811715
 11
81.765356
 21
57.811715
  0
POLYLINE
  8
1
  6
CONTINUOUS
 66
     1
  0
VERTEX
  8
1
  6
CONTINUOUS
 10
81.365356
 20
57.611715
  0
VERTEX
  8
1
  6
CONTINUOUS
 10
82.165356
 20
57.611715
  0
VERTEX
  8
1
  6
CONTINUOUS
 10
82.165356
 20
58.011715
  0
VERTEX
  8
1
  6
CONTINUOUS
 10
81.365356
 20
58.011715
  0
VERTEX
  8
1
  6
CONTINUOUS
 10
81.365356
 20
57.611715
  0
SEQEND
  8
1
  6
CONTINUOUS
  0
LINE
  8
1
  6
CONTINUOUS
 10
85.555360
 20
56.241710
 11
85.555360
 21
56.241710
  0
POLYLINE
  8
1
  6
CONTINUOUS
 66
     1
  0
VERTEX
  8
1
  6
CONTINUOUS
 10
85.355360
 20
55.841710
  0
VERTEX
  8
1
  6
CONTINUOUS
 10
85.755360
 20
55.841710
  0
VERTEX
  8
1
  6
CONTINUOUS
 10
85.755360
 20
56.641710
  0
VERTEX
  8
1
  6
CONTINUOUS
 10
85.355360
 20
56.641710
  0
VERTEX
  8
1
  6
CONTINUOUS
 10
85.355360
 20
55.841710
  0
SEQEND
  8
1
  6
CONTINUOUS
  0
LINE
  8
1
  6
CONTINUOUS
 10
77.665356
 20
59.911710
 11
77.665356
 21
59.911710
  0
POLYLINE
  8
1
  6
CONTINUOUS
 66
     1
  0
VERTEX
  8
1
  6
CONTINUOUS
 10
77.465356
 20
57.611710
  0
VERTEX
  8
1
  6
CONTINUOUS
 10
77.865356
 20
57.611710
  0
VERTEX
  8
1
  6
CONTINUOUS
 10
77.865356
 20
62.211710
  0
VERTEX
  8
1
  6
CONTINUOUS
 10
77.465356
 20
62.211710
  0
VERTEX
  8
1
  6
CONTINUOUS
 10
77.465356
 20
57.611710
  0
SEQEND
  8
1
  6
CONTINUOUS
  0
LINE
  8
1
  6
CONTINUOUS
 10
91.263778
 20
5.162584
 11
91.263778
 21
5.162584
  0
POLYLINE
  8
1
  6
CONTINUOUS
 66
     1
  0
VERTEX
  8
1
  6
CONTINUOUS
 10
91.537407
 20
4.838351
  0
VERTEX
  8
1
  6
CONTINUOUS
 10
91.588010
 20
5.436213
  0
VERTEX
  8
1
  6
CONTINUOUS
 10
90.990148
 20
5.486817
  0
VERTEX
  8
1
  6
CONTINUOUS
 10
90.939545
 20
4.888954
  0
VERTEX
  8
1
  6
CONTINUOUS
 10
91.537407
 20
4.838351
  0
SEQEND
  8
1
  6
CONTINUOUS
  0
LINE
  8
1
  6
CONTINUOUS
 10
92.282498
 20
17.199670
 11
92.282498
 21
17.199670
  0
POLYLINE
  8
1
  6
CONTINUOUS
 66
     1
  0
VERTEX
  8
1
  6
CONTINUOUS
 10
92.539260
 20
16.676150
  0
VERTEX
  8
1
  6
CONTINUOUS
 10
92.623598
 20
17.672587
  0
VERTEX
  8
1
  6
CONTINUOUS
 10
92.025736
 20
17.723190
  0
VERTEX
  8
1
  6
CONTINUOUS
 10
91.941397
 20
16.726753
  0
VERTEX
  8
1
  6
CONTINUOUS
 10
92.539260
 20
16.676150
  0
SEQEND
  8
1
  6
CONTINUOUS
  0
LINE
  8
1
  6
CONTINUOUS
 10
93.322301
 20
29.485489
 11
93.322301
 21
29.485489
  0
POLYLINE
  8
1
  6
CONTINUOUS
 66
     1
  0
VERTEX
  8
1
  6
CONTINUOUS
 10
93.579062
 20
28.961969
  0
VERTEX
  8
1
  6
CONTINUOUS
 10
93.663401
 20
29.958406
  0
VERTEX
  8
1
  6
CONTINUOUS
 10
93.065539
 20
30.009009
  0
VERTEX
  8
1
  6
CONTINUOUS
 10
92.981200
 20
29.012572
  0
VERTEX
  8
1
  6
CONTINUOUS
 10
93.579062
 20
28.961969
  0
SEQEND
  8
1
  6
CONTINUOUS
  0
LINE
  8
1
  6
CONTINUOUS
 10
36.233742
 20
34.774433
 11
36.233742
 21
34.774433
  0
POLYLINE
  8
1
  6
CONTINUOUS
 66
     1
  0
VERTEX
  8
1
  6
CONTINUOUS
 10
36.033742
 20
34.574433
  0
VERTEX
  8
1
  6
CONTINUOUS
 10
36.433742
 20
34.574433
  0
VERTEX
  8
1
  6
CONTINUOUS
 10
36.433742
 20
34.974433
  0
VERTEX
  8
1
  6
CONTINUOUS
 10
36.033742
 20
34.974433
  0
VERTEX
  8
1
  6
CONTINUOUS
 10
36.033742
 20
34.574433
  0
SEQEND
  8
1
  6
CONTINUOUS
  0
LINE
  8
5
  6
CONTINUOUS
 10
36.433742
 20
34.574433
 11
36.633742
 21
34.374433
  0
LINE
  8
5
  6
CONTINUOUS
 10
36.433742
 20
34.974433
 11
36.633742
 21
35.174433
  0
LINE
  8
5
  6
CONTINUOUS
 10
36.033742
 20
34.974433
 11
35.833742
 21
35.174433
  0
LINE
  8
5
  6
CONTINUOUS
 10
36.033742
 20
34.574433
 11
35.833742
 21
34.374433
  0
LINE
  8
1
  6
CONTINUOUS
 10
96.008435
 20
61.222031
 11
96.008435
 21
61.222031
  0
POLYLINE
  8
1
  6
CONTINUOUS
 66
     1
  0
VERTEX
  8
1
  6
CONTINUOUS
 10
96.282065
 20
60.897798
  0
VERTEX
  8
1
  6
CONTINUOUS
 10
96.332668
 20
61.495660
  0
VERTEX
  8
1
  6
CONTINUOUS
 10
95.734806
 20
61.546264
  0
VERTEX
  8
1
  6
CONTINUOUS
 10
95.684202
 20
60.948401
  0
VERTEX
  8
1
  6
CONTINUOUS
 10
96.282065
 20
60.897798
  0
SEQEND
  8
1
  6
CONTINUOUS
  0
LINE
  8
1
  6
CONTINUOUS
 10
95.245195
 20
52.204272
 11
95.245195
 21
52.204272
  0
POLYLINE
  8
1
  6
CONTINUOUS
 66
     1
  0
VERTEX
  8
1
  6
CONTINUOUS
 10
95.518825
 20
51.880039
  0
VERTEX
  8
1
  6
CONTINUOUS
 10
95.569428
 20
52.477902
  0
VERTEX
  8
1
  6
CONTINUOUS
 10
94.971566
 20
52.528505
  0
VERTEX
  8
1
  6
CONTINUOUS
 10
94.920962
 20
51.930643
  0
VERTEX
  8
1
  6
CONTINUOUS
 10
95.518825
 20
51.880039
  0
SEQEND
  8
1
  6
CONTINUOUS
  0
LINE
  8
1
  6
CONTINUOUS
 10
88.965355
 20
50.915905
 11
88.965355
 21
50.915905
  0
POLYLINE
  8
1
  6
CONTINUOUS
 66
     1
  0
VERTEX
  8
1
  6
CONTINUOUS
 10
88.765355
 20
50.715905
  0
VERTEX
  8
1
  6
CONTINUOUS
 10
89.165355
 20
50.715905
  0
VERTEX
  8
1
  6
CONTINUOUS
 10
89.165355
 20
51.115905
  0
VERTEX
  8
1
  6
CONTINUOUS
 10
88.765355
 20
51.115905
  0
VERTEX
  8
1
  6
CONTINUOUS
 10
88.765355
 20
50.715905
  0
SEQEND
  8
1
  6
CONTINUOUS
  0
LINE
  8
1
  6
CONTINUOUS
 10
88.965355
 20
59.215843
 11
88.965355
 21
59.215843
  0
POLYLINE
  8
1
  6
CONTINUOUS
 66
     1
  0
VERTEX
  8
1
  6
CONTINUOUS
 10
88.765355
 20
59.015843
  0
VERTEX
  8
1
  6
CONTINUOUS
 10
89.165355
 20
59.015843
  0
VERTEX
  8
1
  6
CONTINUOUS
 10
89.165355
 20
59.415843
  0
VERTEX
  8
1
  6
CONTINUOUS
 10
88.765355
 20
59.415843
  0
VERTEX
  8
1
  6
CONTINUOUS
 10
88.765355
 20
59.015843
  0
SEQEND
  8
1
  6
CONTINUOUS
  0
LINE
  8
1
  6
CONTINUOUS
 10
10.423359
 20
5.177850
 11
10.423359
 21
5.177850
  0
POLYLINE
  8
1
  6
CONTINUOUS
 66
     1
  0
VERTEX
  8
1
  6
CONTINUOUS
 10
10.023359
 20
4.977850
  0
VERTEX
  8
1
  6
CONTINUOUS
 10
10.823359
 20
4.977850
  0
VERTEX
  8
1
  6
CONTINUOUS
 10
10.823359
 20
5.377850
  0
VERTEX
  8
1
  6
CONTINUOUS
 10
10.023359
 20
5.377850
  0
VERTEX
  8
1
  6
CONTINUOUS
 10
10.023359
 20
4.977850
  0
SEQEND
  8
1
  6
CONTINUOUS
  0
LINE
  8
1
  6
CONTINUOUS
 10
42.223359
 20
5.177850
 11
42.223359
 21
5.177850
  0
POLYLINE
  8
1
  6
CONTINUOUS
 66
     1
  0
VERTEX
  8
1
  6
CONTINUOUS
 10
41.823359
 20
4.977850
  0
VERTEX
  8
1
  6
CONTINUOUS
 10
42.623359
 20
4.977850
  0
VERTEX
  8
1
  6
CONTINUOUS
 10
42.623359
 20
5.377850
  0
VERTEX
  8
1
  6
CONTINUOUS
 10
41.823359
 20
5.377850
  0
VERTEX
  8
1
  6
CONTINUOUS
 10
41.823359
 20
4.977850
  0
SEQEND
  8
1
  6
CONTINUOUS
  0
LINE
  8
1
  6
CONTINUOUS
 10
58.223359
 20
5.177850
 11
58.223359
 21
5.177850
  0
POLYLINE
  8
1
  6
CONTINUOUS
 66
     1
  0
VERTEX
  8
1
  6
CONTINUOUS
 10
57.823359
 20
4.977850
  0
VERTEX
  8
1
  6
CONTINUOUS
 10
58.623359
 20
4.977850
  0
VERTEX
  8
1
  6
CONTINUOUS
 10
58.623359
 20
5.377850
  0
VERTEX
  8
1
  6
CONTINUOUS
 10
57.823359
 20
5.377850
  0
VERTEX
  8
1
  6
CONTINUOUS
 10
57.823359
 20
4.977850
  0
SEQEND
  8
1
  6
CONTINUOUS
  0
LINE
  8
1
  6
CONTINUOUS
 10
74.223359
 20
5.177850
 11
74.223359
 21
5.177850
  0
POLYLINE
  8
1
  6
CONTINUOUS
 66
     1
  0
VERTEX
  8
1
  6
CONTINUOUS
 10
73.823359
 20
4.977850
  0
VERTEX
  8
1
  6
CONTINUOUS
 10
74.623359
 20
4.977850
  0
VERTEX
  8
1
  6
CONTINUOUS
 10
74.623359
 20
5.377850
  0
VERTEX
  8
1
  6
CONTINUOUS
 10
73.823359
 20
5.377850
  0
VERTEX
  8
1
  6
CONTINUOUS
 10
73.823359
 20
4.977850
  0
SEQEND
  8
1
  6
CONTINUOUS
  0
LINE
  8
1
  6
CONTINUOUS
 10
10.223359
 20
20.781720
 11
10.223359
 21
20.781720
  0
POLYLINE
  8
1
  6
CONTINUOUS
 66
     1
  0
VERTEX
  8
1
  6
CONTINUOUS
 10
10.023359
 20
20.381720
  0
VERTEX
  8
1
  6
CONTINUOUS
 10
10.423359
 20
20.381720
  0
VERTEX
  8
1
  6
CONTINUOUS
 10
10.423359
 20
21.181720
  0
VERTEX
  8
1
  6
CONTINUOUS
 10
10.023359
 20
21.181720
  0
VERTEX
  8
1
  6
CONTINUOUS
 10
10.023359
 20
20.381720
  0
SEQEND
  8
1
  6
CONTINUOUS
  0
LINE
  8
1
  6
CONTINUOUS
 10
20.223359
 20
20.981720
 11
20.223359
 21
20.981720
  0
POLYLINE
  8
1
  6
CONTINUOUS
 66
     1
  0
VERTEX
  8
1
  6
CONTINUOUS
 10
19.823359
 20
20.781720
  0
VERTEX
  8
1
  6
CONTINUOUS
 10
20.623359
 20
20.781720
  0
VERTEX
  8
1
  6
CONTINUOUS
 10
20.623359
 20
21.181720
  0
VERTEX
  8
1
  6
CONTINUOUS
 10
19.823359
 20
21.181720
  0
VERTEX
  8
1
  6
CONTINUOUS
 10
19.823359
 20
20.781720
  0
SEQEND
  8
1
  6
CONTINUOUS
  0
LINE
  8
1
  6
CONTINUOUS
 10
32.533359
 20
17.182953
 11
32.533359
 21
17.182953
  0
POLYLINE
  8
1
  6
CONTINUOUS
 66
     1
  0
VERTEX
  8
1
  6
CONTINUOUS
 10
32.333359
 20
16.782953
  0
VERTEX
  8
1
  6
CONTINUOUS
 10
32.733359
 20
16.782953
  0
VERTEX
  8
1
  6
CONTINUOUS
 10
32.733359
 20
17.582953
  0
VERTEX
  8
1
  6
CONTINUOUS
 10
32.333359
 20
17.582953
  0
VERTEX
  8
1
  6
CONTINUOUS
 10
32.333359
 20
16.782953
  0
SEQEND
  8
1
  6
CONTINUOUS
  0
LINE
  8
1
  6
CONTINUOUS
 10
45.022623
 20
17.182953
 11
45.022623
 21
17.182953
  0
POLYLINE
  8
1
  6
CONTINUOUS
 66
     1
  0
VERTEX
  8
1
  6
CONTINUOUS
 10
44.822623
 20
16.782953
  0
VERTEX
  8
1
  6
CONTINUOUS
 10
45.222623
 20
16.782953
  0
VERTEX
  8
1
  6
CONTINUOUS
 10
45.222623
 20
17.582953
  0
VERTEX
  8
1
  6
CONTINUOUS
 10
44.822623
 20
17.582953
  0
VERTEX
  8
1
  6
CONTINUOUS
 10
44.822623
 20
16.782953
  0
SEQEND
  8
1
  6
CONTINUOUS
  0
LINE
  8
1
  6
CONTINUOUS
 10
53.902623
 20
13.491720
 11
53.902623
 21
13.491720
  0
POLYLINE
  8
1
  6
CONTINUOUS
 66
     1
  0
VERTEX
  8
1
  6
CONTINUOUS
 10
53.502623
 20
13.291720
  0
VERTEX
  8
1
  6
CONTINUOUS
 10
54.302623
 20
13.291720
  0
VERTEX
  8
1
  6
CONTINUOUS
 10
54.302623
 20
13.691720
  0
VERTEX
  8
1
  6
CONTINUOUS
 10
53.502623
 20
13.691720
  0
VERTEX
  8
1
  6
CONTINUOUS
 10
53.502623
 20
13.291720
  0
SEQEND
  8
1
  6
CONTINUOUS
  0
LINE
  8
1
  6
CONTINUOUS
 10
71.588672
 20
17.191720
 11
71.588672
 21
17.191720
  0
POLYLINE
  8
1
  6
CONTINUOUS
 66
     1
  0
VERTEX
  8
1
  6
CONTINUOUS
 10
71.388672
 20
16.791720
  0
VERTEX
  8
1
  6
CONTINUOUS
 10
71.788672
 20
16.791720
  0
VERTEX
  8
1
  6
CONTINUOUS
 10
71.788672
 20
17.591720
  0
VERTEX
  8
1
  6
CONTINUOUS
 10
71.388672
 20
17.591720
  0
VERTEX
  8
1
  6
CONTINUOUS
 10
71.388672
 20
16.791720
  0
SEQEND
  8
1
  6
CONTINUOUS
  0
LINE
  8
1
  6
CONTINUOUS
 10
80.243985
 20
16.991720
 11
80.243985
 21
16.991720
  0
POLYLINE
  8
1
  6
CONTINUOUS
 66
     1
  0
VERTEX
  8
1
  6
CONTINUOUS
 10
80.043985
 20
16.591720
  0
VERTEX
  8
1
  6
CONTINUOUS
 10
80.443985
 20
16.591720
  0
VERTEX
  8
1
  6
CONTINUOUS
 10
80.443985
 20
17.391720
  0
VERTEX
  8
1
  6
CONTINUOUS
 10
80.043985
 20
17.391720
  0
VERTEX
  8
1
  6
CONTINUOUS
 10
80.043985
 20
16.591720
  0
SEQEND
  8
1
  6
CONTINUOUS
  0
LINE
  8
1
  6
CONTINUOUS
 10
10.423359
 20
40.981720
 11
10.423359
 21
40.981720
  0
POLYLINE
  8
1
  6
CONTINUOUS
 66
     1
  0
VERTEX
  8
1
  6
CONTINUOUS
 10
10.023359
 20
40.781720
  0
VERTEX
  8
1
  6
CONTINUOUS
 10
10.823359
 20
40.781720
  0
VERTEX
  8
1
  6
CONTINUOUS
 10
10.823359
 20
41.181720
  0
VERTEX
  8
1
  6
CONTINUOUS
 10
10.023359
 20
41.181720
  0
VERTEX
  8
1
  6
CONTINUOUS
 10
10.023359
 20
40.781720
  0
SEQEND
  8
1
  6
CONTINUOUS
  0
LINE
  8
1
  6
CONTINUOUS
 10
26.223359
 20
40.981720
 11
26.223359
 21
40.981720
  0
POLYLINE
  8
1
  6
CONTINUOUS
 66
     1
  0
VERTEX
  8
1
  6
CONTINUOUS
 10
25.823359
 20
40.781720
  0
VERTEX
  8
1
  6
CONTINUOUS
 10
26.623359
 20
40.781720
  0
VERTEX
  8
1
  6
CONTINUOUS
 10
26.623359
 20
41.181720
  0
VERTEX
  8
1
  6
CONTINUOUS
 10
25.823359
 20
41.181720
  0
VERTEX
  8
1
  6
CONTINUOUS
 10
25.823359
 20
40.781720
  0
SEQEND
  8
1
  6
CONTINUOUS
  0
LINE
  8
1
  6
CONTINUOUS
 10
42.223359
 20
40.981720
 11
42.223359
 21
40.981720
  0
POLYLINE
  8
1
  6
CONTINUOUS
 66
     1
  0
VERTEX
  8
1
  6
CONTINUOUS
 10
41.823359
 20
40.781720
  0
VERTEX
  8
1
  6
CONTINUOUS
 10
42.623359
 20
40.781720
  0
VERTEX
  8
1
  6
CONTINUOUS
 10
42.623359
 20
41.181720
  0
VERTEX
  8
1
  6
CONTINUOUS
 10
41.823359
 20
41.181720
  0
VERTEX
  8
1
  6
CONTINUOUS
 10
41.823359
 20
40.781720
  0
SEQEND
  8
1
  6
CONTINUOUS
  0
LINE
  8
1
  6
CONTINUOUS
 10
58.223359
 20
40.981720
 11
58.223359
 21
40.981720
  0
POLYLINE
  8
1
  6
CONTINUOUS
 66
     1
  0
VERTEX
  8
1
  6
CONTINUOUS
 10
57.823359
 20
40.781720
  0
VERTEX
  8
1
  6
CONTINUOUS
 10
58.623359
 20
40.781720
  0
VERTEX
  8
1
  6
CONTINUOUS
 10
58.623359
 20
41.181720
  0
VERTEX
  8
1
  6
CONTINUOUS
 10
57.823359
 20
41.181720
  0
VERTEX
  8
1
  6
CONTINUOUS
 10
57.823359
 20
40.781720
  0
SEQEND
  8
1
  6
CONTINUOUS
  0
LINE
  8
1
  6
CONTINUOUS
 10
71.588672
 20
27.171720
 11
71.588672
 21
27.171720
  0
POLYLINE
  8
1
  6
CONTINUOUS
 66
     1
  0
VERTEX
  8
1
  6
CONTINUOUS
 10
71.388672
 20
26.771720
  0
VERTEX
  8
1
  6
CONTINUOUS
 10
71.788672
 20
26.771720
  0
VERTEX
  8
1
  6
CONTINUOUS
 10
71.788672
 20
27.571720
  0
VERTEX
  8
1
  6
CONTINUOUS
 10
71.388672
 20
27.571720
  0
VERTEX
  8
1
  6
CONTINUOUS
 10
71.388672
 20
26.771720
  0
SEQEND
  8
1
  6
CONTINUOUS
  0
LINE
  8
1
  6
CONTINUOUS
 10
80.243985
 20
29.602953
 11
80.243985
 21
29.602953
  0
POLYLINE
  8
1
  6
CONTINUOUS
 66
     1
  0
VERTEX
  8
1
  6
CONTINUOUS
 10
80.043985
 20
29.202953
  0
VERTEX
  8
1
  6
CONTINUOUS
 10
80.443985
 20
29.202953
  0
VERTEX
  8
1
  6
CONTINUOUS
 10
80.443985
 20
30.002953
  0
VERTEX
  8
1
  6
CONTINUOUS
 10
80.043985
 20
30.002953
  0
VERTEX
  8
1
  6
CONTINUOUS
 10
80.043985
 20
29.202953
  0
SEQEND
  8
1
  6
CONTINUOUS
  0
LINE
  8
1
  6
CONTINUOUS
 10
45.022623
 20
29.602953
 11
45.022623
 21
29.602953
  0
POLYLINE
  8
1
  6
CONTINUOUS
 66
     1
  0
VERTEX
  8
1
  6
CONTINUOUS
 10
44.622623
 20
29.402953
  0
VERTEX
  8
1
  6
CONTINUOUS
 10
45.422623
 20
29.402953
  0
VERTEX
  8
1
  6
CONTINUOUS
 10
45.422623
 20
29.802953
  0
VERTEX
  8
1
  6
CONTINUOUS
 10
44.622623
 20
29.802953
  0
VERTEX
  8
1
  6
CONTINUOUS
 10
44.622623
 20
29.402953
  0
SEQEND
  8
1
  6
CONTINUOUS
  0
LINE
  8
1
  6
CONTINUOUS
 10
53.902623
 20
25.982953
 11
53.902623
 21
25.982953
  0
POLYLINE
  8
1
  6
CONTINUOUS
 66
     1
  0
VERTEX
  8
1
  6
CONTINUOUS
 10
53.502623
 20
25.782953
  0
VERTEX
  8
1
  6
CONTINUOUS
 10
54.302623
 20
25.782953
  0
VERTEX
  8
1
  6
CONTINUOUS
 10
54.302623
 20
26.182953
  0
VERTEX
  8
1
  6
CONTINUOUS
 10
53.502623
 20
26.182953
  0
VERTEX
  8
1
  6
CONTINUOUS
 10
53.502623
 20
25.782953
  0
SEQEND
  8
1
  6
CONTINUOUS
  0
LINE
  8
1
  6
CONTINUOUS
 10
10.223359
 20
25.581720
 11
10.223359
 21
25.581720
  0
POLYLINE
  8
1
  6
CONTINUOUS
 66
     1
  0
VERTEX
  8
1
  6
CONTINUOUS
 10
10.023359
 20
25.181720
  0
VERTEX
  8
1
  6
CONTINUOUS
 10
10.423359
 20
25.181720
  0
VERTEX
  8
1
  6
CONTINUOUS
 10
10.423359
 20
25.981720
  0
VERTEX
  8
1
  6
CONTINUOUS
 10
10.023359
 20
25.981720
  0
VERTEX
  8
1
  6
CONTINUOUS
 10
10.023359
 20
25.181720
  0
SEQEND
  8
1
  6
CONTINUOUS
  0
LINE
  8
1
  6
CONTINUOUS
 10
20.223359
 20
25.381720
 11
20.223359
 21
25.381720
  0
POLYLINE
  8
1
  6
CONTINUOUS
 66
     1
  0
VERTEX
  8
1
  6
CONTINUOUS
 10
19.823359
 20
25.181720
  0
VERTEX
  8
1
  6
CONTINUOUS
 10
20.623359
 20
25.181720
  0
VERTEX
  8
1
  6
CONTINUOUS
 10
20.623359
 20
25.581720
  0
VERTEX
  8
1
  6
CONTINUOUS
 10
19.823359
 20
25.581720
  0
VERTEX
  8
1
  6
CONTINUOUS
 10
19.823359
 20
25.181720
  0
SEQEND
  8
1
  6
CONTINUOUS
  0
LINE
  8
1
  6
CONTINUOUS
 10
32.523359
 20
29.292953
 11
32.523359
 21
29.292953
  0
POLYLINE
  8
1
  6
CONTINUOUS
 66
     1
  0
VERTEX
  8
1
  6
CONTINUOUS
 10
32.323359
 20
28.892953
  0
VERTEX
  8
1
  6
CONTINUOUS
 10
32.723359
 20
28.892953
  0
VERTEX
  8
1
  6
CONTINUOUS
 10
32.723359
 20
29.692953
  0
VERTEX
  8
1
  6
CONTINUOUS
 10
32.323359
 20
29.692953
  0
VERTEX
  8
1
  6
CONTINUOUS
 10
32.323359
 20
28.892953
  0
SEQEND
  8
1
  6
CONTINUOUS
  0
LINE
  8
1
  6
CONTINUOUS
 10
89.708905
 20
66.710749
 11
89.708905
 21
66.710749
  0
POLYLINE
  8
1
  6
CONTINUOUS
 66
     1
  0
VERTEX
  8
1
  6
CONTINUOUS
 10
89.278905
 20
66.510749
  0
VERTEX
  8
1
  6
CONTINUOUS
 10
90.138905
 20
66.510749
  0
VERTEX
  8
1
  6
CONTINUOUS
 10
90.138905
 20
66.910749
  0
VERTEX
  8
1
  6
CONTINUOUS
 10
89.278905
 20
66.910749
  0
VERTEX
  8
1
  6
CONTINUOUS
 10
89.278905
 20
66.510749
  0
SEQEND
  8
1
  6
CONTINUOUS
  0
LINE
  8
1
  6
CONTINUOUS
 10
89.165355
 20
40.981720
 11
89.165355
 21
40.981720
  0
POLYLINE
  8
1
  6
CONTINUOUS
 66
     1
  0
VERTEX
  8
1
  6
CONTINUOUS
 10
88.765355
 20
40.781720
  0
VERTEX
  8
1
  6
CONTINUOUS
 10
89.565355
 20
40.781720
  0
VERTEX
  8
1
  6
CONTINUOUS
 10
89.565355
 20
41.181720
  0
VERTEX
  8
1
  6
CONTINUOUS
 10
88.765355
 20
41.181720
  0
VERTEX
  8
1
  6
CONTINUOUS
 10
88.765355
 20
40.781720
  0
SEQEND
  8
1
  6
CONTINUOUS
  0
LINE
  8
1
  6
CONTINUOUS
 10
74.817617
 20
34.774433
 11
74.817617
 21
34.774433
  0
POLYLINE
  8
1
  6
CONTINUOUS
 66
     1
  0
VERTEX
  8
1
  6
CONTINUOUS
 10
74.617617
 20
34.574433
  0
VERTEX
  8
1
  6
CONTINUOUS
 10
75.017617
 20
34.574433
  0
VERTEX
  8
1
  6
CONTINUOUS
 10
75.017617
 20
34.974433
  0
VERTEX
  8
1
  6
CONTINUOUS
 10
74.617617
 20
34.974433
  0
VERTEX
  8
1
  6
CONTINUOUS
 10
74.617617
 20
34.574433
  0
SEQEND
  8
1
  6
CONTINUOUS
  0
LINE
  8
5
  6
CONTINUOUS
 10
75.017617
 20
34.574433
 11
75.217617
 21
34.374433
  0
LINE
  8
5
  6
CONTINUOUS
 10
75.017617
 20
34.974433
 11
75.217617
 21
35.174433
  0
LINE
  8
5
  6
CONTINUOUS
 10
74.617617
 20
34.974433
 11
74.417617
 21
35.174433
  0
LINE
  8
5
  6
CONTINUOUS
 10
74.617617
 20
34.574433
 11
74.417617
 21
34.374433
  0
LINE
  8
1
  6
CONTINUOUS
 10
85.565355
 20
34.774433
 11
85.565355
 21
34.774433
  0
POLYLINE
  8
1
  6
CONTINUOUS
 66
     1
  0
VERTEX
  8
1
  6
CONTINUOUS
 10
85.365355
 20
34.574433
  0
VERTEX
  8
1
  6
CONTINUOUS
 10
85.765355
 20
34.574433
  0
VERTEX
  8
1
  6
CONTINUOUS
 10
85.765355
 20
34.974433
  0
VERTEX
  8
1
  6
CONTINUOUS
 10
85.365355
 20
34.974433
  0
VERTEX
  8
1
  6
CONTINUOUS
 10
85.365355
 20
34.574433
  0
SEQEND
  8
1
  6
CONTINUOUS
  0
LINE
  8
5
  6
CONTINUOUS
 10
85.765355
 20
34.574433
 11
85.965355
 21
34.374433
  0
LINE
  8
5
  6
CONTINUOUS
 10
85.765355
 20
34.974433
 11
85.965355
 21
35.174433
  0
LINE
  8
5
  6
CONTINUOUS
 10
85.365355
 20
34.974433
 11
85.165355
 21
35.174433
  0
LINE
  8
5
  6
CONTINUOUS
 10
85.365355
 20
34.574433
 11
85.165355
 21
34.374433
  0
LINE
  8
1
  6
CONTINUOUS
 10
47.489553
 20
16.289267
 11
47.489553
 21
16.289267
  0
POLYLINE
  8
1
  6
CONTINUOUS
 66
     1
  0
VERTEX
  8
1
  6
CONTINUOUS
 10
47.289553
 20
16.089267
  0
VERTEX
  8
1
  6
CONTINUOUS
 10
47.689553
 20
16.089267
  0
VERTEX
  8
1
  6
CONTINUOUS
 10
47.689553
 20
16.489267
  0
VERTEX
  8
1
  6
CONTINUOUS
 10
47.289553
 20
16.489267
  0
VERTEX
  8
1
  6
CONTINUOUS
 10
47.289553
 20
16.089267
  0
SEQEND
  8
1
  6
CONTINUOUS
  0
LINE
  8
5
  6
CONTINUOUS
 10
47.689553
 20
16.089267
 11
47.889553
 21
15.889267
  0
LINE
  8
5
  6
CONTINUOUS
 10
47.689553
 20
16.489267
 11
47.889553
 21
16.689267
  0
LINE
  8
5
  6
CONTINUOUS
 10
47.289553
 20
16.489267
 11
47.089553
 21
16.689267
  0
LINE
  8
5
  6
CONTINUOUS
 10
47.289553
 20
16.089267
 11
47.089553
 21
15.889267
  0
LINE
  8
1
  6
CONTINUOUS
 10
48.833742
 20
34.774433
 11
48.833742
 21
34.774433
  0
POLYLINE
  8
1
  6
CONTINUOUS
 66
     1
  0
VERTEX
  8
1
  6
CONTINUOUS
 10
48.633742
 20
34.574433
  0
VERTEX
  8
1
  6
CONTINUOUS
 10
49.033742
 20
34.574433
  0
VERTEX
  8
1
  6
CONTINUOUS
 10
49.033742
 20
34.974433
  0
VERTEX
  8
1
  6
CONTINUOUS
 10
48.633742
 20
34.974433
  0
VERTEX
  8
1
  6
CONTINUOUS
 10
48.633742
 20
34.574433
  0
SEQEND
  8
1
  6
CONTINUOUS
  0
LINE
  8
5
  6
CONTINUOUS
 10
49.033742
 20
34.574433
 11
49.233742
 21
34.374433
  0
LINE
  8
5
  6
CONTINUOUS
 10
49.033742
 20
34.974433
 11
49.233742
 21
35.174433
  0
LINE
  8
5
  6
CONTINUOUS
 10
48.633742
 20
34.974433
 11
48.433742
 21
35.174433
  0
LINE
  8
5
  6
CONTINUOUS
 10
48.633742
 20
34.574433
 11
48.433742
 21
34.374433
  0
LINE
  8
1
  6
CONTINUOUS
 10
36.233742
 20
25.531850
 11
36.233742
 21
25.531850
  0
POLYLINE
  8
1
  6
CONTINUOUS
 66
     1
  0
VERTEX
  8
1
  6
CONTINUOUS
 10
36.033742
 20
25.331850
  0
VERTEX
  8
1
  6
CONTINUOUS
 10
36.433742
 20
25.331850
  0
VERTEX
  8
1
  6
CONTINUOUS
 10
36.433742
 20
25.731850
  0
VERTEX
  8
1
  6
CONTINUOUS
 10
36.033742
 20
25.731850
  0
VERTEX
  8
1
  6
CONTINUOUS
 10
36.033742
 20
25.331850
  0
SEQEND
  8
1
  6
CONTINUOUS
  0
LINE
  8
5
  6
CONTINUOUS
 10
36.433742
 20
25.331850
 11
36.633742
 21
25.131850
  0
LINE
  8
5
  6
CONTINUOUS
 10
36.433742
 20
25.731850
 11
36.633742
 21
25.931850
  0
LINE
  8
5
  6
CONTINUOUS
 10
36.033742
 20
25.731850
 11
35.833742
 21
25.931850
  0
LINE
  8
5
  6
CONTINUOUS
 10
36.033742
 20
25.331850
 11
35.833742
 21
25.131850
  0
LINE
  8
1
  6
CONTINUOUS
 10
48.875871
 20
25.531850
 11
48.875871
 21
25.531850
  0
POLYLINE
  8
1
  6
CONTINUOUS
 66
     1
  0
VERTEX
  8
1
  6
CONTINUOUS
 10
48.675871
 20
25.331850
  0
VERTEX
  8
1
  6
CONTINUOUS
 10
49.075871
 20
25.331850
  0
VERTEX
  8
1
  6
CONTINUOUS
 10
49.075871
 20
25.731850
  0
VERTEX
  8
1
  6
CONTINUOUS
 10
48.675871
 20
25.731850
  0
VERTEX
  8
1
  6
CONTINUOUS
 10
48.675871
 20
25.331850
  0
SEQEND
  8
1
  6
CONTINUOUS
  0
LINE
  8
5
  6
CONTINUOUS
 10
49.075871
 20
25.331850
 11
49.275871
 21
25.131850
  0
LINE
  8
5
  6
CONTINUOUS
 10
49.075871
 20
25.731850
 11
49.275871
 21
25.931850
  0
LINE
  8
5
  6
CONTINUOUS
 10
48.675871
 20
25.731850
 11
48.475871
 21
25.931850
  0
LINE
  8
5
  6
CONTINUOUS
 10
48.675871
 20
25.331850
 11
48.475871
 21
25.131850
  0
LINE
  8
1
  6
CONTINUOUS
 10
86.291125
 20
23.181850
 11
86.291125
 21
23.181850
  0
POLYLINE
  8
1
  6
CONTINUOUS
 66
     1
  0
VERTEX
  8
1
  6
CONTINUOUS
 10
86.091125
 20
22.981850
  0
VERTEX
  8
1
  6
CONTINUOUS
 10
86.491125
 20
22.981850
  0
VERTEX
  8
1
  6
CONTINUOUS
 10
86.491125
 20
23.381850
  0
VERTEX
  8
1
  6
CONTINUOUS
 10
86.091125
 20
23.381850
  0
VERTEX
  8
1
  6
CONTINUOUS
 10
86.091125
 20
22.981850
  0
SEQEND
  8
1
  6
CONTINUOUS
  0
LINE
  8
5
  6
CONTINUOUS
 10
86.491125
 20
22.981850
 11
86.691125
 21
22.781850
  0
LINE
  8
5
  6
CONTINUOUS
 10
86.491125
 20
23.381850
 11
86.691125
 21
23.581850
  0
LINE
  8
5
  6
CONTINUOUS
 10
86.091125
 20
23.381850
 11
85.891125
 21
23.581850
  0
LINE
  8
5
  6
CONTINUOUS
 10
86.091125
 20
22.981850
 11
85.891125
 21
22.781850
  0
LINE
  8
1
  6
CONTINUOUS
 10
86.291145
 20
11.589267
 11
86.291145
 21
11.589267
  0
POLYLINE
  8
1
  6
CONTINUOUS
 66
     1
  0
VERTEX
  8
1
  6
CONTINUOUS
 10
86.091145
 20
11.389267
  0
VERTEX
  8
1
  6
CONTINUOUS
 10
86.491145
 20
11.389267
  0
VERTEX
  8
1
  6
CONTINUOUS
 10
86.491145
 20
11.789267
  0
VERTEX
  8
1
  6
CONTINUOUS
 10
86.091145
 20
11.789267
  0
VERTEX
  8
1
  6
CONTINUOUS
 10
86.091145
 20
11.389267
  0
SEQEND
  8
1
  6
CONTINUOUS
  0
LINE
  8
5
  6
CONTINUOUS
 10
86.491145
 20
11.389267
 11
86.691145
 21
11.189267
  0
LINE
  8
5
  6
CONTINUOUS
 10
86.491145
 20
11.789267
 11
86.691145
 21
11.989267
  0
LINE
  8
5
  6
CONTINUOUS
 10
86.091145
 20
11.789267
 11
85.891145
 21
11.989267
  0
LINE
  8
5
  6
CONTINUOUS
 10
86.091145
 20
11.389267
 11
85.891145
 21
11.189267
  0
LINE
  8
1
  6
CONTINUOUS
 10
96.463794
 20
66.584832
 11
96.463794
 21
66.584832
  0
POLYLINE
  8
1
  6
CONTINUOUS
 66
     1
  0
VERTEX
  8
1
  6
CONTINUOUS
 10
96.737424
 20
66.260599
  0
VERTEX
  8
1
  6
CONTINUOUS
 10
96.788027
 20
66.858461
  0
VERTEX
  8
1
  6
CONTINUOUS
 10
96.190165
 20
66.909064
  0
VERTEX
  8
1
  6
CONTINUOUS
 10
96.139561
 20
66.311202
  0
VERTEX
  8
1
  6
CONTINUOUS
 10
96.737424
 20
66.260599
  0
SEQEND
  8
1
  6
CONTINUOUS
  0
LINE
  8
1
  6
CONTINUOUS
 10
38.659290
 20
22.889619
 11
38.659290
 21
22.889619
  0
LINE
  8
1
  6
CONTINUOUS
 10
37.562623
 20
21.742953
 11
37.562623
 21
21.742953
  0
POLYLINE
  8
1
  6
CONTINUOUS
 66
     1
  0
VERTEX
  8
1
  6
CONTINUOUS
 10
37.312623
 20
21.492953
  0
VERTEX
  8
1
  6
CONTINUOUS
 10
42.012623
 20
21.492953
  0
VERTEX
  8
1
  6
CONTINUOUS
 10
42.012623
 20
21.992953
  0
VERTEX
  8
1
  6
CONTINUOUS
 10
37.812623
 20
21.992953
  0
VERTEX
  8
1
  6
CONTINUOUS
 10
37.812623
 20
26.292953
  0
VERTEX
  8
1
  6
CONTINUOUS
 10
37.312623
 20
26.292953
  0
VERTEX
  8
1
  6
CONTINUOUS
 10
37.312623
 20
21.492953
  0
SEQEND
  8
1
  6
CONTINUOUS
  0
LINE
  8
1
  6
CONTINUOUS
 10
62.982623
 20
27.371720
 11
62.982623
 21
27.371720
  0
POLYLINE
  8
1
  6
CONTINUOUS
 66
     1
  0
VERTEX
  8
1
  6
CONTINUOUS
 10
62.382623
 20
27.171720
  0
VERTEX
  8
1
  6
CONTINUOUS
 10
63.582623
 20
27.171720
  0
VERTEX
  8
1
  6
CONTINUOUS
 10
63.582623
 20
27.571720
  0
VERTEX
  8
1
  6
CONTINUOUS
 10
62.382623
 20
27.571720
  0
VERTEX
  8
1
  6
CONTINUOUS
 10
62.382623
 20
27.171720
  0
SEQEND
  8
1
  6
CONTINUOUS
  0
LINE
  8
1
  6
CONTINUOUS
 10
62.982623
 20
16.991720
 11
62.982623
 21
16.991720
  0
POLYLINE
  8
1
  6
CONTINUOUS
 66
     1
  0
VERTEX
  8
1
  6
CONTINUOUS
 10
62.582623
 20
16.791720
  0
VERTEX
  8
1
  6
CONTINUOUS
 10
63.382623
 20
16.791720
  0
VERTEX
  8
1
  6
CONTINUOUS
 10
63.382623
 20
17.191720
  0
VERTEX
  8
1
  6
CONTINUOUS
 10
62.582623
 20
17.191720
  0
VERTEX
  8
1
  6
CONTINUOUS
 10
62.582623
 20
16.791720
  0
SEQEND
  8
1
  6
CONTINUOUS
  0
LINE
  8
1
  6
CONTINUOUS
 10
26.223359
 20
5.177850
 11
26.223359
 21
5.177850
  0
POLYLINE
  8
1
  6
CONTINUOUS
 66
     1
  0
VERTEX
  8
1
  6
CONTINUOUS
 10
25.823359
 20
4.977850
  0
VERTEX
  8
1
  6
CONTINUOUS
 10
26.623359
 20
4.977850
  0
VERTEX
  8
1
  6
CONTINUOUS
 10
26.623359
 20
5.377850
  0
VERTEX
  8
1
  6
CONTINUOUS
 10
25.823359
 20
5.377850
  0
VERTEX
  8
1
  6
CONTINUOUS
 10
25.823359
 20
4.977850
  0
SEQEND
  8
1
  6
CONTINUOUS
  0
LINE
  8
1
  6
CONTINUOUS
 10
94.300967
 20
41.006333
 11
94.300967
 21
41.006333
  0
POLYLINE
  8
1
  6
CONTINUOUS
 66
     1
  0
VERTEX
  8
1
  6
CONTINUOUS
 10
94.574596
 20
40.682100
  0
VERTEX
  8
1
  6
CONTINUOUS
 10
94.625200
 20
41.279962
  0
VERTEX
  8
1
  6
CONTINUOUS
 10
94.027337
 20
41.330565
  0
VERTEX
  8
1
  6
CONTINUOUS
 10
93.976734
 20
40.732703
  0
VERTEX
  8
1
  6
CONTINUOUS
 10
94.574596
 20
40.682100
  0
SEQEND
  8
1
  6
CONTINUOUS
  0
LINE
  8
1
  6
CONTINUOUS
 10
89.165355
 20
59.415847
 11
89.858905
 21
66.510749
  0
LINE
  8
1
  6
CONTINUOUS
 10
89.165355
 20
66.510749
 11
89.858905
 21
59.415847
  0
LINE
  8
1
  6
CONTINUOUS
 10
77.865356
 20
58.011710
 11
81.765749
 21
61.811715
  0
LINE
  8
1
  6
CONTINUOUS
 10
77.865361
 20
61.811710
 11
81.765744
 21
58.011715
  0
LINE
  8
1
  6
CONTINUOUS
 10
82.158476
 20
72.311583
 11
86.168473
 21
76.211582
  0
LINE
  8
1
  6
CONTINUOUS
 10
82.158476
 20
76.211582
 11
86.168473
 21
72.311583
  0
LINE
  8
1
  6
CONTINUOUS
 10
77.865356
 20
72.311583
 11
81.878476
 21
76.211582
  0
LINE
  8
1
  6
CONTINUOUS
 10
77.865356
 20
76.211582
 11
81.878476
 21
72.311583
  0
LINE
  8
1
  6
CONTINUOUS
 10
77.865356
 20
50.671710
 11
80.347634
 21
52.971711
  0
LINE
  8
1
  6
CONTINUOUS
 10
77.865360
 20
57.611706
 11
80.455559
 21
55.211710
  0
LINE
  8
1
  6
CONTINUOUS
 10
82.873082
 20
52.971711
 11
85.355360
 21
50.671710
  0
LINE
  8
1
  6
CONTINUOUS
 10
89.165355
 20
41.181720
 11
95.521958
 21
59.015847
  0
LINE
  8
1
  6
CONTINUOUS
 10
89.165357
 20
59.015843
 11
94.301900
 21
44.604724
  0
LINE
  8
4
  6
CONTINUOUS
 10
5.563359
 20
5.177850
 11
5.563359
 21
4.277850
  0
LINE
  8
4
  6
CONTINUOUS
 10
5.495859
 20
4.277850
 11
5.630859
 21
4.277850
  0
LINE
  8
4
  6
CONTINUOUS
 10
5.495859
 20
4.277850
 11
5.563359
 21
3.377850
  0
LINE
  8
4
  6
CONTINUOUS
 10
5.630859
 20
4.277850
 11
5.563359
 21
3.377850
  0
LINE
  8
4
  6
CONTINUOUS
 10
5.428359
 20
4.547850
 11
5.698359
 21
4.547850
  0
LINE
  8
4
  6
CONTINUOUS
 10
5.563359
 20
39.681720
 11
5.563359
 21
40.881720
  0
LINE
  8
4
  6
CONTINUOUS
 10
5.683359
 20
40.881720
 11
5.443359
 21
40.881720
  0
LINE
  8
4
  6
CONTINUOUS
 10
5.683359
 20
40.857720
 11
5.443359
 21
40.857720
  0
LINE
  8
4
  6
CONTINUOUS
 10
5.683359
 20
40.833720
 11
5.443359
 21
40.833720
  0
POLYLINE
  8
4
  6
CONTINUOUS
 66
     1
  0
VERTEX
  8
4
  6
CONTINUOUS
 10
5.563359
 20
39.681720
  0
VERTEX
  8
4
  6
CONTINUOUS
 10
5.563359
 20
5.177850
  0
SEQEND
  8
4
  6
CONTINUOUS
  0
LINE
  8
4
  6
CONTINUOUS
 10
6.543359
 20
5.177850
 11
6.543359
 21
4.277850
  0
LINE
  8
4
  6
CONTINUOUS
 10
6.475859
 20
4.277850
 11
6.610859
 21
4.277850
  0
LINE
  8
4
  6
CONTINUOUS
 10
6.475859
 20
4.277850
 11
6.543359
 21
3.377850
  0
LINE
  8
4
  6
CONTINUOUS
 10
6.610859
 20
4.277850
 11
6.543359
 21
3.377850
  0
LINE
  8
4
  6
CONTINUOUS
 10
6.408359
 20
4.547850
 11
6.678359
 21
4.547850
  0
LINE
  8
4
  6
CONTINUOUS
 10
6.543359
 20
39.681720
 11
6.543359
 21
40.881720
  0
LINE
  8
4
  6
CONTINUOUS
 10
6.663359
 20
40.881720
 11
6.423359
 21
40.881720
  0
LINE
  8
4
  6
CONTINUOUS
 10
6.663359
 20
40.857720
 11
6.423359
 21
40.857720
  0
LINE
  8
4
  6
CONTINUOUS
 10
6.663359
 20
40.833720
 11
6.423359
 21
40.833720
  0
POLYLINE
  8
4
  6
CONTINUOUS
 66
     1
  0
VERTEX
  8
4
  6
CONTINUOUS
 10
6.543359
 20
39.681720
  0
VERTEX
  8
4
  6
CONTINUOUS
 10
6.543359
 20
5.177850
  0
SEQEND
  8
4
  6
CONTINUOUS
  0
LINE
  8
4
  6
CONTINUOUS
 10
7.523359
 20
5.177850
 11
7.523359
 21
4.277850
  0
LINE
  8
4
  6
CONTINUOUS
 10
7.455859
 20
4.277850
 11
7.590859
 21
4.277850
  0
LINE
  8
4
  6
CONTINUOUS
 10
7.455859
 20
4.277850
 11
7.523359
 21
3.377850
  0
LINE
  8
4
  6
CONTINUOUS
 10
7.590859
 20
4.277850
 11
7.523359
 21
3.377850
  0
LINE
  8
4
  6
CONTINUOUS
 10
7.388359
 20
4.547850
 11
7.658359
 21
4.547850
  0
LINE
  8
4
  6
CONTINUOUS
 10
7.523359
 20
39.681720
 11
7.523359
 21
40.881720
  0
LINE
  8
4
  6
CONTINUOUS
 10
7.643359
 20
40.881720
 11
7.403359
 21
40.881720
  0
LINE
  8
4
  6
CONTINUOUS
 10
7.643359
 20
40.857720
 11
7.403359
 21
40.857720
  0
LINE
  8
4
  6
CONTINUOUS
 10
7.643359
 20
40.833720
 11
7.403359
 21
40.833720
  0
POLYLINE
  8
4
  6
CONTINUOUS
 66
     1
  0
VERTEX
  8
4
  6
CONTINUOUS
 10
7.523359
 20
39.681720
  0
VERTEX
  8
4
  6
CONTINUOUS
 10
7.523359
 20
5.177850
  0
SEQEND
  8
4
  6
CONTINUOUS
  0
LINE
  8
4
  6
CONTINUOUS
 10
8.503359
 20
5.177850
 11
8.503359
 21
4.277850
  0
LINE
  8
4
  6
CONTINUOUS
 10
8.435859
 20
4.277850
 11
8.570859
 21
4.277850
  0
LINE
  8
4
  6
CONTINUOUS
 10
8.435859
 20
4.277850
 11
8.503359
 21
3.377850
  0
LINE
  8
4
  6
CONTINUOUS
 10
8.570859
 20
4.277850
 11
8.503359
 21
3.377850
  0
LINE
  8
4
  6
CONTINUOUS
 10
8.368359
 20
4.547850
 11
8.638359
 21
4.547850
  0
LINE
  8
4
  6
CONTINUOUS
 10
8.503359
 20
39.681720
 11
8.503359
 21
40.881720
  0
LINE
  8
4
  6
CONTINUOUS
 10
8.623359
 20
40.881720
 11
8.383359
 21
40.881720
  0
LINE
  8
4
  6
CONTINUOUS
 10
8.623359
 20
40.857720
 11
8.383359
 21
40.857720
  0
LINE
  8
4
  6
CONTINUOUS
 10
8.623359
 20
40.833720
 11
8.383359
 21
40.833720
  0
POLYLINE
  8
4
  6
CONTINUOUS
 66
     1
  0
VERTEX
  8
4
  6
CONTINUOUS
 10
8.503359
 20
39.681720
  0
VERTEX
  8
4
  6
CONTINUOUS
 10
8.503359
 20
5.177850
  0
SEQEND
  8
4
  6
CONTINUOUS
  0
LINE
  8
4
  6
CONTINUOUS
 10
9.483359
 20
5.177850
 11
9.483359
 21
4.277850
  0
LINE
  8
4
  6
CONTINUOUS
 10
9.415859
 20
4.277850
 11
9.550859
 21
4.277850
  0
LINE
  8
4
  6
CONTINUOUS
 10
9.415859
 20
4.277850
 11
9.483359
 21
3.377850
  0
LINE
  8
4
  6
CONTINUOUS
 10
9.550859
 20
4.277850
 11
9.483359
 21
3.377850
  0
LINE
  8
4
  6
CONTINUOUS
 10
9.348359
 20
4.547850
 11
9.618359
 21
4.547850
  0
LINE
  8
4
  6
CONTINUOUS
 10
9.483359
 20
39.681720
 11
9.483359
 21
40.881720
  0
LINE
  8
4
  6
CONTINUOUS
 10
9.603359
 20
40.881720
 11
9.363359
 21
40.881720
  0
LINE
  8
4
  6
CONTINUOUS
 10
9.603359
 20
40.857720
 11
9.363359
 21
40.857720
  0
LINE
  8
4
  6
CONTINUOUS
 10
9.603359
 20
40.833720
 11
9.363359
 21
40.833720
  0
POLYLINE
  8
4
  6
CONTINUOUS
 66
     1
  0
VERTEX
  8
4
  6
CONTINUOUS
 10
9.483359
 20
39.681720
  0
VERTEX
  8
4
  6
CONTINUOUS
 10
9.483359
 20
5.177850
  0
SEQEND
  8
4
  6
CONTINUOUS
  0
LINE
  8
4
  6
CONTINUOUS
 10
19.573359
 20
5.177850
 11
19.573359
 21
4.277850
  0
LINE
  8
4
  6
CONTINUOUS
 10
19.438359
 20
4.727850
 11
19.708359
 21
4.727850
  0
LINE
  8
4
  6
CONTINUOUS
 10
19.438359
 20
4.637850
 11
19.708359
 21
4.637850
  0
LINE
  8
4
  6
CONTINUOUS
 10
19.438359
 20
4.547850
 11
19.708359
 21
4.547850
  0
LINE
  8
4
  6
CONTINUOUS
 10
19.438359
 20
4.457850
 11
19.708359
 21
4.457850
  0
LINE
  8
4
  6
CONTINUOUS
 10
19.505859
 20
4.277850
 11
19.640859
 21
4.277850
  0
LINE
  8
4
  6
CONTINUOUS
 10
19.505859
 20
4.277850
 11
19.573359
 21
3.377850
  0
LINE
  8
4
  6
CONTINUOUS
 10
19.640859
 20
4.277850
 11
19.573359
 21
3.377850
  0
LINE
  8
4
  6
CONTINUOUS
 10
19.573359
 20
39.681720
 11
19.573359
 21
40.881720
  0
LINE
  8
4
  6
CONTINUOUS
 10
19.693359
 20
40.881720
 11
19.453359
 21
40.881720
  0
LINE
  8
4
  6
CONTINUOUS
 10
19.693359
 20
40.857720
 11
19.453359
 21
40.857720
  0
LINE
  8
4
  6
CONTINUOUS
 10
19.693359
 20
40.833720
 11
19.453359
 21
40.833720
  0
POLYLINE
  8
4
  6
CONTINUOUS
 66
     1
  0
VERTEX
  8
4
  6
CONTINUOUS
 10
19.573359
 20
39.681720
  0
VERTEX
  8
4
  6
CONTINUOUS
 10
19.573359
 20
5.177850
  0
SEQEND
  8
4
  6
CONTINUOUS
  0
LINE
  8
4
  6
CONTINUOUS
 10
19.833359
 20
5.177850
 11
19.833359
 21
4.277850
  0
LINE
  8
4
  6
CONTINUOUS
 10
19.698359
 20
4.727850
 11
19.968359
 21
4.727850
  0
LINE
  8
4
  6
CONTINUOUS
 10
19.698359
 20
4.637850
 11
19.968359
 21
4.637850
  0
LINE
  8
4
  6
CONTINUOUS
 10
19.698359
 20
4.547850
 11
19.968359
 21
4.547850
  0
LINE
  8
4
  6
CONTINUOUS
 10
19.698359
 20
4.457850
 11
19.968359
 21
4.457850
  0
LINE
  8
4
  6
CONTINUOUS
 10
19.765859
 20
4.277850
 11
19.900859
 21
4.277850
  0
LINE
  8
4
  6
CONTINUOUS
 10
19.765859
 20
4.277850
 11
19.833359
 21
3.377850
  0
LINE
  8
4
  6
CONTINUOUS
 10
19.900859
 20
4.277850
 11
19.833359
 21
3.377850
  0
LINE
  8
4
  6
CONTINUOUS
 10
19.833359
 20
39.681720
 11
19.833359
 21
40.881720
  0
LINE
  8
4
  6
CONTINUOUS
 10
19.953359
 20
40.881720
 11
19.713359
 21
40.881720
  0
LINE
  8
4
  6
CONTINUOUS
 10
19.953359
 20
40.857720
 11
19.713359
 21
40.857720
  0
LINE
  8
4
  6
CONTINUOUS
 10
19.953359
 20
40.833720
 11
19.713359
 21
40.833720
  0
POLYLINE
  8
4
  6
CONTINUOUS
 66
     1
  0
VERTEX
  8
4
  6
CONTINUOUS
 10
19.833359
 20
39.681720
  0
VERTEX
  8
4
  6
CONTINUOUS
 10
19.833359
 20
5.177850
  0
SEQEND
  8
4
  6
CONTINUOUS
  0
LINE
  8
4
  6
CONTINUOUS
 10
20.093359
 20
5.177850
 11
20.093359
 21
4.277850
  0
LINE
  8
4
  6
CONTINUOUS
 10
19.958359
 20
4.727850
 11
20.228359
 21
4.727850
  0
LINE
  8
4
  6
CONTINUOUS
 10
19.958359
 20
4.637850
 11
20.228359
 21
4.637850
  0
LINE
  8
4
  6
CONTINUOUS
 10
19.958359
 20
4.547850
 11
20.228359
 21
4.547850
  0
LINE
  8
4
  6
CONTINUOUS
 10
19.958359
 20
4.457850
 11
20.228359
 21
4.457850
  0
LINE
  8
4
  6
CONTINUOUS
 10
20.025859
 20
4.277850
 11
20.160859
 21
4.277850
  0
LINE
  8
4
  6
CONTINUOUS
 10
20.025859
 20
4.277850
 11
20.093359
 21
3.377850
  0
LINE
  8
4
  6
CONTINUOUS
 10
20.160859
 20
4.277850
 11
20.093359
 21
3.377850
  0
LINE
  8
4
  6
CONTINUOUS
 10
20.093359
 20
39.681720
 11
20.093359
 21
40.881720
  0
LINE
  8
4
  6
CONTINUOUS
 10
20.213359
 20
40.881720
 11
19.973359
 21
40.881720
  0
LINE
  8
4
  6
CONTINUOUS
 10
20.213359
 20
40.857720
 11
19.973359
 21
40.857720
  0
LINE
  8
4
  6
CONTINUOUS
 10
20.213359
 20
40.833720
 11
19.973359
 21
40.833720
  0
POLYLINE
  8
4
  6
CONTINUOUS
 66
     1
  0
VERTEX
  8
4
  6
CONTINUOUS
 10
20.093359
 20
39.681720
  0
VERTEX
  8
4
  6
CONTINUOUS
 10
20.093359
 20
5.177850
  0
SEQEND
  8
4
  6
CONTINUOUS
  0
LINE
  8
4
  6
CONTINUOUS
 10
20.353359
 20
5.177850
 11
20.353359
 21
4.277850
  0
LINE
  8
4
  6
CONTINUOUS
 10
20.218359
 20
4.727850
 11
20.488359
 21
4.727850
  0
LINE
  8
4
  6
CONTINUOUS
 10
20.218359
 20
4.637850
 11
20.488359
 21
4.637850
  0
LINE
  8
4
  6
CONTINUOUS
 10
20.218359
 20
4.547850
 11
20.488359
 21
4.547850
  0
LINE
  8
4
  6
CONTINUOUS
 10
20.218359
 20
4.457850
 11
20.488359
 21
4.457850
  0
LINE
  8
4
  6
CONTINUOUS
 10
20.285859
 20
4.277850
 11
20.420859
 21
4.277850
  0
LINE
  8
4
  6
CONTINUOUS
 10
20.285859
 20
4.277850
 11
20.353359
 21
3.377850
  0
LINE
  8
4
  6
CONTINUOUS
 10
20.420859
 20
4.277850
 11
20.353359
 21
3.377850
  0
LINE
  8
4
  6
CONTINUOUS
 10
20.353359
 20
39.681720
 11
20.353359
 21
40.881720
  0
LINE
  8
4
  6
CONTINUOUS
 10
20.473359
 20
40.881720
 11
20.233359
 21
40.881720
  0
LINE
  8
4
  6
CONTINUOUS
 10
20.473359
 20
40.857720
 11
20.233359
 21
40.857720
  0
LINE
  8
4
  6
CONTINUOUS
 10
20.473359
 20
40.833720
 11
20.233359
 21
40.833720
  0
POLYLINE
  8
4
  6
CONTINUOUS
 66
     1
  0
VERTEX
  8
4
  6
CONTINUOUS
 10
20.353359
 20
39.681720
  0
VERTEX
  8
4
  6
CONTINUOUS
 10
20.353359
 20
5.177850
  0
SEQEND
  8
4
  6
CONTINUOUS
  0
LINE
  8
4
  6
CONTINUOUS
 10
20.613359
 20
5.177850
 11
20.613359
 21
4.277850
  0
LINE
  8
4
  6
CONTINUOUS
 10
20.478359
 20
4.727850
 11
20.748359
 21
4.727850
  0
LINE
  8
4
  6
CONTINUOUS
 10
20.478359
 20
4.637850
 11
20.748359
 21
4.637850
  0
LINE
  8
4
  6
CONTINUOUS
 10
20.478359
 20
4.547850
 11
20.748359
 21
4.547850
  0
LINE
  8
4
  6
CONTINUOUS
 10
20.478359
 20
4.457850
 11
20.748359
 21
4.457850
  0
LINE
  8
4
  6
CONTINUOUS
 10
20.545859
 20
4.277850
 11
20.680859
 21
4.277850
  0
LINE
  8
4
  6
CONTINUOUS
 10
20.545859
 20
4.277850
 11
20.613359
 21
3.377850
  0
LINE
  8
4
  6
CONTINUOUS
 10
20.680859
 20
4.277850
 11
20.613359
 21
3.377850
  0
LINE
  8
4
  6
CONTINUOUS
 10
20.613359
 20
39.681720
 11
20.613359
 21
40.881720
  0
LINE
  8
4
  6
CONTINUOUS
 10
20.733359
 20
40.881720
 11
20.493359
 21
40.881720
  0
LINE
  8
4
  6
CONTINUOUS
 10
20.733359
 20
40.857720
 11
20.493359
 21
40.857720
  0
LINE
  8
4
  6
CONTINUOUS
 10
20.733359
 20
40.833720
 11
20.493359
 21
40.833720
  0
POLYLINE
  8
4
  6
CONTINUOUS
 66
     1
  0
VERTEX
  8
4
  6
CONTINUOUS
 10
20.613359
 20
39.681720
  0
VERTEX
  8
4
  6
CONTINUOUS
 10
20.613359
 20
5.177850
  0
SEQEND
  8
4
  6
CONTINUOUS
  0
LINE
  8
4
  6
CONTINUOUS
 10
20.873359
 20
5.177850
 11
20.873359
 21
4.277850
  0
LINE
  8
4
  6
CONTINUOUS
 10
20.738359
 20
4.727850
 11
21.008359
 21
4.727850
  0
LINE
  8
4
  6
CONTINUOUS
 10
20.738359
 20
4.637850
 11
21.008359
 21
4.637850
  0
LINE
  8
4
  6
CONTINUOUS
 10
20.738359
 20
4.547850
 11
21.008359
 21
4.547850
  0
LINE
  8
4
  6
CONTINUOUS
 10
20.738359
 20
4.457850
 11
21.008359
 21
4.457850
  0
LINE
  8
4
  6
CONTINUOUS
 10
20.805859
 20
4.277850
 11
20.940859
 21
4.277850
  0
LINE
  8
4
  6
CONTINUOUS
 10
20.805859
 20
4.277850
 11
20.873359
 21
3.377850
  0
LINE
  8
4
  6
CONTINUOUS
 10
20.940859
 20
4.277850
 11
20.873359
 21
3.377850
  0
LINE
  8
4
  6
CONTINUOUS
 10
20.873359
 20
39.681720
 11
20.873359
 21
40.881720
  0
LINE
  8
4
  6
CONTINUOUS
 10
20.993359
 20
40.881720
 11
20.753359
 21
40.881720
  0
LINE
  8
4
  6
CONTINUOUS
 10
20.993359
 20
40.857720
 11
20.753359
 21
40.857720
  0
LINE
  8
4
  6
CONTINUOUS
 10
20.993359
 20
40.833720
 11
20.753359
 21
40.833720
  0
POLYLINE
  8
4
  6
CONTINUOUS
 66
     1
  0
VERTEX
  8
4
  6
CONTINUOUS
 10
20.873359
 20
39.681720
  0
VERTEX
  8
4
  6
CONTINUOUS
 10
20.873359
 20
5.177850
  0
SEQEND
  8
4
  6
CONTINUOUS
  0
LINE
  8
4
  6
CONTINUOUS
 10
31.883359
 20
5.177850
 11
31.883359
 21
4.277850
  0
LINE
  8
4
  6
CONTINUOUS
 10
31.748359
 20
4.727850
 11
32.018359
 21
4.727850
  0
LINE
  8
4
  6
CONTINUOUS
 10
31.748359
 20
4.637850
 11
32.018359
 21
4.637850
  0
LINE
  8
4
  6
CONTINUOUS
 10
31.748359
 20
4.547850
 11
32.018359
 21
4.547850
  0
LINE
  8
4
  6
CONTINUOUS
 10
31.748359
 20
4.457850
 11
32.018359
 21
4.457850
  0
LINE
  8
4
  6
CONTINUOUS
 10
31.815859
 20
4.277850
 11
31.950859
 21
4.277850
  0
LINE
  8
4
  6
CONTINUOUS
 10
31.815859
 20
4.277850
 11
31.883359
 21
3.377850
  0
LINE
  8
4
  6
CONTINUOUS
 10
31.950859
 20
4.277850
 11
31.883359
 21
3.377850
  0
LINE
  8
4
  6
CONTINUOUS
 10
31.883359
 20
39.681720
 11
31.883359
 21
40.881720
  0
LINE
  8
4
  6
CONTINUOUS
 10
32.003359
 20
40.881720
 11
31.763359
 21
40.881720
  0
LINE
  8
4
  6
CONTINUOUS
 10
32.003359
 20
40.857720
 11
31.763359
 21
40.857720
  0
LINE
  8
4
  6
CONTINUOUS
 10
32.003359
 20
40.833720
 11
31.763359
 21
40.833720
  0
POLYLINE
  8
4
  6
CONTINUOUS
 66
     1
  0
VERTEX
  8
4
  6
CONTINUOUS
 10
31.883359
 20
39.681720
  0
VERTEX
  8
4
  6
CONTINUOUS
 10
31.883359
 20
5.177850
  0
SEQEND
  8
4
  6
CONTINUOUS
  0
LINE
  8
4
  6
CONTINUOUS
 10
32.143359
 20
5.177850
 11
32.143359
 21
4.277850
  0
LINE
  8
4
  6
CONTINUOUS
 10
32.008359
 20
4.727850
 11
32.278359
 21
4.727850
  0
LINE
  8
4
  6
CONTINUOUS
 10
32.008359
 20
4.637850
 11
32.278359
 21
4.637850
  0
LINE
  8
4
  6
CONTINUOUS
 10
32.008359
 20
4.547850
 11
32.278359
 21
4.547850
  0
LINE
  8
4
  6
CONTINUOUS
 10
32.008359
 20
4.457850
 11
32.278359
 21
4.457850
  0
LINE
  8
4
  6
CONTINUOUS
 10
32.075859
 20
4.277850
 11
32.210859
 21
4.277850
  0
LINE
  8
4
  6
CONTINUOUS
 10
32.075859
 20
4.277850
 11
32.143359
 21
3.377850
  0
LINE
  8
4
  6
CONTINUOUS
 10
32.210859
 20
4.277850
 11
32.143359
 21
3.377850
  0
LINE
  8
4
  6
CONTINUOUS
 10
32.143359
 20
39.681720
 11
32.143359
 21
40.881720
  0
LINE
  8
4
  6
CONTINUOUS
 10
32.263359
 20
40.881720
 11
32.023359
 21
40.881720
  0
LINE
  8
4
  6
CONTINUOUS
 10
32.263359
 20
40.857720
 11
32.023359
 21
40.857720
  0
LINE
  8
4
  6
CONTINUOUS
 10
32.263359
 20
40.833720
 11
32.023359
 21
40.833720
  0
POLYLINE
  8
4
  6
CONTINUOUS
 66
     1
  0
VERTEX
  8
4
  6
CONTINUOUS
 10
32.143359
 20
39.681720
  0
VERTEX
  8
4
  6
CONTINUOUS
 10
32.143359
 20
5.177850
  0
SEQEND
  8
4
  6
CONTINUOUS
  0
LINE
  8
4
  6
CONTINUOUS
 10
32.403359
 20
5.177850
 11
32.403359
 21
4.277850
  0
LINE
  8
4
  6
CONTINUOUS
 10
32.268359
 20
4.727850
 11
32.538359
 21
4.727850
  0
LINE
  8
4
  6
CONTINUOUS
 10
32.268359
 20
4.637850
 11
32.538359
 21
4.637850
  0
LINE
  8
4
  6
CONTINUOUS
 10
32.268359
 20
4.547850
 11
32.538359
 21
4.547850
  0
LINE
  8
4
  6
CONTINUOUS
 10
32.268359
 20
4.457850
 11
32.538359
 21
4.457850
  0
LINE
  8
4
  6
CONTINUOUS
 10
32.335859
 20
4.277850
 11
32.470859
 21
4.277850
  0
LINE
  8
4
  6
CONTINUOUS
 10
32.335859
 20
4.277850
 11
32.403359
 21
3.377850
  0
LINE
  8
4
  6
CONTINUOUS
 10
32.470859
 20
4.277850
 11
32.403359
 21
3.377850
  0
LINE
  8
4
  6
CONTINUOUS
 10
32.403359
 20
39.681720
 11
32.403359
 21
40.881720
  0
LINE
  8
4
  6
CONTINUOUS
 10
32.523359
 20
40.881720
 11
32.283359
 21
40.881720
  0
LINE
  8
4
  6
CONTINUOUS
 10
32.523359
 20
40.857720
 11
32.283359
 21
40.857720
  0
LINE
  8
4
  6
CONTINUOUS
 10
32.523359
 20
40.833720
 11
32.283359
 21
40.833720
  0
POLYLINE
  8
4
  6
CONTINUOUS
 66
     1
  0
VERTEX
  8
4
  6
CONTINUOUS
 10
32.403359
 20
39.681720
  0
VERTEX
  8
4
  6
CONTINUOUS
 10
32.403359
 20
5.177850
  0
SEQEND
  8
4
  6
CONTINUOUS
  0
LINE
  8
4
  6
CONTINUOUS
 10
32.663359
 20
5.177850
 11
32.663359
 21
4.277850
  0
LINE
  8
4
  6
CONTINUOUS
 10
32.528359
 20
4.727850
 11
32.798359
 21
4.727850
  0
LINE
  8
4
  6
CONTINUOUS
 10
32.528359
 20
4.637850
 11
32.798359
 21
4.637850
  0
LINE
  8
4
  6
CONTINUOUS
 10
32.528359
 20
4.547850
 11
32.798359
 21
4.547850
  0
LINE
  8
4
  6
CONTINUOUS
 10
32.528359
 20
4.457850
 11
32.798359
 21
4.457850
  0
LINE
  8
4
  6
CONTINUOUS
 10
32.595859
 20
4.277850
 11
32.730859
 21
4.277850
  0
LINE
  8
4
  6
CONTINUOUS
 10
32.595859
 20
4.277850
 11
32.663359
 21
3.377850
  0
LINE
  8
4
  6
CONTINUOUS
 10
32.730859
 20
4.277850
 11
32.663359
 21
3.377850
  0
LINE
  8
4
  6
CONTINUOUS
 10
32.663359
 20
39.681720
 11
32.663359
 21
40.881720
  0
LINE
  8
4
  6
CONTINUOUS
 10
32.783359
 20
40.881720
 11
32.543359
 21
40.881720
  0
LINE
  8
4
  6
CONTINUOUS
 10
32.783359
 20
40.857720
 11
32.543359
 21
40.857720
  0
LINE
  8
4
  6
CONTINUOUS
 10
32.783359
 20
40.833720
 11
32.543359
 21
40.833720
  0
POLYLINE
  8
4
  6
CONTINUOUS
 66
     1
  0
VERTEX
  8
4
  6
CONTINUOUS
 10
32.663359
 20
39.681720
  0
VERTEX
  8
4
  6
CONTINUOUS
 10
32.663359
 20
5.177850
  0
SEQEND
  8
4
  6
CONTINUOUS
  0
LINE
  8
4
  6
CONTINUOUS
 10
32.923359
 20
5.177850
 11
32.923359
 21
4.277850
  0
LINE
  8
4
  6
CONTINUOUS
 10
32.788359
 20
4.727850
 11
33.058359
 21
4.727850
  0
LINE
  8
4
  6
CONTINUOUS
 10
32.788359
 20
4.637850
 11
33.058359
 21
4.637850
  0
LINE
  8
4
  6
CONTINUOUS
 10
32.788359
 20
4.547850
 11
33.058359
 21
4.547850
  0
LINE
  8
4
  6
CONTINUOUS
 10
32.788359
 20
4.457850
 11
33.058359
 21
4.457850
  0
LINE
  8
4
  6
CONTINUOUS
 10
32.855859
 20
4.277850
 11
32.990859
 21
4.277850
  0
LINE
  8
4
  6
CONTINUOUS
 10
32.855859
 20
4.277850
 11
32.923359
 21
3.377850
  0
LINE
  8
4
  6
CONTINUOUS
 10
32.990859
 20
4.277850
 11
32.923359
 21
3.377850
  0
LINE
  8
4
  6
CONTINUOUS
 10
32.923359
 20
39.681720
 11
32.923359
 21
40.881720
  0
LINE
  8
4
  6
CONTINUOUS
 10
33.043359
 20
40.881720
 11
32.803359
 21
40.881720
  0
LINE
  8
4
  6
CONTINUOUS
 10
33.043359
 20
40.857720
 11
32.803359
 21
40.857720
  0
LINE
  8
4
  6
CONTINUOUS
 10
33.043359
 20
40.833720
 11
32.803359
 21
40.833720
  0
POLYLINE
  8
4
  6
CONTINUOUS
 66
     1
  0
VERTEX
  8
4
  6
CONTINUOUS
 10
32.923359
 20
39.681720
  0
VERTEX
  8
4
  6
CONTINUOUS
 10
32.923359
 20
5.177850
  0
SEQEND
  8
4
  6
CONTINUOUS
  0
LINE
  8
4
  6
CONTINUOUS
 10
33.183359
 20
5.177850
 11
33.183359
 21
4.277850
  0
LINE
  8
4
  6
CONTINUOUS
 10
33.048359
 20
4.727850
 11
33.318359
 21
4.727850
  0
LINE
  8
4
  6
CONTINUOUS
 10
33.048359
 20
4.637850
 11
33.318359
 21
4.637850
  0
LINE
  8
4
  6
CONTINUOUS
 10
33.048359
 20
4.547850
 11
33.318359
 21
4.547850
  0
LINE
  8
4
  6
CONTINUOUS
 10
33.048359
 20
4.457850
 11
33.318359
 21
4.457850
  0
LINE
  8
4
  6
CONTINUOUS
 10
33.115859
 20
4.277850
 11
33.250859
 21
4.277850
  0
LINE
  8
4
  6
CONTINUOUS
 10
33.115859
 20
4.277850
 11
33.183359
 21
3.377850
  0
LINE
  8
4
  6
CONTINUOUS
 10
33.250859
 20
4.277850
 11
33.183359
 21
3.377850
  0
LINE
  8
4
  6
CONTINUOUS
 10
33.183359
 20
39.681720
 11
33.183359
 21
40.881720
  0
LINE
  8
4
  6
CONTINUOUS
 10
33.303359
 20
40.881720
 11
33.063359
 21
40.881720
  0
LINE
  8
4
  6
CONTINUOUS
 10
33.303359
 20
40.857720
 11
33.063359
 21
40.857720
  0
LINE
  8
4
  6
CONTINUOUS
 10
33.303359
 20
40.833720
 11
33.063359
 21
40.833720
  0
POLYLINE
  8
4
  6
CONTINUOUS
 66
     1
  0
VERTEX
  8
4
  6
CONTINUOUS
 10
33.183359
 20
39.681720
  0
VERTEX
  8
4
  6
CONTINUOUS
 10
33.183359
 20
5.177850
  0
SEQEND
  8
4
  6
CONTINUOUS
  0
LINE
  8
4
  6
CONTINUOUS
 10
44.382623
 20
5.177850
 11
44.382623
 21
4.277850
  0
LINE
  8
4
  6
CONTINUOUS
 10
44.247623
 20
4.727850
 11
44.517623
 21
4.727850
  0
LINE
  8
4
  6
CONTINUOUS
 10
44.247623
 20
4.637850
 11
44.517623
 21
4.637850
  0
LINE
  8
4
  6
CONTINUOUS
 10
44.247623
 20
4.547850
 11
44.517623
 21
4.547850
  0
LINE
  8
4
  6
CONTINUOUS
 10
44.247623
 20
4.457850
 11
44.517623
 21
4.457850
  0
LINE
  8
4
  6
CONTINUOUS
 10
44.315123
 20
4.277850
 11
44.450123
 21
4.277850
  0
LINE
  8
4
  6
CONTINUOUS
 10
44.315123
 20
4.277850
 11
44.382623
 21
3.377850
  0
LINE
  8
4
  6
CONTINUOUS
 10
44.450123
 20
4.277850
 11
44.382623
 21
3.377850
  0
LINE
  8
4
  6
CONTINUOUS
 10
44.382623
 20
39.681720
 11
44.382623
 21
40.881720
  0
LINE
  8
4
  6
CONTINUOUS
 10
44.502623
 20
40.881720
 11
44.262623
 21
40.881720
  0
LINE
  8
4
  6
CONTINUOUS
 10
44.502623
 20
40.857720
 11
44.262623
 21
40.857720
  0
LINE
  8
4
  6
CONTINUOUS
 10
44.502623
 20
40.833720
 11
44.262623
 21
40.833720
  0
POLYLINE
  8
4
  6
CONTINUOUS
 66
     1
  0
VERTEX
  8
4
  6
CONTINUOUS
 10
44.382623
 20
39.681720
  0
VERTEX
  8
4
  6
CONTINUOUS
 10
44.382623
 20
5.177850
  0
SEQEND
  8
4
  6
CONTINUOUS
  0
LINE
  8
4
  6
CONTINUOUS
 10
44.702623
 20
5.177850
 11
44.702623
 21
4.277850
  0
LINE
  8
4
  6
CONTINUOUS
 10
44.567623
 20
4.727850
 11
44.837623
 21
4.727850
  0
LINE
  8
4
  6
CONTINUOUS
 10
44.567623
 20
4.637850
 11
44.837623
 21
4.637850
  0
LINE
  8
4
  6
CONTINUOUS
 10
44.567623
 20
4.547850
 11
44.837623
 21
4.547850
  0
LINE
  8
4
  6
CONTINUOUS
 10
44.567623
 20
4.457850
 11
44.837623
 21
4.457850
  0
LINE
  8
4
  6
CONTINUOUS
 10
44.635123
 20
4.277850
 11
44.770123
 21
4.277850
  0
LINE
  8
4
  6
CONTINUOUS
 10
44.635123
 20
4.277850
 11
44.702623
 21
3.377850
  0
LINE
  8
4
  6
CONTINUOUS
 10
44.770123
 20
4.277850
 11
44.702623
 21
3.377850
  0
LINE
  8
4
  6
CONTINUOUS
 10
44.702623
 20
39.681720
 11
44.702623
 21
40.881720
  0
LINE
  8
4
  6
CONTINUOUS
 10
44.822623
 20
40.881720
 11
44.582623
 21
40.881720
  0
LINE
  8
4
  6
CONTINUOUS
 10
44.822623
 20
40.857720
 11
44.582623
 21
40.857720
  0
LINE
  8
4
  6
CONTINUOUS
 10
44.822623
 20
40.833720
 11
44.582623
 21
40.833720
  0
POLYLINE
  8
4
  6
CONTINUOUS
 66
     1
  0
VERTEX
  8
4
  6
CONTINUOUS
 10
44.702623
 20
39.681720
  0
VERTEX
  8
4
  6
CONTINUOUS
 10
44.702623
 20
5.177850
  0
SEQEND
  8
4
  6
CONTINUOUS
  0
LINE
  8
4
  6
CONTINUOUS
 10
45.022623
 20
5.177850
 11
45.022623
 21
4.277850
  0
LINE
  8
4
  6
CONTINUOUS
 10
44.887623
 20
4.727850
 11
45.157623
 21
4.727850
  0
LINE
  8
4
  6
CONTINUOUS
 10
44.887623
 20
4.637850
 11
45.157623
 21
4.637850
  0
LINE
  8
4
  6
CONTINUOUS
 10
44.887623
 20
4.547850
 11
45.157623
 21
4.547850
  0
LINE
  8
4
  6
CONTINUOUS
 10
44.887623
 20
4.457850
 11
45.157623
 21
4.457850
  0
LINE
  8
4
  6
CONTINUOUS
 10
44.955123
 20
4.277850
 11
45.090123
 21
4.277850
  0
LINE
  8
4
  6
CONTINUOUS
 10
44.955123
 20
4.277850
 11
45.022623
 21
3.377850
  0
LINE
  8
4
  6
CONTINUOUS
 10
45.090123
 20
4.277850
 11
45.022623
 21
3.377850
  0
LINE
  8
4
  6
CONTINUOUS
 10
45.022623
 20
39.681720
 11
45.022623
 21
40.881720
  0
LINE
  8
4
  6
CONTINUOUS
 10
45.142623
 20
40.881720
 11
44.902623
 21
40.881720
  0
LINE
  8
4
  6
CONTINUOUS
 10
45.142623
 20
40.857720
 11
44.902623
 21
40.857720
  0
LINE
  8
4
  6
CONTINUOUS
 10
45.142623
 20
40.833720
 11
44.902623
 21
40.833720
  0
POLYLINE
  8
4
  6
CONTINUOUS
 66
     1
  0
VERTEX
  8
4
  6
CONTINUOUS
 10
45.022623
 20
39.681720
  0
VERTEX
  8
4
  6
CONTINUOUS
 10
45.022623
 20
5.177850
  0
SEQEND
  8
4
  6
CONTINUOUS
  0
LINE
  8
4
  6
CONTINUOUS
 10
45.342623
 20
5.177850
 11
45.342623
 21
4.277850
  0
LINE
  8
4
  6
CONTINUOUS
 10
45.207623
 20
4.727850
 11
45.477623
 21
4.727850
  0
LINE
  8
4
  6
CONTINUOUS
 10
45.207623
 20
4.637850
 11
45.477623
 21
4.637850
  0
LINE
  8
4
  6
CONTINUOUS
 10
45.207623
 20
4.547850
 11
45.477623
 21
4.547850
  0
LINE
  8
4
  6
CONTINUOUS
 10
45.207623
 20
4.457850
 11
45.477623
 21
4.457850
  0
LINE
  8
4
  6
CONTINUOUS
 10
45.275123
 20
4.277850
 11
45.410123
 21
4.277850
  0
LINE
  8
4
  6
CONTINUOUS
 10
45.275123
 20
4.277850
 11
45.342623
 21
3.377850
  0
LINE
  8
4
  6
CONTINUOUS
 10
45.410123
 20
4.277850
 11
45.342623
 21
3.377850
  0
LINE
  8
4
  6
CONTINUOUS
 10
45.342623
 20
39.681720
 11
45.342623
 21
40.881720
  0
LINE
  8
4
  6
CONTINUOUS
 10
45.462623
 20
40.881720
 11
45.222623
 21
40.881720
  0
LINE
  8
4
  6
CONTINUOUS
 10
45.462623
 20
40.857720
 11
45.222623
 21
40.857720
  0
LINE
  8
4
  6
CONTINUOUS
 10
45.462623
 20
40.833720
 11
45.222623
 21
40.833720
  0
POLYLINE
  8
4
  6
CONTINUOUS
 66
     1
  0
VERTEX
  8
4
  6
CONTINUOUS
 10
45.342623
 20
39.681720
  0
VERTEX
  8
4
  6
CONTINUOUS
 10
45.342623
 20
5.177850
  0
SEQEND
  8
4
  6
CONTINUOUS
  0
LINE
  8
4
  6
CONTINUOUS
 10
45.662623
 20
5.177850
 11
45.662623
 21
4.277850
  0
LINE
  8
4
  6
CONTINUOUS
 10
45.527623
 20
4.727850
 11
45.797623
 21
4.727850
  0
LINE
  8
4
  6
CONTINUOUS
 10
45.527623
 20
4.637850
 11
45.797623
 21
4.637850
  0
LINE
  8
4
  6
CONTINUOUS
 10
45.527623
 20
4.547850
 11
45.797623
 21
4.547850
  0
LINE
  8
4
  6
CONTINUOUS
 10
45.527623
 20
4.457850
 11
45.797623
 21
4.457850
  0
LINE
  8
4
  6
CONTINUOUS
 10
45.595123
 20
4.277850
 11
45.730123
 21
4.277850
  0
LINE
  8
4
  6
CONTINUOUS
 10
45.595123
 20
4.277850
 11
45.662623
 21
3.377850
  0
LINE
  8
4
  6
CONTINUOUS
 10
45.730123
 20
4.277850
 11
45.662623
 21
3.377850
  0
LINE
  8
4
  6
CONTINUOUS
 10
45.662623
 20
39.681720
 11
45.662623
 21
40.881720
  0
LINE
  8
4
  6
CONTINUOUS
 10
45.782623
 20
40.881720
 11
45.542623
 21
40.881720
  0
LINE
  8
4
  6
CONTINUOUS
 10
45.782623
 20
40.857720
 11
45.542623
 21
40.857720
  0
LINE
  8
4
  6
CONTINUOUS
 10
45.782623
 20
40.833720
 11
45.542623
 21
40.833720
  0
POLYLINE
  8
4
  6
CONTINUOUS
 66
     1
  0
VERTEX
  8
4
  6
CONTINUOUS
 10
45.662623
 20
39.681720
  0
VERTEX
  8
4
  6
CONTINUOUS
 10
45.662623
 20
5.177850
  0
SEQEND
  8
4
  6
CONTINUOUS
  0
LINE
  8
4
  6
CONTINUOUS
 10
62.342623
 20
5.177850
 11
62.342623
 21
4.277850
  0
LINE
  8
4
  6
CONTINUOUS
 10
62.207623
 20
4.727850
 11
62.477623
 21
4.727850
  0
LINE
  8
4
  6
CONTINUOUS
 10
62.207623
 20
4.637850
 11
62.477623
 21
4.637850
  0
LINE
  8
4
  6
CONTINUOUS
 10
62.207623
 20
4.547850
 11
62.477623
 21
4.547850
  0
LINE
  8
4
  6
CONTINUOUS
 10
62.207623
 20
4.457850
 11
62.477623
 21
4.457850
  0
LINE
  8
4
  6
CONTINUOUS
 10
62.275123
 20
4.277850
 11
62.410123
 21
4.277850
  0
LINE
  8
4
  6
CONTINUOUS
 10
62.275123
 20
4.277850
 11
62.342623
 21
3.377850
  0
LINE
  8
4
  6
CONTINUOUS
 10
62.410123
 20
4.277850
 11
62.342623
 21
3.377850
  0
LINE
  8
4
  6
CONTINUOUS
 10
62.342623
 20
39.681720
 11
62.342623
 21
40.881720
  0
LINE
  8
4
  6
CONTINUOUS
 10
62.462623
 20
40.881720
 11
62.222623
 21
40.881720
  0
LINE
  8
4
  6
CONTINUOUS
 10
62.462623
 20
40.857720
 11
62.222623
 21
40.857720
  0
LINE
  8
4
  6
CONTINUOUS
 10
62.462623
 20
40.833720
 11
62.222623
 21
40.833720
  0
POLYLINE
  8
4
  6
CONTINUOUS
 66
     1
  0
VERTEX
  8
4
  6
CONTINUOUS
 10
62.342623
 20
39.681720
  0
VERTEX
  8
4
  6
CONTINUOUS
 10
62.342623
 20
5.177850
  0
SEQEND
  8
4
  6
CONTINUOUS
  0
LINE
  8
4
  6
CONTINUOUS
 10
62.662623
 20
5.177850
 11
62.662623
 21
4.277850
  0
LINE
  8
4
  6
CONTINUOUS
 10
62.527623
 20
4.727850
 11
62.797623
 21
4.727850
  0
LINE
  8
4
  6
CONTINUOUS
 10
62.527623
 20
4.637850
 11
62.797623
 21
4.637850
  0
LINE
  8
4
  6
CONTINUOUS
 10
62.527623
 20
4.547850
 11
62.797623
 21
4.547850
  0
LINE
  8
4
  6
CONTINUOUS
 10
62.527623
 20
4.457850
 11
62.797623
 21
4.457850
  0
LINE
  8
4
  6
CONTINUOUS
 10
62.595123
 20
4.277850
 11
62.730123
 21
4.277850
  0
LINE
  8
4
  6
CONTINUOUS
 10
62.595123
 20
4.277850
 11
62.662623
 21
3.377850
  0
LINE
  8
4
  6
CONTINUOUS
 10
62.730123
 20
4.277850
 11
62.662623
 21
3.377850
  0
LINE
  8
4
  6
CONTINUOUS
 10
62.662623
 20
39.681720
 11
62.662623
 21
40.881720
  0
LINE
  8
4
  6
CONTINUOUS
 10
62.782623
 20
40.881720
 11
62.542623
 21
40.881720
  0
LINE
  8
4
  6
CONTINUOUS
 10
62.782623
 20
40.857720
 11
62.542623
 21
40.857720
  0
LINE
  8
4
  6
CONTINUOUS
 10
62.782623
 20
40.833720
 11
62.542623
 21
40.833720
  0
POLYLINE
  8
4
  6
CONTINUOUS
 66
     1
  0
VERTEX
  8
4
  6
CONTINUOUS
 10
62.662623
 20
39.681720
  0
VERTEX
  8
4
  6
CONTINUOUS
 10
62.662623
 20
5.177850
  0
SEQEND
  8
4
  6
CONTINUOUS
  0
LINE
  8
4
  6
CONTINUOUS
 10
62.982623
 20
5.177850
 11
62.982623
 21
4.277850
  0
LINE
  8
4
  6
CONTINUOUS
 10
62.847623
 20
4.727850
 11
63.117623
 21
4.727850
  0
LINE
  8
4
  6
CONTINUOUS
 10
62.847623
 20
4.637850
 11
63.117623
 21
4.637850
  0
LINE
  8
4
  6
CONTINUOUS
 10
62.847623
 20
4.547850
 11
63.117623
 21
4.547850
  0
LINE
  8
4
  6
CONTINUOUS
 10
62.847623
 20
4.457850
 11
63.117623
 21
4.457850
  0
LINE
  8
4
  6
CONTINUOUS
 10
62.915123
 20
4.277850
 11
63.050123
 21
4.277850
  0
LINE
  8
4
  6
CONTINUOUS
 10
62.915123
 20
4.277850
 11
62.982623
 21
3.377850
  0
LINE
  8
4
  6
CONTINUOUS
 10
63.050123
 20
4.277850
 11
62.982623
 21
3.377850
  0
LINE
  8
4
  6
CONTINUOUS
 10
62.982623
 20
39.681720
 11
62.982623
 21
40.881720
  0
LINE
  8
4
  6
CONTINUOUS
 10
63.102623
 20
40.881720
 11
62.862623
 21
40.881720
  0
LINE
  8
4
  6
CONTINUOUS
 10
63.102623
 20
40.857720
 11
62.862623
 21
40.857720
  0
LINE
  8
4
  6
CONTINUOUS
 10
63.102623
 20
40.833720
 11
62.862623
 21
40.833720
  0
POLYLINE
  8
4
  6
CONTINUOUS
 66
     1
  0
VERTEX
  8
4
  6
CONTINUOUS
 10
62.982623
 20
39.681720
  0
VERTEX
  8
4
  6
CONTINUOUS
 10
62.982623
 20
5.177850
  0
SEQEND
  8
4
  6
CONTINUOUS
  0
LINE
  8
4
  6
CONTINUOUS
 10
63.302623
 20
5.177850
 11
63.302623
 21
4.277850
  0
LINE
  8
4
  6
CONTINUOUS
 10
63.167623
 20
4.727850
 11
63.437623
 21
4.727850
  0
LINE
  8
4
  6
CONTINUOUS
 10
63.167623
 20
4.637850
 11
63.437623
 21
4.637850
  0
LINE
  8
4
  6
CONTINUOUS
 10
63.167623
 20
4.547850
 11
63.437623
 21
4.547850
  0
LINE
  8
4
  6
CONTINUOUS
 10
63.167623
 20
4.457850
 11
63.437623
 21
4.457850
  0
LINE
  8
4
  6
CONTINUOUS
 10
63.235123
 20
4.277850
 11
63.370123
 21
4.277850
  0
LINE
  8
4
  6
CONTINUOUS
 10
63.235123
 20
4.277850
 11
63.302623
 21
3.377850
  0
LINE
  8
4
  6
CONTINUOUS
 10
63.370123
 20
4.277850
 11
63.302623
 21
3.377850
  0
LINE
  8
4
  6
CONTINUOUS
 10
63.302623
 20
39.681720
 11
63.302623
 21
40.881720
  0
LINE
  8
4
  6
CONTINUOUS
 10
63.422623
 20
40.881720
 11
63.182623
 21
40.881720
  0
LINE
  8
4
  6
CONTINUOUS
 10
63.422623
 20
40.857720
 11
63.182623
 21
40.857720
  0
LINE
  8
4
  6
CONTINUOUS
 10
63.422623
 20
40.833720
 11
63.182623
 21
40.833720
  0
POLYLINE
  8
4
  6
CONTINUOUS
 66
     1
  0
VERTEX
  8
4
  6
CONTINUOUS
 10
63.302623
 20
39.681720
  0
VERTEX
  8
4
  6
CONTINUOUS
 10
63.302623
 20
5.177850
  0
SEQEND
  8
4
  6
CONTINUOUS
  0
LINE
  8
4
  6
CONTINUOUS
 10
63.622623
 20
5.177850
 11
63.622623
 21
4.277850
  0
LINE
  8
4
  6
CONTINUOUS
 10
63.487623
 20
4.727850
 11
63.757623
 21
4.727850
  0
LINE
  8
4
  6
CONTINUOUS
 10
63.487623
 20
4.637850
 11
63.757623
 21
4.637850
  0
LINE
  8
4
  6
CONTINUOUS
 10
63.487623
 20
4.547850
 11
63.757623
 21
4.547850
  0
LINE
  8
4
  6
CONTINUOUS
 10
63.487623
 20
4.457850
 11
63.757623
 21
4.457850
  0
LINE
  8
4
  6
CONTINUOUS
 10
63.555123
 20
4.277850
 11
63.690123
 21
4.277850
  0
LINE
  8
4
  6
CONTINUOUS
 10
63.555123
 20
4.277850
 11
63.622623
 21
3.377850
  0
LINE
  8
4
  6
CONTINUOUS
 10
63.690123
 20
4.277850
 11
63.622623
 21
3.377850
  0
LINE
  8
4
  6
CONTINUOUS
 10
63.622623
 20
39.681720
 11
63.622623
 21
40.881720
  0
LINE
  8
4
  6
CONTINUOUS
 10
63.742623
 20
40.881720
 11
63.502623
 21
40.881720
  0
LINE
  8
4
  6
CONTINUOUS
 10
63.742623
 20
40.857720
 11
63.502623
 21
40.857720
  0
LINE
  8
4
  6
CONTINUOUS
 10
63.742623
 20
40.833720
 11
63.502623
 21
40.833720
  0
POLYLINE
  8
4
  6
CONTINUOUS
 66
     1
  0
VERTEX
  8
4
  6
CONTINUOUS
 10
63.622623
 20
39.681720
  0
VERTEX
  8
4
  6
CONTINUOUS
 10
63.622623
 20
5.177850
  0
SEQEND
  8
4
  6
CONTINUOUS
  0
LINE
  8
4
  6
CONTINUOUS
 10
70.948672
 20
5.177850
 11
70.948672
 21
4.277850
  0
LINE
  8
4
  6
CONTINUOUS
 10
70.813672
 20
4.727850
 11
71.083672
 21
4.727850
  0
LINE
  8
4
  6
CONTINUOUS
 10
70.813672
 20
4.637850
 11
71.083672
 21
4.637850
  0
LINE
  8
4
  6
CONTINUOUS
 10
70.813672
 20
4.547850
 11
71.083672
 21
4.547850
  0
LINE
  8
4
  6
CONTINUOUS
 10
70.813672
 20
4.457850
 11
71.083672
 21
4.457850
  0
LINE
  8
4
  6
CONTINUOUS
 10
70.881172
 20
4.277850
 11
71.016172
 21
4.277850
  0
LINE
  8
4
  6
CONTINUOUS
 10
70.881172
 20
4.277850
 11
70.948672
 21
3.377850
  0
LINE
  8
4
  6
CONTINUOUS
 10
71.016172
 20
4.277850
 11
70.948672
 21
3.377850
  0
LINE
  8
4
  6
CONTINUOUS
 10
70.948672
 20
39.681720
 11
70.948672
 21
40.881720
  0
LINE
  8
4
  6
CONTINUOUS
 10
71.068672
 20
40.881720
 11
70.828672
 21
40.881720
  0
LINE
  8
4
  6
CONTINUOUS
 10
71.068672
 20
40.857720
 11
70.828672
 21
40.857720
  0
LINE
  8
4
  6
CONTINUOUS
 10
71.068672
 20
40.833720
 11
70.828672
 21
40.833720
  0
POLYLINE
  8
4
  6
CONTINUOUS
 66
     1
  0
VERTEX
  8
4
  6
CONTINUOUS
 10
70.948672
 20
39.681720
  0
VERTEX
  8
4
  6
CONTINUOUS
 10
70.948672
 20
5.177850
  0
SEQEND
  8
4
  6
CONTINUOUS
  0
LINE
  8
4
  6
CONTINUOUS
 10
71.268672
 20
5.177850
 11
71.268672
 21
4.277850
  0
LINE
  8
4
  6
CONTINUOUS
 10
71.133672
 20
4.727850
 11
71.403672
 21
4.727850
  0
LINE
  8
4
  6
CONTINUOUS
 10
71.133672
 20
4.637850
 11
71.403672
 21
4.637850
  0
LINE
  8
4
  6
CONTINUOUS
 10
71.133672
 20
4.547850
 11
71.403672
 21
4.547850
  0
LINE
  8
4
  6
CONTINUOUS
 10
71.133672
 20
4.457850
 11
71.403672
 21
4.457850
  0
LINE
  8
4
  6
CONTINUOUS
 10
71.201172
 20
4.277850
 11
71.336172
 21
4.277850
  0
LINE
  8
4
  6
CONTINUOUS
 10
71.201172
 20
4.277850
 11
71.268672
 21
3.377850
  0
LINE
  8
4
  6
CONTINUOUS
 10
71.336172
 20
4.277850
 11
71.268672
 21
3.377850
  0
LINE
  8
4
  6
CONTINUOUS
 10
71.268672
 20
39.681720
 11
71.268672
 21
40.881720
  0
LINE
  8
4
  6
CONTINUOUS
 10
71.388672
 20
40.881720
 11
71.148672
 21
40.881720
  0
LINE
  8
4
  6
CONTINUOUS
 10
71.388672
 20
40.857720
 11
71.148672
 21
40.857720
  0
LINE
  8
4
  6
CONTINUOUS
 10
71.388672
 20
40.833720
 11
71.148672
 21
40.833720
  0
POLYLINE
  8
4
  6
CONTINUOUS
 66
     1
  0
VERTEX
  8
4
  6
CONTINUOUS
 10
71.268672
 20
39.681720
  0
VERTEX
  8
4
  6
CONTINUOUS
 10
71.268672
 20
5.177850
  0
SEQEND
  8
4
  6
CONTINUOUS
  0
LINE
  8
4
  6
CONTINUOUS
 10
71.588672
 20
5.177850
 11
71.588672
 21
4.277850
  0
LINE
  8
4
  6
CONTINUOUS
 10
71.453672
 20
4.727850
 11
71.723672
 21
4.727850
  0
LINE
  8
4
  6
CONTINUOUS
 10
71.453672
 20
4.637850
 11
71.723672
 21
4.637850
  0
LINE
  8
4
  6
CONTINUOUS
 10
71.453672
 20
4.547850
 11
71.723672
 21
4.547850
  0
LINE
  8
4
  6
CONTINUOUS
 10
71.453672
 20
4.457850
 11
71.723672
 21
4.457850
  0
LINE
  8
4
  6
CONTINUOUS
 10
71.521172
 20
4.277850
 11
71.656172
 21
4.277850
  0
LINE
  8
4
  6
CONTINUOUS
 10
71.521172
 20
4.277850
 11
71.588672
 21
3.377850
  0
LINE
  8
4
  6
CONTINUOUS
 10
71.656172
 20
4.277850
 11
71.588672
 21
3.377850
  0
LINE
  8
4
  6
CONTINUOUS
 10
71.588672
 20
39.681720
 11
71.588672
 21
40.881720
  0
LINE
  8
4
  6
CONTINUOUS
 10
71.708672
 20
40.881720
 11
71.468672
 21
40.881720
  0
LINE
  8
4
  6
CONTINUOUS
 10
71.708672
 20
40.857720
 11
71.468672
 21
40.857720
  0
LINE
  8
4
  6
CONTINUOUS
 10
71.708672
 20
40.833720
 11
71.468672
 21
40.833720
  0
POLYLINE
  8
4
  6
CONTINUOUS
 66
     1
  0
VERTEX
  8
4
  6
CONTINUOUS
 10
71.588672
 20
39.681720
  0
VERTEX
  8
4
  6
CONTINUOUS
 10
71.588672
 20
5.177850
  0
SEQEND
  8
4
  6
CONTINUOUS
  0
LINE
  8
4
  6
CONTINUOUS
 10
71.908672
 20
5.177850
 11
71.908672
 21
4.277850
  0
LINE
  8
4
  6
CONTINUOUS
 10
71.773672
 20
4.727850
 11
72.043672
 21
4.727850
  0
LINE
  8
4
  6
CONTINUOUS
 10
71.773672
 20
4.637850
 11
72.043672
 21
4.637850
  0
LINE
  8
4
  6
CONTINUOUS
 10
71.773672
 20
4.547850
 11
72.043672
 21
4.547850
  0
LINE
  8
4
  6
CONTINUOUS
 10
71.773672
 20
4.457850
 11
72.043672
 21
4.457850
  0
LINE
  8
4
  6
CONTINUOUS
 10
71.841172
 20
4.277850
 11
71.976172
 21
4.277850
  0
LINE
  8
4
  6
CONTINUOUS
 10
71.841172
 20
4.277850
 11
71.908672
 21
3.377850
  0
LINE
  8
4
  6
CONTINUOUS
 10
71.976172
 20
4.277850
 11
71.908672
 21
3.377850
  0
LINE
  8
4
  6
CONTINUOUS
 10
71.908672
 20
39.681720
 11
71.908672
 21
40.881720
  0
LINE
  8
4
  6
CONTINUOUS
 10
72.028672
 20
40.881720
 11
71.788672
 21
40.881720
  0
LINE
  8
4
  6
CONTINUOUS
 10
72.028672
 20
40.857720
 11
71.788672
 21
40.857720
  0
LINE
  8
4
  6
CONTINUOUS
 10
72.028672
 20
40.833720
 11
71.788672
 21
40.833720
  0
POLYLINE
  8
4
  6
CONTINUOUS
 66
     1
  0
VERTEX
  8
4
  6
CONTINUOUS
 10
71.908672
 20
39.681720
  0
VERTEX
  8
4
  6
CONTINUOUS
 10
71.908672
 20
5.177850
  0
SEQEND
  8
4
  6
CONTINUOUS
  0
LINE
  8
4
  6
CONTINUOUS
 10
72.228672
 20
5.177850
 11
72.228672
 21
4.277850
  0
LINE
  8
4
  6
CONTINUOUS
 10
72.093672
 20
4.727850
 11
72.363672
 21
4.727850
  0
LINE
  8
4
  6
CONTINUOUS
 10
72.093672
 20
4.637850
 11
72.363672
 21
4.637850
  0
LINE
  8
4
  6
CONTINUOUS
 10
72.093672
 20
4.547850
 11
72.363672
 21
4.547850
  0
LINE
  8
4
  6
CONTINUOUS
 10
72.093672
 20
4.457850
 11
72.363672
 21
4.457850
  0
LINE
  8
4
  6
CONTINUOUS
 10
72.161172
 20
4.277850
 11
72.296172
 21
4.277850
  0
LINE
  8
4
  6
CONTINUOUS
 10
72.161172
 20
4.277850
 11
72.228672
 21
3.377850
  0
LINE
  8
4
  6
CONTINUOUS
 10
72.296172
 20
4.277850
 11
72.228672
 21
3.377850
  0
LINE
  8
4
  6
CONTINUOUS
 10
72.228672
 20
39.681720
 11
72.228672
 21
40.881720
  0
LINE
  8
4
  6
CONTINUOUS
 10
72.348672
 20
40.881720
 11
72.108672
 21
40.881720
  0
LINE
  8
4
  6
CONTINUOUS
 10
72.348672
 20
40.857720
 11
72.108672
 21
40.857720
  0
LINE
  8
4
  6
CONTINUOUS
 10
72.348672
 20
40.833720
 11
72.108672
 21
40.833720
  0
POLYLINE
  8
4
  6
CONTINUOUS
 66
     1
  0
VERTEX
  8
4
  6
CONTINUOUS
 10
72.228672
 20
39.681720
  0
VERTEX
  8
4
  6
CONTINUOUS
 10
72.228672
 20
5.177850
  0
SEQEND
  8
4
  6
CONTINUOUS
  0
LINE
  8
4
  6
CONTINUOUS
 10
79.603985
 20
5.177850
 11
79.603985
 21
4.277850
  0
LINE
  8
4
  6
CONTINUOUS
 10
79.468985
 20
4.727850
 11
79.738985
 21
4.727850
  0
LINE
  8
4
  6
CONTINUOUS
 10
79.468985
 20
4.637850
 11
79.738985
 21
4.637850
  0
LINE
  8
4
  6
CONTINUOUS
 10
79.468985
 20
4.547850
 11
79.738985
 21
4.547850
  0
LINE
  8
4
  6
CONTINUOUS
 10
79.468985
 20
4.457850
 11
79.738985
 21
4.457850
  0
LINE
  8
4
  6
CONTINUOUS
 10
79.536485
 20
4.277850
 11
79.671485
 21
4.277850
  0
LINE
  8
4
  6
CONTINUOUS
 10
79.536485
 20
4.277850
 11
79.603985
 21
3.377850
  0
LINE
  8
4
  6
CONTINUOUS
 10
79.671485
 20
4.277850
 11
79.603985
 21
3.377850
  0
LINE
  8
4
  6
CONTINUOUS
 10
79.603985
 20
39.681720
 11
79.603985
 21
40.881720
  0
LINE
  8
4
  6
CONTINUOUS
 10
79.723985
 20
40.881720
 11
79.483985
 21
40.881720
  0
LINE
  8
4
  6
CONTINUOUS
 10
79.723985
 20
40.857720
 11
79.483985
 21
40.857720
  0
LINE
  8
4
  6
CONTINUOUS
 10
79.723985
 20
40.833720
 11
79.483985
 21
40.833720
  0
POLYLINE
  8
4
  6
CONTINUOUS
 66
     1
  0
VERTEX
  8
4
  6
CONTINUOUS
 10
79.603985
 20
39.681720
  0
VERTEX
  8
4
  6
CONTINUOUS
 10
79.603985
 20
5.177850
  0
SEQEND
  8
4
  6
CONTINUOUS
  0
LINE
  8
4
  6
CONTINUOUS
 10
79.923985
 20
5.177850
 11
79.923985
 21
4.277850
  0
LINE
  8
4
  6
CONTINUOUS
 10
79.788985
 20
4.727850
 11
80.058985
 21
4.727850
  0
LINE
  8
4
  6
CONTINUOUS
 10
79.788985
 20
4.637850
 11
80.058985
 21
4.637850
  0
LINE
  8
4
  6
CONTINUOUS
 10
79.788985
 20
4.547850
 11
80.058985
 21
4.547850
  0
LINE
  8
4
  6
CONTINUOUS
 10
79.788985
 20
4.457850
 11
80.058985
 21
4.457850
  0
LINE
  8
4
  6
CONTINUOUS
 10
79.856485
 20
4.277850
 11
79.991485
 21
4.277850
  0
LINE
  8
4
  6
CONTINUOUS
 10
79.856485
 20
4.277850
 11
79.923985
 21
3.377850
  0
LINE
  8
4
  6
CONTINUOUS
 10
79.991485
 20
4.277850
 11
79.923985
 21
3.377850
  0
LINE
  8
4
  6
CONTINUOUS
 10
79.923985
 20
39.681720
 11
79.923985
 21
40.881720
  0
LINE
  8
4
  6
CONTINUOUS
 10
80.043985
 20
40.881720
 11
79.803985
 21
40.881720
  0
LINE
  8
4
  6
CONTINUOUS
 10
80.043985
 20
40.857720
 11
79.803985
 21
40.857720
  0
LINE
  8
4
  6
CONTINUOUS
 10
80.043985
 20
40.833720
 11
79.803985
 21
40.833720
  0
POLYLINE
  8
4
  6
CONTINUOUS
 66
     1
  0
VERTEX
  8
4
  6
CONTINUOUS
 10
79.923985
 20
39.681720
  0
VERTEX
  8
4
  6
CONTINUOUS
 10
79.923985
 20
5.177850
  0
SEQEND
  8
4
  6
CONTINUOUS
  0
LINE
  8
4
  6
CONTINUOUS
 10
80.243985
 20
5.177850
 11
80.243985
 21
4.277850
  0
LINE
  8
4
  6
CONTINUOUS
 10
80.108985
 20
4.727850
 11
80.378985
 21
4.727850
  0
LINE
  8
4
  6
CONTINUOUS
 10
80.108985
 20
4.637850
 11
80.378985
 21
4.637850
  0
LINE
  8
4
  6
CONTINUOUS
 10
80.108985
 20
4.547850
 11
80.378985
 21
4.547850
  0
LINE
  8
4
  6
CONTINUOUS
 10
80.108985
 20
4.457850
 11
80.378985
 21
4.457850
  0
LINE
  8
4
  6
CONTINUOUS
 10
80.176485
 20
4.277850
 11
80.311485
 21
4.277850
  0
LINE
  8
4
  6
CONTINUOUS
 10
80.176485
 20
4.277850
 11
80.243985
 21
3.377850
  0
LINE
  8
4
  6
CONTINUOUS
 10
80.311485
 20
4.277850
 11
80.243985
 21
3.377850
  0
LINE
  8
4
  6
CONTINUOUS
 10
80.243985
 20
39.681720
 11
80.243985
 21
40.881720
  0
LINE
  8
4
  6
CONTINUOUS
 10
80.363985
 20
40.881720
 11
80.123985
 21
40.881720
  0
LINE
  8
4
  6
CONTINUOUS
 10
80.363985
 20
40.857720
 11
80.123985
 21
40.857720
  0
LINE
  8
4
  6
CONTINUOUS
 10
80.363985
 20
40.833720
 11
80.123985
 21
40.833720
  0
POLYLINE
  8
4
  6
CONTINUOUS
 66
     1
  0
VERTEX
  8
4
  6
CONTINUOUS
 10
80.243985
 20
39.681720
  0
VERTEX
  8
4
  6
CONTINUOUS
 10
80.243985
 20
5.177850
  0
SEQEND
  8
4
  6
CONTINUOUS
  0
LINE
  8
4
  6
CONTINUOUS
 10
80.563985
 20
5.177850
 11
80.563985
 21
4.277850
  0
LINE
  8
4
  6
CONTINUOUS
 10
80.428985
 20
4.727850
 11
80.698985
 21
4.727850
  0
LINE
  8
4
  6
CONTINUOUS
 10
80.428985
 20
4.637850
 11
80.698985
 21
4.637850
  0
LINE
  8
4
  6
CONTINUOUS
 10
80.428985
 20
4.547850
 11
80.698985
 21
4.547850
  0
LINE
  8
4
  6
CONTINUOUS
 10
80.428985
 20
4.457850
 11
80.698985
 21
4.457850
  0
LINE
  8
4
  6
CONTINUOUS
 10
80.496485
 20
4.277850
 11
80.631485
 21
4.277850
  0
LINE
  8
4
  6
CONTINUOUS
 10
80.496485
 20
4.277850
 11
80.563985
 21
3.377850
  0
LINE
  8
4
  6
CONTINUOUS
 10
80.631485
 20
4.277850
 11
80.563985
 21
3.377850
  0
LINE
  8
4
  6
CONTINUOUS
 10
80.563985
 20
39.681720
 11
80.563985
 21
40.881720
  0
LINE
  8
4
  6
CONTINUOUS
 10
80.683985
 20
40.881720
 11
80.443985
 21
40.881720
  0
LINE
  8
4
  6
CONTINUOUS
 10
80.683985
 20
40.857720
 11
80.443985
 21
40.857720
  0
LINE
  8
4
  6
CONTINUOUS
 10
80.683985
 20
40.833720
 11
80.443985
 21
40.833720
  0
POLYLINE
  8
4
  6
CONTINUOUS
 66
     1
  0
VERTEX
  8
4
  6
CONTINUOUS
 10
80.563985
 20
39.681720
  0
VERTEX
  8
4
  6
CONTINUOUS
 10
80.563985
 20
5.177850
  0
SEQEND
  8
4
  6
CONTINUOUS
  0
LINE
  8
4
  6
CONTINUOUS
 10
80.883985
 20
5.177850
 11
80.883985
 21
4.277850
  0
LINE
  8
4
  6
CONTINUOUS
 10
80.748985
 20
4.727850
 11
81.018985
 21
4.727850
  0
LINE
  8
4
  6
CONTINUOUS
 10
80.748985
 20
4.637850
 11
81.018985
 21
4.637850
  0
LINE
  8
4
  6
CONTINUOUS
 10
80.748985
 20
4.547850
 11
81.018985
 21
4.547850
  0
LINE
  8
4
  6
CONTINUOUS
 10
80.748985
 20
4.457850
 11
81.018985
 21
4.457850
  0
LINE
  8
4
  6
CONTINUOUS
 10
80.816485
 20
4.277850
 11
80.951485
 21
4.277850
  0
LINE
  8
4
  6
CONTINUOUS
 10
80.816485
 20
4.277850
 11
80.883985
 21
3.377850
  0
LINE
  8
4
  6
CONTINUOUS
 10
80.951485
 20
4.277850
 11
80.883985
 21
3.377850
  0
LINE
  8
4
  6
CONTINUOUS
 10
80.883985
 20
39.681720
 11
80.883985
 21
40.881720
  0
LINE
  8
4
  6
CONTINUOUS
 10
81.003985
 20
40.881720
 11
80.763985
 21
40.881720
  0
LINE
  8
4
  6
CONTINUOUS
 10
81.003985
 20
40.857720
 11
80.763985
 21
40.857720
  0
LINE
  8
4
  6
CONTINUOUS
 10
81.003985
 20
40.833720
 11
80.763985
 21
40.833720
  0
POLYLINE
  8
4
  6
CONTINUOUS
 66
     1
  0
VERTEX
  8
4
  6
CONTINUOUS
 10
80.883985
 20
39.681720
  0
VERTEX
  8
4
  6
CONTINUOUS
 10
80.883985
 20
5.177850
  0
SEQEND
  8
4
  6
CONTINUOUS
  0
LINE
  8
4
  6
CONTINUOUS
 10
10.823359
 20
5.177850
 11
10.823359
 21
4.277850
  0
LINE
  8
4
  6
CONTINUOUS
 10
10.755859
 20
4.277850
 11
10.890859
 21
4.277850
  0
LINE
  8
4
  6
CONTINUOUS
 10
10.755859
 20
4.277850
 11
10.823359
 21
3.377850
  0
LINE
  8
4
  6
CONTINUOUS
 10
10.890859
 20
4.277850
 11
10.823359
 21
3.377850
  0
LINE
  8
4
  6
CONTINUOUS
 10
10.688359
 20
4.457850
 11
10.958359
 21
4.457850
  0
LINE
  8
4
  6
CONTINUOUS
 10
10.688359
 20
4.570350
 11
10.958359
 21
4.570350
  0
LINE
  8
4
  6
CONTINUOUS
 10
10.688359
 20
4.682850
 11
10.958359
 21
4.682850
  0
LINE
  8
4
  6
CONTINUOUS
 10
10.823359
 20
39.681720
 11
10.823359
 21
40.881720
  0
LINE
  8
4
  6
CONTINUOUS
 10
10.943359
 20
40.881720
 11
10.703359
 21
40.881720
  0
LINE
  8
4
  6
CONTINUOUS
 10
10.943359
 20
40.857720
 11
10.703359
 21
40.857720
  0
LINE
  8
4
  6
CONTINUOUS
 10
10.943359
 20
40.833720
 11
10.703359
 21
40.833720
  0
POLYLINE
  8
4
  6
CONTINUOUS
 66
     1
  0
VERTEX
  8
4
  6
CONTINUOUS
 10
10.823359
 20
39.681720
  0
VERTEX
  8
4
  6
CONTINUOUS
 10
10.823359
 20
5.177850
  0
SEQEND
  8
4
  6
CONTINUOUS
  0
LINE
  8
4
  6
CONTINUOUS
 10
11.623359
 20
5.177850
 11
11.623359
 21
4.277850
  0
LINE
  8
4
  6
CONTINUOUS
 10
11.555859
 20
4.277850
 11
11.690859
 21
4.277850
  0
LINE
  8
4
  6
CONTINUOUS
 10
11.555859
 20
4.277850
 11
11.623359
 21
3.377850
  0
LINE
  8
4
  6
CONTINUOUS
 10
11.690859
 20
4.277850
 11
11.623359
 21
3.377850
  0
LINE
  8
4
  6
CONTINUOUS
 10
11.488359
 20
4.457850
 11
11.758359
 21
4.457850
  0
LINE
  8
4
  6
CONTINUOUS
 10
11.488359
 20
4.570350
 11
11.758359
 21
4.570350
  0
LINE
  8
4
  6
CONTINUOUS
 10
11.488359
 20
4.682850
 11
11.758359
 21
4.682850
  0
LINE
  8
4
  6
CONTINUOUS
 10
11.623359
 20
39.681720
 11
11.623359
 21
40.881720
  0
LINE
  8
4
  6
CONTINUOUS
 10
11.743359
 20
40.881720
 11
11.503359
 21
40.881720
  0
LINE
  8
4
  6
CONTINUOUS
 10
11.743359
 20
40.857720
 11
11.503359
 21
40.857720
  0
LINE
  8
4
  6
CONTINUOUS
 10
11.743359
 20
40.833720
 11
11.503359
 21
40.833720
  0
POLYLINE
  8
4
  6
CONTINUOUS
 66
     1
  0
VERTEX
  8
4
  6
CONTINUOUS
 10
11.623359
 20
39.681720
  0
VERTEX
  8
4
  6
CONTINUOUS
 10
11.623359
 20
5.177850
  0
SEQEND
  8
4
  6
CONTINUOUS
  0
LINE
  8
4
  6
CONTINUOUS
 10
89.660925
 20
5.177850
 11
89.660925
 21
4.277850
  0
LINE
  8
4
  6
CONTINUOUS
 10
89.525925
 20
4.727850
 11
89.795925
 21
4.727850
  0
LINE
  8
4
  6
CONTINUOUS
 10
89.525925
 20
4.637850
 11
89.795925
 21
4.637850
  0
LINE
  8
4
  6
CONTINUOUS
 10
89.525925
 20
4.547850
 11
89.795925
 21
4.547850
  0
LINE
  8
4
  6
CONTINUOUS
 10
89.525925
 20
4.457850
 11
89.795925
 21
4.457850
  0
LINE
  8
4
  6
CONTINUOUS
 10
89.593425
 20
4.277850
 11
89.728425
 21
4.277850
  0
LINE
  8
4
  6
CONTINUOUS
 10
89.593425
 20
4.277850
 11
89.660925
 21
3.377850
  0
LINE
  8
4
  6
CONTINUOUS
 10
89.728425
 20
4.277850
 11
89.660925
 21
3.377850
  0
LINE
  8
4
  6
CONTINUOUS
 10
89.660925
 20
39.681720
 11
89.660925
 21
40.881720
  0
LINE
  8
4
  6
CONTINUOUS
 10
89.780925
 20
40.881720
 11
89.540925
 21
40.881720
  0
LINE
  8
4
  6
CONTINUOUS
 10
89.780925
 20
40.857720
 11
89.540925
 21
40.857720
  0
LINE
  8
4
  6
CONTINUOUS
 10
89.780925
 20
40.833720
 11
89.540925
 21
40.833720
  0
POLYLINE
  8
4
  6
CONTINUOUS
 66
     1
  0
VERTEX
  8
4
  6
CONTINUOUS
 10
89.660925
 20
39.681720
  0
VERTEX
  8
4
  6
CONTINUOUS
 10
89.660925
 20
5.177850
  0
SEQEND
  8
4
  6
CONTINUOUS
  0
LINE
  8
4
  6
CONTINUOUS
 10
90.180925
 20
5.177850
 11
90.180925
 21
4.277850
  0
LINE
  8
4
  6
CONTINUOUS
 10
90.045925
 20
4.727850
 11
90.315925
 21
4.727850
  0
LINE
  8
4
  6
CONTINUOUS
 10
90.045925
 20
4.637850
 11
90.315925
 21
4.637850
  0
LINE
  8
4
  6
CONTINUOUS
 10
90.045925
 20
4.547850
 11
90.315925
 21
4.547850
  0
LINE
  8
4
  6
CONTINUOUS
 10
90.045925
 20
4.457850
 11
90.315925
 21
4.457850
  0
LINE
  8
4
  6
CONTINUOUS
 10
90.113425
 20
4.277850
 11
90.248425
 21
4.277850
  0
LINE
  8
4
  6
CONTINUOUS
 10
90.113425
 20
4.277850
 11
90.180925
 21
3.377850
  0
LINE
  8
4
  6
CONTINUOUS
 10
90.248425
 20
4.277850
 11
90.180925
 21
3.377850
  0
LINE
  8
4
  6
CONTINUOUS
 10
90.180925
 20
39.681720
 11
90.180925
 21
40.881720
  0
LINE
  8
4
  6
CONTINUOUS
 10
90.300925
 20
40.881720
 11
90.060925
 21
40.881720
  0
LINE
  8
4
  6
CONTINUOUS
 10
90.300925
 20
40.857720
 11
90.060925
 21
40.857720
  0
LINE
  8
4
  6
CONTINUOUS
 10
90.300925
 20
40.833720
 11
90.060925
 21
40.833720
  0
POLYLINE
  8
4
  6
CONTINUOUS
 66
     1
  0
VERTEX
  8
4
  6
CONTINUOUS
 10
90.180925
 20
39.681720
  0
VERTEX
  8
4
  6
CONTINUOUS
 10
90.180925
 20
5.177850
  0
SEQEND
  8
4
  6
CONTINUOUS
  0
LINE
  8
4
  6
CONTINUOUS
 10
90.700925
 20
5.177850
 11
90.700925
 21
4.277850
  0
LINE
  8
4
  6
CONTINUOUS
 10
90.565925
 20
4.727850
 11
90.835925
 21
4.727850
  0
LINE
  8
4
  6
CONTINUOUS
 10
90.565925
 20
4.637850
 11
90.835925
 21
4.637850
  0
LINE
  8
4
  6
CONTINUOUS
 10
90.565925
 20
4.547850
 11
90.835925
 21
4.547850
  0
LINE
  8
4
  6
CONTINUOUS
 10
90.565925
 20
4.457850
 11
90.835925
 21
4.457850
  0
LINE
  8
4
  6
CONTINUOUS
 10
90.633425
 20
4.277850
 11
90.768425
 21
4.277850
  0
LINE
  8
4
  6
CONTINUOUS
 10
90.633425
 20
4.277850
 11
90.700925
 21
3.377850
  0
LINE
  8
4
  6
CONTINUOUS
 10
90.768425
 20
4.277850
 11
90.700925
 21
3.377850
  0
LINE
  8
4
  6
CONTINUOUS
 10
90.700925
 20
39.681720
 11
90.700925
 21
40.881720
  0
LINE
  8
4
  6
CONTINUOUS
 10
90.820925
 20
40.881720
 11
90.580925
 21
40.881720
  0
LINE
  8
4
  6
CONTINUOUS
 10
90.820925
 20
40.857720
 11
90.580925
 21
40.857720
  0
LINE
  8
4
  6
CONTINUOUS
 10
90.820925
 20
40.833720
 11
90.580925
 21
40.833720
  0
POLYLINE
  8
4
  6
CONTINUOUS
 66
     1
  0
VERTEX
  8
4
  6
CONTINUOUS
 10
90.700925
 20
39.681720
  0
VERTEX
  8
4
  6
CONTINUOUS
 10
90.700925
 20
5.177850
  0
SEQEND
  8
4
  6
CONTINUOUS
  0
LINE
  8
4
  6
CONTINUOUS
 10
53.302623
 20
5.177850
 11
53.302623
 21
4.277850
  0
LINE
  8
4
  6
CONTINUOUS
 10
53.167623
 20
4.727850
 11
53.437623
 21
4.727850
  0
LINE
  8
4
  6
CONTINUOUS
 10
53.167623
 20
4.637850
 11
53.437623
 21
4.637850
  0
LINE
  8
4
  6
CONTINUOUS
 10
53.167623
 20
4.547850
 11
53.437623
 21
4.547850
  0
LINE
  8
4
  6
CONTINUOUS
 10
53.167623
 20
4.457850
 11
53.437623
 21
4.457850
  0
LINE
  8
4
  6
CONTINUOUS
 10
53.235123
 20
4.277850
 11
53.370123
 21
4.277850
  0
LINE
  8
4
  6
CONTINUOUS
 10
53.235123
 20
4.277850
 11
53.302623
 21
3.377850
  0
LINE
  8
4
  6
CONTINUOUS
 10
53.370123
 20
4.277850
 11
53.302623
 21
3.377850
  0
LINE
  8
4
  6
CONTINUOUS
 10
53.302623
 20
39.681720
 11
53.302623
 21
40.881720
  0
LINE
  8
4
  6
CONTINUOUS
 10
53.422623
 20
40.881720
 11
53.182623
 21
40.881720
  0
LINE
  8
4
  6
CONTINUOUS
 10
53.422623
 20
40.857720
 11
53.182623
 21
40.857720
  0
LINE
  8
4
  6
CONTINUOUS
 10
53.422623
 20
40.833720
 11
53.182623
 21
40.833720
  0
POLYLINE
  8
4
  6
CONTINUOUS
 66
     1
  0
VERTEX
  8
4
  6
CONTINUOUS
 10
53.302623
 20
39.681720
  0
VERTEX
  8
4
  6
CONTINUOUS
 10
53.302623
 20
5.177850
  0
SEQEND
  8
4
  6
CONTINUOUS
  0
LINE
  8
4
  6
CONTINUOUS
 10
53.702623
 20
5.177850
 11
53.702623
 21
4.277850
  0
LINE
  8
4
  6
CONTINUOUS
 10
53.567623
 20
4.727850
 11
53.837623
 21
4.727850
  0
LINE
  8
4
  6
CONTINUOUS
 10
53.567623
 20
4.637850
 11
53.837623
 21
4.637850
  0
LINE
  8
4
  6
CONTINUOUS
 10
53.567623
 20
4.547850
 11
53.837623
 21
4.547850
  0
LINE
  8
4
  6
CONTINUOUS
 10
53.567623
 20
4.457850
 11
53.837623
 21
4.457850
  0
LINE
  8
4
  6
CONTINUOUS
 10
53.635123
 20
4.277850
 11
53.770123
 21
4.277850
  0
LINE
  8
4
  6
CONTINUOUS
 10
53.635123
 20
4.277850
 11
53.702623
 21
3.377850
  0
LINE
  8
4
  6
CONTINUOUS
 10
53.770123
 20
4.277850
 11
53.702623
 21
3.377850
  0
LINE
  8
4
  6
CONTINUOUS
 10
53.702623
 20
39.681720
 11
53.702623
 21
40.881720
  0
LINE
  8
4
  6
CONTINUOUS
 10
53.822623
 20
40.881720
 11
53.582623
 21
40.881720
  0
LINE
  8
4
  6
CONTINUOUS
 10
53.822623
 20
40.857720
 11
53.582623
 21
40.857720
  0
LINE
  8
4
  6
CONTINUOUS
 10
53.822623
 20
40.833720
 11
53.582623
 21
40.833720
  0
POLYLINE
  8
4
  6
CONTINUOUS
 66
     1
  0
VERTEX
  8
4
  6
CONTINUOUS
 10
53.702623
 20
39.681720
  0
VERTEX
  8
4
  6
CONTINUOUS
 10
53.702623
 20
5.177850
  0
SEQEND
  8
4
  6
CONTINUOUS
  0
LINE
  8
4
  6
CONTINUOUS
 10
54.102623
 20
5.177850
 11
54.102623
 21
4.277850
  0
LINE
  8
4
  6
CONTINUOUS
 10
53.967623
 20
4.727850
 11
54.237623
 21
4.727850
  0
LINE
  8
4
  6
CONTINUOUS
 10
53.967623
 20
4.637850
 11
54.237623
 21
4.637850
  0
LINE
  8
4
  6
CONTINUOUS
 10
53.967623
 20
4.547850
 11
54.237623
 21
4.547850
  0
LINE
  8
4
  6
CONTINUOUS
 10
53.967623
 20
4.457850
 11
54.237623
 21
4.457850
  0
LINE
  8
4
  6
CONTINUOUS
 10
54.035123
 20
4.277850
 11
54.170123
 21
4.277850
  0
LINE
  8
4
  6
CONTINUOUS
 10
54.035123
 20
4.277850
 11
54.102623
 21
3.377850
  0
LINE
  8
4
  6
CONTINUOUS
 10
54.170123
 20
4.277850
 11
54.102623
 21
3.377850
  0
LINE
  8
4
  6
CONTINUOUS
 10
54.102623
 20
39.681720
 11
54.102623
 21
40.881720
  0
LINE
  8
4
  6
CONTINUOUS
 10
54.222623
 20
40.881720
 11
53.982623
 21
40.881720
  0
LINE
  8
4
  6
CONTINUOUS
 10
54.222623
 20
40.857720
 11
53.982623
 21
40.857720
  0
LINE
  8
4
  6
CONTINUOUS
 10
54.222623
 20
40.833720
 11
53.982623
 21
40.833720
  0
POLYLINE
  8
4
  6
CONTINUOUS
 66
     1
  0
VERTEX
  8
4
  6
CONTINUOUS
 10
54.102623
 20
39.681720
  0
VERTEX
  8
4
  6
CONTINUOUS
 10
54.102623
 20
5.177850
  0
SEQEND
  8
4
  6
CONTINUOUS
  0
LINE
  8
4
  6
CONTINUOUS
 10
54.502623
 20
5.177850
 11
54.502623
 21
4.277850
  0
LINE
  8
4
  6
CONTINUOUS
 10
54.367623
 20
4.727850
 11
54.637623
 21
4.727850
  0
LINE
  8
4
  6
CONTINUOUS
 10
54.367623
 20
4.637850
 11
54.637623
 21
4.637850
  0
LINE
  8
4
  6
CONTINUOUS
 10
54.367623
 20
4.547850
 11
54.637623
 21
4.547850
  0
LINE
  8
4
  6
CONTINUOUS
 10
54.367623
 20
4.457850
 11
54.637623
 21
4.457850
  0
LINE
  8
4
  6
CONTINUOUS
 10
54.435123
 20
4.277850
 11
54.570123
 21
4.277850
  0
LINE
  8
4
  6
CONTINUOUS
 10
54.435123
 20
4.277850
 11
54.502623
 21
3.377850
  0
LINE
  8
4
  6
CONTINUOUS
 10
54.570123
 20
4.277850
 11
54.502623
 21
3.377850
  0
LINE
  8
4
  6
CONTINUOUS
 10
54.502623
 20
39.681720
 11
54.502623
 21
40.881720
  0
LINE
  8
4
  6
CONTINUOUS
 10
54.622623
 20
40.881720
 11
54.382623
 21
40.881720
  0
LINE
  8
4
  6
CONTINUOUS
 10
54.622623
 20
40.857720
 11
54.382623
 21
40.857720
  0
LINE
  8
4
  6
CONTINUOUS
 10
54.622623
 20
40.833720
 11
54.382623
 21
40.833720
  0
POLYLINE
  8
4
  6
CONTINUOUS
 66
     1
  0
VERTEX
  8
4
  6
CONTINUOUS
 10
54.502623
 20
39.681720
  0
VERTEX
  8
4
  6
CONTINUOUS
 10
54.502623
 20
5.177850
  0
SEQEND
  8
4
  6
CONTINUOUS
  0
LINE
  8
2
  6
CONTINUOUS
 10
101.700000
 20
23.900000
 11
101.700000
 21
23.900000
  0
LINE
  8
2
  6
CONTINUOUS
 10
118.000000
 20
23.900000
 11
118.000000
 21
23.900000
  0
LINE
  8
2
  6
CONTINUOUS
 10
118.000000
 20
23.900000
 11
101.700000
 21
23.900000
  0
LINE
  8
2
  6
CONTINUOUS
 10
118.000000
 20
22.200000
 11
101.700000
 21
22.200000
  0
LINE
  8
2
  6
CONTINUOUS
 10
101.700000
 20
23.900000
 11
101.700000
 21
22.200000
  0
LINE
  8
2
  6
CONTINUOUS
 10
118.000000
 20
22.200000
 11
118.000000
 21
23.900000
  0
LINE
  8
1
  6
CONTINUOUS
 10
118.000002
 20
29.700001
 11
119.000002
 21
29.700001
  0
LINE
  8
1
  6
CONTINUOUS
 10
118.000002
 20
59.400002
 11
119.000002
 21
59.400002
  0
LINE
  8
1
  6
CONTINUOUS
 10
0.000000
 20
29.700001
 11
2.500000
 21
29.700001
  0
LINE
  8
1
  6
CONTINUOUS
 10
0.000000
 20
59.400002
 11
2.500000
 21
59.400002
  0
LINE
  8
1
  6
CONTINUOUS
 10
100.500002
 20
82.999998
 11
100.500002
 21
83.999998
  0
LINE
  8
1
  6
CONTINUOUS
 10
82.000002
 20
82.999998
 11
82.000002
 21
83.999998
  0
LINE
  8
1
  6
CONTINUOUS
 10
63.500002
 20
82.999998
 11
63.500002
 21
83.999998
  0
LINE
  8
1
  6
CONTINUOUS
 10
45.000002
 20
82.999998
 11
45.000002
 21
83.999998
  0
LINE
  8
1
  6
CONTINUOUS
 10
33.050001
 20
82.999998
 11
33.050001
 21
83.999998
  0
LINE
  8
1
  6
CONTINUOUS
 10
21.100000
 20
82.999998
 11
21.100000
 21
83.999998
  0
LINE
  8
1
  6
CONTINUOUS
 10
100.500002
 20
0.000000
 11
100.500002
 21
1.000000
  0
LINE
  8
1
  6
CONTINUOUS
 10
82.000002
 20
0.000000
 11
82.000002
 21
1.000000
  0
LINE
  8
1
  6
CONTINUOUS
 10
63.500002
 20
0.000000
 11
63.500002
 21
1.000000
  0
LINE
  8
1
  6
CONTINUOUS
 10
45.000002
 20
0.000000
 11
45.000002
 21
1.000000
  0
LINE
  8
1
  6
CONTINUOUS
 10
33.050001
 20
0.000000
 11
33.050001
 21
1.000000
  0
LINE
  8
1
  6
CONTINUOUS
 10
21.100000
 20
0.000000
 11
21.100000
 21
1.000000
  0
LINE
  8
1
  6
CONTINUOUS
 10
0.000000
 20
0.000000
 11
119.000002
 21
0.000000
  0
LINE
  8
1
  6
CONTINUOUS
 10
119.000002
 20
0.000000
 11
119.000002
 21
83.999998
  0
LINE
  8
1
  6
CONTINUOUS
 10
0.000000
 20
0.000000
 11
0.000000
 21
83.999998
  0
LINE
  8
8
  6
CONTINUOUS
 10
2.500000
 20
1.000000
 11
118.000002
 21
1.000000
  0
LINE
  8
8
  6
CONTINUOUS
 10
118.000002
 20
1.000000
 11
118.000002
 21
82.999998
  0
LINE
  8
1
  6
CONTINUOUS
 10
0.000000
 20
83.999998
 11
119.000002
 21
83.999998
  0
LINE
  8
8
  6
CONTINUOUS
 10
2.500000
 20
82.999998
 11
118.000002
 21
82.999998
  0
LINE
  8
8
  6
CONTINUOUS
 10
2.500000
 20
82.999998
 11
2.500000
 21
1.000000
  0
LINE
  8
2
  6
CONTINUOUS
 10
102.650002
 20
17.625000
 11
102.650002
 21
18.125000
  0
LINE
  8
1
  6
CONTINUOUS
 10
101.700002
 20
18.200000
 11
118.000002
 21
18.200000
  0
LINE
  8
1
  6
CONTINUOUS
 10
101.700002
 20
17.700000
 11
118.000002
 21
17.700000
  0
LINE
  8
1
  6
CONTINUOUS
 10
102.200002
 20
17.700000
 11
118.000002
 21
17.700000
  0
LINE
  8
2
  6
CONTINUOUS
 10
102.650002
 20
17.125000
 11
102.650002
 21
17.625000
  0
LINE
  8
1
  6
CONTINUOUS
 10
102.200002
 20
17.700000
 11
118.000002
 21
17.700000
  0
LINE
  8
1
  6
CONTINUOUS
 10
101.700002
 20
17.200000
 11
118.000002
 21
17.200000
  0
LINE
  8
2
  6
CONTINUOUS
 10
102.650002
 20
16.700000
 11
102.650002
 21
17.200000
  0
LINE
  8
1
  6
CONTINUOUS
 10
116.008223
 20
16.000000
 11
116.008223
 21
22.200000
  0
LINE
  8
1
  6
CONTINUOUS
 10
104.850002
 20
16.000000
 11
104.850002
 21
22.200000
  0
LINE
  8
6
  6
CONTINUOUS
 10
101.700002
 20
16.000000
 11
118.000002
 21
16.000000
  0
LINE
  8
1
  6
CONTINUOUS
 10
102.650002
 20
16.000000
 11
102.650002
 21
16.700000
  0
LINE
  8
1
  6
CONTINUOUS
 10
102.200002
 20
17.200000
 11
118.000002
 21
17.200000
  0
LINE
  8
1
  6
CONTINUOUS
 10
101.700002
 20
16.700000
 11
118.000002
 21
16.700000
  0
LINE
  8
2
  6
CONTINUOUS
 10
102.650002
 20
18.625000
 11
102.650002
 21
22.200000
  0
LINE
  8
6
  6
CONTINUOUS
 10
101.700002
 20
22.200000
 11
118.000002
 21
22.200000
  0
LINE
  8
1
  6
CONTINUOUS
 10
101.700002
 20
18.700000
 11
118.000002
 21
18.700000
  0
LINE
  8
1
  6
CONTINUOUS
 10
102.200002
 20
18.700000
 11
118.000002
 21
18.700000
  0
LINE
  8
2
  6
CONTINUOUS
 10
102.650002
 20
18.125000
 11
102.650002
 21
18.625000
  0
LINE
  8
1
  6
CONTINUOUS
 10
102.200002
 20
18.700000
 11
118.000002
 21
18.700000
  0
LINE
  8
1
  6
CONTINUOUS
 10
102.200002
 20
18.200000
 11
118.000002
 21
18.200000
  0
LINE
  8
1
  6
CONTINUOUS
 10
102.200002
 20
18.200000
 11
118.000002
 21
18.200000
  0
LINE
  8
6
  6
CONTINUOUS
 10
101.700002
 20
6.600000
 11
118.000002
 21
6.600000
  0
LINE
  8
6
  6
CONTINUOUS
 10
101.700002
 20
8.500000
 11
118.000002
 21
8.500000
  0
LINE
  8
6
  6
CONTINUOUS
 10
101.700002
 20
1.000000
 11
101.700002
 21
8.500000
  0
LINE
  8
6
  6
CONTINUOUS
 10
101.700002
 20
16.000000
 11
101.700002
 21
22.200000
  0
LINE
  8
6
  6
CONTINUOUS
 10
101.700002
 20
15.900000
 11
118.000002
 21
15.900000
  0
LINE
  8
6
  6
CONTINUOUS
 10
101.700002
 20
11.400000
 11
101.700002
 21
15.900000
  0
LINE
  8
1
  6
CONTINUOUS
 10
101.700002
 20
14.400000
 11
118.000002
 21
14.400000
  0
LINE
  8
6
  6
CONTINUOUS
 10
101.700002
 20
3.000000
 11
118.000002
 21
3.000000
  0
LINE
  8
6
  6
CONTINUOUS
 10
105.024321
 20
3.000000
 11
105.024321
 21
1.000000
  0
LINE
  8
1
  6
CONTINUOUS
 10
101.700002
 20
12.900000
 11
118.000002
 21
12.900000
  0
POLYLINE
  8
1
  6
CONTINUOUS
 66
     1
  0
VERTEX
  8
1
  6
CONTINUOUS
 10
103.635546
 20
9.498246
  0
VERTEX
  8
1
  6
CONTINUOUS
 10
101.971546
 20
9.498246
  0
VERTEX
  8
1
  6
CONTINUOUS
 10
101.971546
 20
11.162246
  0
VERTEX
  8
1
  6
CONTINUOUS
 10
103.635546
 20
11.162246
  0
VERTEX
  8
1
  6
CONTINUOUS
 10
103.635546
 20
9.498246
  0
SEQEND
  8
1
  6
CONTINUOUS
  0
POLYLINE
  8
13
  6
CONTINUOUS
 66
     1
  0
VERTEX
  8
13
  6
CONTINUOUS
 10
102.095046
 20
10.244446
  0
VERTEX
  8
13
  6
CONTINUOUS
 10
102.095046
 20
9.498246
  0
VERTEX
  8
13
  6
CONTINUOUS
 10
101.971546
 20
9.498246
  0
VERTEX
  8
13
  6
CONTINUOUS
 10
101.971546
 20
11.162246
  0
VERTEX
  8
13
  6
CONTINUOUS
 10
102.095046
 20
11.162246
  0
VERTEX
  8
13
  6
CONTINUOUS
 10
102.095046
 20
10.244446
  0
SEQEND
  8
13
  6
CONTINUOUS
  0
POLYLINE
  8
13
  6
CONTINUOUS
 66
     1
  0
VERTEX
  8
13
  6
CONTINUOUS
 10
102.522746
 20
10.230979
  0
VERTEX
  8
13
  6
CONTINUOUS
 10
102.522746
 20
9.498246
  0
VERTEX
  8
13
  6
CONTINUOUS
 10
102.095046
 20
9.498246
  0
VERTEX
  8
13
  6
CONTINUOUS
 10
102.095046
 20
10.244446
  0
VERTEX
  8
13
  6
CONTINUOUS
 10
102.143544
 20
10.248642
  0
VERTEX
  8
13
  6
CONTINUOUS
 10
102.211078
 20
10.252071
  0
VERTEX
  8
13
  6
CONTINUOUS
 10
102.259959
 20
10.252484
  0
VERTEX
  8
13
  6
CONTINUOUS
 10
102.290321
 20
10.252141
  0
VERTEX
  8
13
  6
CONTINUOUS
 10
102.334203
 20
10.250668
  0
VERTEX
  8
13
  6
CONTINUOUS
 10
102.394518
 20
10.246747
  0
VERTEX
  8
13
  6
CONTINUOUS
 10
102.446340
 20
10.241621
  0
VERTEX
  8
13
  6
CONTINUOUS
 10
102.490083
 20
10.235974
  0
VERTEX
  8
13
  6
CONTINUOUS
 10
102.522746
 20
10.230979
  0
SEQEND
  8
13
  6
CONTINUOUS
  0
POLYLINE
  8
13
  6
CONTINUOUS
 66
     1
  0
VERTEX
  8
13
  6
CONTINUOUS
 10
102.594246
 20
10.217654
  0
VERTEX
  8
13
  6
CONTINUOUS
 10
102.594246
 20
9.498246
  0
VERTEX
  8
13
  6
CONTINUOUS
 10
103.021946
 20
9.498246
  0
VERTEX
  8
13
  6
CONTINUOUS
 10
103.021946
 20
10.064184
  0
VERTEX
  8
13
  6
CONTINUOUS
 10
103.003898
 20
10.073542
  0
VERTEX
  8
13
  6
CONTINUOUS
 10
102.981716
 20
10.084501
  0
VERTEX
  8
13
  6
CONTINUOUS
 10
102.953307
 20
10.098271
  0
VERTEX
  8
13
  6
CONTINUOUS
 10
102.912865
 20
10.116383
  0
VERTEX
  8
13
  6
CONTINUOUS
 10
102.885024
 20
10.128001
  0
VERTEX
  8
13
  6
CONTINUOUS
 10
102.844071
 20
10.144755
  0
VERTEX
  8
13
  6
CONTINUOUS
 10
102.813490
 20
10.155923
  0
VERTEX
  8
13
  6
CONTINUOUS
 10
102.778388
 20
10.168156
  0
VERTEX
  8
13
  6
CONTINUOUS
 10
102.744083
 20
10.178793
  0
VERTEX
  8
13
  6
CONTINUOUS
 10
102.703465
 20
10.191172
  0
VERTEX
  8
13
  6
CONTINUOUS
 10
102.665141
 20
10.201162
  0
VERTEX
  8
13
  6
CONTINUOUS
 10
102.624819
 20
10.210970
  0
VERTEX
  8
13
  6
CONTINUOUS
 10
102.594246
 20
10.217654
  0
SEQEND
  8
13
  6
CONTINUOUS
  0
POLYLINE
  8
13
  6
CONTINUOUS
 66
     1
  0
VERTEX
  8
13
  6
CONTINUOUS
 10
103.093446
 20
10.024343
  0
VERTEX
  8
13
  6
CONTINUOUS
 10
103.093446
 20
9.498246
  0
VERTEX
  8
13
  6
CONTINUOUS
 10
103.521146
 20
9.498246
  0
VERTEX
  8
13
  6
CONTINUOUS
 10
103.521146
 20
9.661030
  0
VERTEX
  8
13
  6
CONTINUOUS
 10
103.507797
 20
9.676793
  0
VERTEX
  8
13
  6
CONTINUOUS
 10
103.495964
 20
9.690528
  0
VERTEX
  8
13
  6
CONTINUOUS
 10
103.473877
 20
9.715277
  0
VERTEX
  8
13
  6
CONTINUOUS
 10
103.454164
 20
9.736530
  0
VERTEX
  8
13
  6
CONTINUOUS
 10
103.434048
 20
9.757502
  0
VERTEX
  8
13
  6
CONTINUOUS
 10
103.410015
 20
9.781535
  0
VERTEX
  8
13
  6
CONTINUOUS
 10
103.399294
 20
9.791943
  0
VERTEX
  8
13
  6
CONTINUOUS
 10
103.388429
 20
9.802406
  0
VERTEX
  8
13
  6
CONTINUOUS
 10
103.359952
 20
9.828752
  0
VERTEX
  8
13
  6
CONTINUOUS
 10
103.325139
 20
9.859181
  0
VERTEX
  8
13
  6
CONTINUOUS
 10
103.286846
 20
9.890826
  0
VERTEX
  8
13
  6
CONTINUOUS
 10
103.251036
 20
9.918745
  0
VERTEX
  8
13
  6
CONTINUOUS
 10
103.200839
 20
9.955427
  0
VERTEX
  8
13
  6
CONTINUOUS
 10
103.134352
 20
9.999676
  0
VERTEX
  8
13
  6
CONTINUOUS
 10
103.093446
 20
10.024343
  0
SEQEND
  8
13
  6
CONTINUOUS
  0
POLYLINE
  8
13
  6
CONTINUOUS
 66
     1
  0
VERTEX
  8
13
  6
CONTINUOUS
 10
102.522746
 20
10.635283
  0
VERTEX
  8
13
  6
CONTINUOUS
 10
102.522746
 20
11.162246
  0
VERTEX
  8
13
  6
CONTINUOUS
 10
102.095046
 20
11.162246
  0
VERTEX
  8
13
  6
CONTINUOUS
 10
102.095046
 20
10.995122
  0
VERTEX
  8
13
  6
CONTINUOUS
 10
102.153689
 20
10.929235
  0
VERTEX
  8
13
  6
CONTINUOUS
 10
102.237359
 20
10.846559
  0
VERTEX
  8
13
  6
CONTINUOUS
 10
102.308389
 20
10.784730
  0
VERTEX
  8
13
  6
CONTINUOUS
 10
102.366624
 20
10.739274
  0
VERTEX
  8
13
  6
CONTINUOUS
 10
102.406322
 20
10.710064
  0
VERTEX
  8
13
  6
CONTINUOUS
 10
102.455827
 20
10.676682
  0
VERTEX
  8
13
  6
CONTINUOUS
 10
102.493954
 20
10.652515
  0
VERTEX
  8
13
  6
CONTINUOUS
 10
102.522746
 20
10.635283
  0
SEQEND
  8
13
  6
CONTINUOUS
  0
POLYLINE
  8
13
  6
CONTINUOUS
 66
     1
  0
VERTEX
  8
13
  6
CONTINUOUS
 10
103.021946
 20
10.443678
  0
VERTEX
  8
13
  6
CONTINUOUS
 10
103.021946
 20
11.162246
  0
VERTEX
  8
13
  6
CONTINUOUS
 10
102.594246
 20
11.162246
  0
VERTEX
  8
13
  6
CONTINUOUS
 10
102.594246
 20
10.595859
  0
VERTEX
  8
13
  6
CONTINUOUS
 10
102.663800
 20
10.561766
  0
VERTEX
  8
13
  6
CONTINUOUS
 10
102.744359
 20
10.527375
  0
VERTEX
  8
13
  6
CONTINUOUS
 10
102.812197
 20
10.501464
  0
VERTEX
  8
13
  6
CONTINUOUS
 10
102.889458
 20
10.476967
  0
VERTEX
  8
13
  6
CONTINUOUS
 10
102.950702
 20
10.460007
  0
VERTEX
  8
13
  6
CONTINUOUS
 10
103.021946
 20
10.443678
  0
SEQEND
  8
13
  6
CONTINUOUS
  0
POLYLINE
  8
13
  6
CONTINUOUS
 66
     1
  0
VERTEX
  8
13
  6
CONTINUOUS
 10
103.093446
 20
10.430307
  0
VERTEX
  8
13
  6
CONTINUOUS
 10
103.093446
 20
11.162246
  0
VERTEX
  8
13
  6
CONTINUOUS
 10
103.521146
 20
11.162246
  0
VERTEX
  8
13
  6
CONTINUOUS
 10
103.521146
 20
10.417580
  0
VERTEX
  8
13
  6
CONTINUOUS
 10
103.476372
 20
10.413637
  0
VERTEX
  8
13
  6
CONTINUOUS
 10
103.416577
 20
10.410480
  0
VERTEX
  8
13
  6
CONTINUOUS
 10
103.366788
 20
10.409453
  0
VERTEX
  8
13
  6
CONTINUOUS
 10
103.336830
 20
10.409453
  0
VERTEX
  8
13
  6
CONTINUOUS
 10
103.286182
 20
10.410821
  0
VERTEX
  8
13
  6
CONTINUOUS
 10
103.241261
 20
10.413321
  0
VERTEX
  8
13
  6
CONTINUOUS
 10
103.205545
 20
10.416539
  0
VERTEX
  8
13
  6
CONTINUOUS
 10
103.155349
 20
10.421044
  0
VERTEX
  8
13
  6
CONTINUOUS
 10
103.093446
 20
10.430307
  0
SEQEND
  8
13
  6
CONTINUOUS
  0
POLYLINE
  8
13
  6
CONTINUOUS
 66
     1
  0
VERTEX
  8
13
  6
CONTINUOUS
 10
102.522746
 20
9.498246
  0
VERTEX
  8
13
  6
CONTINUOUS
 10
102.594246
 20
9.498246
  0
VERTEX
  8
13
  6
CONTINUOUS
 10
102.594246
 20
11.162246
  0
VERTEX
  8
13
  6
CONTINUOUS
 10
102.522746
 20
11.162246
  0
VERTEX
  8
13
  6
CONTINUOUS
 10
102.522746
 20
9.498246
  0
VERTEX
  8
13
  6
CONTINUOUS
 10
102.594246
 20
9.498246
  0
SEQEND
  8
13
  6
CONTINUOUS
  0
POLYLINE
  8
13
  6
CONTINUOUS
 66
     1
  0
VERTEX
  8
13
  6
CONTINUOUS
 10
103.021946
 20
11.162246
  0
VERTEX
  8
13
  6
CONTINUOUS
 10
103.093446
 20
11.162246
  0
VERTEX
  8
13
  6
CONTINUOUS
 10
103.093446
 20
9.498246
  0
VERTEX
  8
13
  6
CONTINUOUS
 10
103.021946
 20
9.498246
  0
VERTEX
  8
13
  6
CONTINUOUS
 10
103.021946
 20
11.162246
  0
SEQEND
  8
13
  6
CONTINUOUS
  0
POLYLINE
  8
13
  6
CONTINUOUS
 66
     1
  0
VERTEX
  8
13
  6
CONTINUOUS
 10
103.521146
 20
9.498246
  0
VERTEX
  8
13
  6
CONTINUOUS
 10
103.635546
 20
9.498246
  0
VERTEX
  8
13
  6
CONTINUOUS
 10
103.635546
 20
11.162246
  0
VERTEX
  8
13
  6
CONTINUOUS
 10
103.521146
 20
11.162246
  0
VERTEX
  8
13
  6
CONTINUOUS
 10
103.521146
 20
9.498246
  0
SEQEND
  8
13
  6
CONTINUOUS
  0
LINE
  8
6
  6
CONTINUOUS
 10
107.924321
 20
3.000000
 11
107.924321
 21
2.000000
  0
LINE
  8
6
  6
CONTINUOUS
 10
101.700002
 20
2.000000
 11
114.124321
 21
2.000000
  0
LINE
  8
6
  6
CONTINUOUS
 10
114.124321
 20
3.000000
 11
114.124321
 21
1.000000
  0
LINE
  8
6
  6
CONTINUOUS
 10
101.700002
 20
8.600000
 11
118.000002
 21
8.600000
  0
LINE
  8
6
  6
CONTINUOUS
 10
101.700002
 20
8.600000
 11
101.700002
 21
11.300000
  0
LINE
  8
6
  6
CONTINUOUS
 10
101.700002
 20
11.300000
 11
118.000002
 21
11.300000
  0
LINE
  8
6
  6
CONTINUOUS
 10
101.700002
 20
11.400000
 11
118.000002
 21
11.400000
  0
LINE
  8
1
  6
CONTINUOUS
 10
101.700002
 20
19.200000
 11
118.000002
 21
19.200000
  0
LINE
  8
1
  6
CONTINUOUS
 10
102.200002
 20
19.200000
 11
118.000002
 21
19.200000
  0
LINE
  8
1
  6
CONTINUOUS
 10
102.200002
 20
19.200000
 11
118.000002
 21
19.200000
  0
LINE
  8
1
  6
CONTINUOUS
 10
101.700002
 20
19.700000
 11
118.000002
 21
19.700000
  0
LINE
  8
1
  6
CONTINUOUS
 10
102.200002
 20
19.700000
 11
118.000002
 21
19.700000
  0
LINE
  8
1
  6
CONTINUOUS
 10
102.200002
 20
19.700000
 11
118.000002
 21
19.700000
  0
LINE
  8
1
  6
CONTINUOUS
 10
101.700002
 20
20.200000
 11
118.000002
 21
20.200000
  0
LINE
  8
1
  6
CONTINUOUS
 10
102.200002
 20
20.200000
 11
118.000002
 21
20.200000
  0
LINE
  8
1
  6
CONTINUOUS
 10
102.200002
 20
20.200000
 11
118.000002
 21
20.200000
  0
LINE
  8
1
  6
CONTINUOUS
 10
101.700002
 20
20.700000
 11
118.000002
 21
20.700000
  0
LINE
  8
1
  6
CONTINUOUS
 10
102.200002
 20
20.700000
 11
118.000002
 21
20.700000
  0
LINE
  8
1
  6
CONTINUOUS
 10
102.200002
 20
20.700000
 11
118.000002
 21
20.700000
  0
LINE
  8
1
  6
CONTINUOUS
 10
101.700002
 20
21.200000
 11
118.000002
 21
21.200000
  0
LINE
  8
1
  6
CONTINUOUS
 10
102.200002
 20
21.200000
 11
118.000002
 21
21.200000
  0
LINE
  8
1
  6
CONTINUOUS
 10
102.200002
 20
21.200000
 11
118.000002
 21
21.200000
  0
LINE
  8
1
  6
CONTINUOUS
 10
101.700002
 20
21.700000
 11
118.000002
 21
21.700000
  0
LINE
  8
6
  6
CONTINUOUS
 10
110.708935
 20
11.300000
 11
110.708935
 21
8.600000
  0
TEXT
  8
1
  6
CONTINUOUS
 10
25.767062
 20
65.162940
 40
0.220000
  1
CABO
  7
TQS_CALIBRI
  0
TEXT
  8
1
  6
CONTINUOUS
 10
32.831543
 20
65.452940
 40
0.220000
  1
COMPRIMENTO
  7
TQS_CALIBRI
  0
TEXT
  8
1
  6
CONTINUOUS
 10
35.825849
 20
64.952940
 40
0.220000
  1
TOTAL
  7
TQS_CALIBRI
  0
TEXT
  8
1
  6
CONTINUOUS
 10
38.656203
 20
64.952940
 40
0.220000
  1
A
  7
TQS_CALIBRI
  0
TEXT
  8
1
  6
CONTINUOUS
 10
39.701019
 20
64.952940
 40
0.220000
  1
P
  7
TQS_CALIBRI
  0
TEXT
  8
1
  6
CONTINUOUS
 10
40.745835
 20
64.952940
 40
0.220000
  1
I
  7
TQS_CALIBRI
  0
TEXT
  8
1
  6
CONTINUOUS
 10
38.673516
 20
65.452940
 40
0.220000
  1
ANCORAGENS
  7
TQS_CALIBRI
  0
TEXT
  8
1
  6
CONTINUOUS
 10
30.226023
 20
65.162940
 40
0.220000
  1
Q
  7
TQS_CALIBRI
  0
TEXT
  8
1
  6
CONTINUOUS
 10
26.925684
 20
66.112940
 40
0.400000
  1
PROTENSÃO: AÇO
  7
TQS_CALIBRI
  0
TEXT
  8
1
  6
CONTINUOUS
 10
32.244413
 20
64.952940
 40
0.220000
  1
UNITÁRIO
  7
TQS_CALIBRI
  0
TEXT
  8
1
  6
CONTINUOUS
 10
41.700898
 20
64.952940
 40
0.220000
  1
INI
  7
TQS_CALIBRI
  0
TEXT
  8
1
  6
CONTINUOUS
 10
43.268122
 20
64.952940
 40
0.220000
  1
FIN
  7
TQS_CALIBRI
  0
TEXT
  8
1
  6
CONTINUOUS
 10
28.155274
 20
65.165159
 40
0.220000
  1
%%c
  7
TQS_CALIBRI
  0
TEXT
  8
1
  6
CONTINUOUS
 10
41.794664
 20
65.452940
 40
0.220000
  1
ALONG
  7
TQS_CALIBRI
  0
TEXT
  8
1
  6
CONTINUOUS
 10
33.253914
 20
66.112940
 40
0.400000
  1
CP190 RB 12.7 - 12.7
  7
TQS_CALIBRI
  0
TEXT
  8
1
  6
CONTINUOUS
 10
28.440422
 20
65.165159
 40
0.220000
  1
(mm)
  7
TQS_CALIBRI
  0
TEXT
  8
1
  6
CONTINUOUS
 10
35.491619
 20
65.452940
 40
0.220000
  1
(m)
  7
TQS_CALIBRI
  0
TEXT
  8
1
  6
CONTINUOUS
 10
42.982160
 20
65.452940
 40
0.220000
  1
(mm)
  7
TQS_CALIBRI
  0
TEXT
  8
1
  6
CONTINUOUS
 10
25.412484
 20
64.452940
 40
0.220000
  1
C1 A C4
  7
TQS_CALIBRI
  0
TEXT
  8
1
  6
CONTINUOUS
 10
27.765965
 20
64.452940
 40
0.220000
  1
3 %%c 12.7
  7
TQS_CALIBRI
  0
TEXT
  8
1
  6
CONTINUOUS
 10
29.980362
 20
64.452940
 40
0.220000
  1
4
  7
TQS_CALIBRI
  0
TEXT
  8
1
  6
CONTINUOUS
 10
32.216945
 20
64.452940
 40
0.220000
  1
42.4
  7
TQS_CALIBRI
  0
TEXT
  8
1
  6
CONTINUOUS
 10
35.493778
 20
64.452940
 40
0.220000
  1
509.1
  7
TQS_CALIBRI
  0
TEXT
  8
1
  6
CONTINUOUS
 10
38.471750
 20
64.452940
 40
0.220000
  1
12
  7
TQS_CALIBRI
  0
TEXT
  8
1
  6
CONTINUOUS
 10
39.516566
 20
64.452940
 40
0.220000
  1
12
  7
TQS_CALIBRI
  0
TEXT
  8
1
  6
CONTINUOUS
 10
41.553389
 20
64.452940
 40
0.220000
  1
0
  7
TQS_CALIBRI
  0
TEXT
  8
1
  6
CONTINUOUS
 10
43.120613
 20
64.452940
 40
0.220000
  1
286
  7
TQS_CALIBRI
  0
TEXT
  8
1
  6
CONTINUOUS
 10
25.412484
 20
63.952939
 40
0.220000
  1
C5 A C9
  7
TQS_CALIBRI
  0
TEXT
  8
1
  6
CONTINUOUS
 10
27.765965
 20
63.952939
 40
0.220000
  1
   "
  7
TQS_CALIBRI
  0
TEXT
  8
1
  6
CONTINUOUS
 10
29.980362
 20
63.952939
 40
0.220000
  1
5
  7
TQS_CALIBRI
  0
TEXT
  8
1
  6
CONTINUOUS
 10
32.216945
 20
63.952939
 40
0.220000
  1
42.1
  7
TQS_CALIBRI
  0
TEXT
  8
1
  6
CONTINUOUS
 10
35.493778
 20
63.952939
 40
0.220000
  1
631.8
  7
TQS_CALIBRI
  0
TEXT
  8
1
  6
CONTINUOUS
 10
38.471750
 20
63.952939
 40
0.220000
  1
15
  7
TQS_CALIBRI
  0
TEXT
  8
1
  6
CONTINUOUS
 10
39.516566
 20
63.952939
 40
0.220000
  1
15
  7
TQS_CALIBRI
  0
TEXT
  8
1
  6
CONTINUOUS
 10
41.553389
 20
63.952939
 40
0.220000
  1
0
  7
TQS_CALIBRI
  0
TEXT
  8
1
  6
CONTINUOUS
 10
43.120613
 20
63.952939
 40
0.220000
  1
274
  7
TQS_CALIBRI
  0
TEXT
  8
1
  6
CONTINUOUS
 10
25.412484
 20
63.452938
 40
0.220000
  1
C10
  7
TQS_CALIBRI
  0
TEXT
  8
1
  6
CONTINUOUS
 10
27.765965
 20
63.452938
 40
0.220000
  1
   "
  7
TQS_CALIBRI
  0
TEXT
  8
1
  6
CONTINUOUS
 10
29.980362
 20
63.452938
 40
0.220000
  1
1
  7
TQS_CALIBRI
  0
TEXT
  8
1
  6
CONTINUOUS
 10
32.216945
 20
63.452938
 40
0.220000
  1
14.2
  7
TQS_CALIBRI
  0
TEXT
  8
1
  6
CONTINUOUS
 10
35.493778
 20
63.452938
 40
0.220000
  1
42.7
  7
TQS_CALIBRI
  0
TEXT
  8
1
  6
CONTINUOUS
 10
38.471750
 20
63.452938
 40
0.220000
  1
3
  7
TQS_CALIBRI
  0
TEXT
  8
1
  6
CONTINUOUS
 10
39.516566
 20
63.452938
 40
0.220000
  1
3
  7
TQS_CALIBRI
  0
TEXT
  8
1
  6
CONTINUOUS
 10
41.553389
 20
63.452938
 40
0.220000
  1
0
  7
TQS_CALIBRI
  0
TEXT
  8
1
  6
CONTINUOUS
 10
43.120613
 20
63.452938
 40
0.220000
  1
93
  7
TQS_CALIBRI
  0
TEXT
  8
1
  6
CONTINUOUS
 10
25.412484
 20
62.952937
 40
0.220000
  1
C11
  7
TQS_CALIBRI
  0
TEXT
  8
1
  6
CONTINUOUS
 10
27.765965
 20
62.952937
 40
0.220000
  1
   "
  7
TQS_CALIBRI
  0
TEXT
  8
1
  6
CONTINUOUS
 10
29.980362
 20
62.952937
 40
0.220000
  1
1
  7
TQS_CALIBRI
  0
TEXT
  8
1
  6
CONTINUOUS
 10
32.216945
 20
62.952937
 40
0.220000
  1
26.1
  7
TQS_CALIBRI
  0
TEXT
  8
1
  6
CONTINUOUS
 10
35.493778
 20
62.952937
 40
0.220000
  1
78.2
  7
TQS_CALIBRI
  0
TEXT
  8
1
  6
CONTINUOUS
 10
38.471750
 20
62.952937
 40
0.220000
  1
3
  7
TQS_CALIBRI
  0
TEXT
  8
1
  6
CONTINUOUS
 10
39.516566
 20
62.952937
 40
0.220000
  1
3
  7
TQS_CALIBRI
  0
TEXT
  8
1
  6
CONTINUOUS
 10
41.553389
 20
62.952937
 40
0.220000
  1
0
  7
TQS_CALIBRI
  0
TEXT
  8
1
  6
CONTINUOUS
 10
43.120613
 20
62.952937
 40
0.220000
  1
174
  7
TQS_CALIBRI
  0
TEXT
  8
1
  6
CONTINUOUS
 10
25.412484
 20
62.452937
 40
0.220000
  1
C12
  7
TQS_CALIBRI
  0
TEXT
  8
1
  6
CONTINUOUS
 10
27.765965
 20
62.452937
 40
0.220000
  1
   "
  7
TQS_CALIBRI
  0
TEXT
  8
1
  6
CONTINUOUS
 10
29.980362
 20
62.452937
 40
0.220000
  1
1
  7
TQS_CALIBRI
  0
TEXT
  8
1
  6
CONTINUOUS
 10
32.216945
 20
62.452937
 40
0.220000
  1
14.2
  7
TQS_CALIBRI
  0
TEXT
  8
1
  6
CONTINUOUS
 10
35.493778
 20
62.452937
 40
0.220000
  1
42.7
  7
TQS_CALIBRI
  0
TEXT
  8
1
  6
CONTINUOUS
 10
38.471750
 20
62.452937
 40
0.220000
  1
3
  7
TQS_CALIBRI
  0
TEXT
  8
1
  6
CONTINUOUS
 10
39.516566
 20
62.452937
 40
0.220000
  1
3
  7
TQS_CALIBRI
  0
TEXT
  8
1
  6
CONTINUOUS
 10
41.553389
 20
62.452937
 40
0.220000
  1
0
  7
TQS_CALIBRI
  0
TEXT
  8
1
  6
CONTINUOUS
 10
43.120613
 20
62.452937
 40
0.220000
  1
93
  7
TQS_CALIBRI
  0
TEXT
  8
1
  6
CONTINUOUS
 10
25.412484
 20
61.952936
 40
0.220000
  1
C13
  7
TQS_CALIBRI
  0
TEXT
  8
1
  6
CONTINUOUS
 10
27.765965
 20
61.952936
 40
0.220000
  1
   "
  7
TQS_CALIBRI
  0
TEXT
  8
1
  6
CONTINUOUS
 10
29.980362
 20
61.952936
 40
0.220000
  1
1
  7
TQS_CALIBRI
  0
TEXT
  8
1
  6
CONTINUOUS
 10
32.216945
 20
61.952936
 40
0.220000
  1
26.1
  7
TQS_CALIBRI
  0
TEXT
  8
1
  6
CONTINUOUS
 10
35.493778
 20
61.952936
 40
0.220000
  1
78.2
  7
TQS_CALIBRI
  0
TEXT
  8
1
  6
CONTINUOUS
 10
38.471750
 20
61.952936
 40
0.220000
  1
3
  7
TQS_CALIBRI
  0
TEXT
  8
1
  6
CONTINUOUS
 10
39.516566
 20
61.952936
 40
0.220000
  1
3
  7
TQS_CALIBRI
  0
TEXT
  8
1
  6
CONTINUOUS
 10
41.553389
 20
61.952936
 40
0.220000
  1
0
  7
TQS_CALIBRI
  0
TEXT
  8
1
  6
CONTINUOUS
 10
43.120613
 20
61.952936
 40
0.220000
  1
174
  7
TQS_CALIBRI
  0
TEXT
  8
1
  6
CONTINUOUS
 10
25.412484
 20
61.452935
 40
0.220000
  1
C14
  7
TQS_CALIBRI
  0
TEXT
  8
1
  6
CONTINUOUS
 10
27.765965
 20
61.452935
 40
0.220000
  1
   "
  7
TQS_CALIBRI
  0
TEXT
  8
1
  6
CONTINUOUS
 10
29.980362
 20
61.452935
 40
0.220000
  1
1
  7
TQS_CALIBRI
  0
TEXT
  8
1
  6
CONTINUOUS
 10
32.216945
 20
61.452935
 40
0.220000
  1
14.2
  7
TQS_CALIBRI
  0
TEXT
  8
1
  6
CONTINUOUS
 10
35.493778
 20
61.452935
 40
0.220000
  1
42.7
  7
TQS_CALIBRI
  0
TEXT
  8
1
  6
CONTINUOUS
 10
38.471750
 20
61.452935
 40
0.220000
  1
3
  7
TQS_CALIBRI
  0
TEXT
  8
1
  6
CONTINUOUS
 10
39.516566
 20
61.452935
 40
0.220000
  1
3
  7
TQS_CALIBRI
  0
TEXT
  8
1
  6
CONTINUOUS
 10
41.553389
 20
61.452935
 40
0.220000
  1
0
  7
TQS_CALIBRI
  0
TEXT
  8
1
  6
CONTINUOUS
 10
43.120613
 20
61.452935
 40
0.220000
  1
93
  7
TQS_CALIBRI
  0
TEXT
  8
1
  6
CONTINUOUS
 10
25.412484
 20
60.952935
 40
0.220000
  1
C15
  7
TQS_CALIBRI
  0
TEXT
  8
1
  6
CONTINUOUS
 10
27.765965
 20
60.952935
 40
0.220000
  1
   "
  7
TQS_CALIBRI
  0
TEXT
  8
1
  6
CONTINUOUS
 10
29.980362
 20
60.952935
 40
0.220000
  1
1
  7
TQS_CALIBRI
  0
TEXT
  8
1
  6
CONTINUOUS
 10
32.216945
 20
60.952935
 40
0.220000
  1
26.1
  7
TQS_CALIBRI
  0
TEXT
  8
1
  6
CONTINUOUS
 10
35.493778
 20
60.952935
 40
0.220000
  1
78.2
  7
TQS_CALIBRI
  0
TEXT
  8
1
  6
CONTINUOUS
 10
38.471750
 20
60.952935
 40
0.220000
  1
3
  7
TQS_CALIBRI
  0
TEXT
  8
1
  6
CONTINUOUS
 10
39.516566
 20
60.952935
 40
0.220000
  1
3
  7
TQS_CALIBRI
  0
TEXT
  8
1
  6
CONTINUOUS
 10
41.553389
 20
60.952935
 40
0.220000
  1
0
  7
TQS_CALIBRI
  0
TEXT
  8
1
  6
CONTINUOUS
 10
43.120613
 20
60.952935
 40
0.220000
  1
174
  7
TQS_CALIBRI
  0
TEXT
  8
1
  6
CONTINUOUS
 10
25.412484
 20
60.452934
 40
0.220000
  1
C16
  7
TQS_CALIBRI
  0
TEXT
  8
1
  6
CONTINUOUS
 10
27.765965
 20
60.452934
 40
0.220000
  1
   "
  7
TQS_CALIBRI
  0
TEXT
  8
1
  6
CONTINUOUS
 10
29.980362
 20
60.452934
 40
0.220000
  1
1
  7
TQS_CALIBRI
  0
TEXT
  8
1
  6
CONTINUOUS
 10
32.216945
 20
60.452934
 40
0.220000
  1
14.2
  7
TQS_CALIBRI
  0
TEXT
  8
1
  6
CONTINUOUS
 10
35.493778
 20
60.452934
 40
0.220000
  1
42.7
  7
TQS_CALIBRI
  0
TEXT
  8
1
  6
CONTINUOUS
 10
38.471750
 20
60.452934
 40
0.220000
  1
3
  7
TQS_CALIBRI
  0
TEXT
  8
1
  6
CONTINUOUS
 10
39.516566
 20
60.452934
 40
0.220000
  1
3
  7
TQS_CALIBRI
  0
TEXT
  8
1
  6
CONTINUOUS
 10
41.553389
 20
60.452934
 40
0.220000
  1
0
  7
TQS_CALIBRI
  0
TEXT
  8
1
  6
CONTINUOUS
 10
43.120613
 20
60.452934
 40
0.220000
  1
93
  7
TQS_CALIBRI
  0
TEXT
  8
1
  6
CONTINUOUS
 10
25.412484
 20
59.952933
 40
0.220000
  1
C17
  7
TQS_CALIBRI
  0
TEXT
  8
1
  6
CONTINUOUS
 10
27.765965
 20
59.952933
 40
0.220000
  1
   "
  7
TQS_CALIBRI
  0
TEXT
  8
1
  6
CONTINUOUS
 10
29.980362
 20
59.952933
 40
0.220000
  1
1
  7
TQS_CALIBRI
  0
TEXT
  8
1
  6
CONTINUOUS
 10
32.216945
 20
59.952933
 40
0.220000
  1
26.1
  7
TQS_CALIBRI
  0
TEXT
  8
1
  6
CONTINUOUS
 10
35.493778
 20
59.952933
 40
0.220000
  1
78.2
  7
TQS_CALIBRI
  0
TEXT
  8
1
  6
CONTINUOUS
 10
38.471750
 20
59.952933
 40
0.220000
  1
3
  7
TQS_CALIBRI
  0
TEXT
  8
1
  6
CONTINUOUS
 10
39.516566
 20
59.952933
 40
0.220000
  1
3
  7
TQS_CALIBRI
  0
TEXT
  8
1
  6
CONTINUOUS
 10
41.553389
 20
59.952933
 40
0.220000
  1
0
  7
TQS_CALIBRI
  0
TEXT
  8
1
  6
CONTINUOUS
 10
43.120613
 20
59.952933
 40
0.220000
  1
174
  7
TQS_CALIBRI
  0
TEXT
  8
1
  6
CONTINUOUS
 10
25.412484
 20
59.452932
 40
0.220000
  1
C18 A C22
  7
TQS_CALIBRI
  0
TEXT
  8
1
  6
CONTINUOUS
 10
27.765965
 20
59.452932
 40
0.220000
  1
   "
  7
TQS_CALIBRI
  0
TEXT
  8
1
  6
CONTINUOUS
 10
29.980362
 20
59.452932
 40
0.220000
  1
5
  7
TQS_CALIBRI
  0
TEXT
  8
1
  6
CONTINUOUS
 10
32.216945
 20
59.452932
 40
0.220000
  1
41.6
  7
TQS_CALIBRI
  0
TEXT
  8
1
  6
CONTINUOUS
 10
35.493778
 20
59.452932
 40
0.220000
  1
623.9
  7
TQS_CALIBRI
  0
TEXT
  8
1
  6
CONTINUOUS
 10
38.471750
 20
59.452932
 40
0.220000
  1
15
  7
TQS_CALIBRI
  0
TEXT
  8
1
  6
CONTINUOUS
 10
39.516566
 20
59.452932
 40
0.220000
  1
15
  7
TQS_CALIBRI
  0
TEXT
  8
1
  6
CONTINUOUS
 10
41.553389
 20
59.452932
 40
0.220000
  1
0
  7
TQS_CALIBRI
  0
TEXT
  8
1
  6
CONTINUOUS
 10
43.120613
 20
59.452932
 40
0.220000
  1
272
  7
TQS_CALIBRI
  0
TEXT
  8
1
  6
CONTINUOUS
 10
25.412484
 20
58.952932
 40
0.220000
  1
C23 A C27
  7
TQS_CALIBRI
  0
TEXT
  8
1
  6
CONTINUOUS
 10
27.765965
 20
58.952932
 40
0.220000
  1
2 %%c 12.7
  7
TQS_CALIBRI
  0
TEXT
  8
1
  6
CONTINUOUS
 10
29.980362
 20
58.952932
 40
0.220000
  1
5
  7
TQS_CALIBRI
  0
TEXT
  8
1
  6
CONTINUOUS
 10
32.216945
 20
58.952932
 40
0.220000
  1
41.2
  7
TQS_CALIBRI
  0
TEXT
  8
1
  6
CONTINUOUS
 10
35.493778
 20
58.952932
 40
0.220000
  1
412.5
  7
TQS_CALIBRI
  0
TEXT
  8
1
  6
CONTINUOUS
 10
38.471750
 20
58.952932
 40
0.220000
  1
10
  7
TQS_CALIBRI
  0
TEXT
  8
1
  6
CONTINUOUS
 10
39.516566
 20
58.952932
 40
0.220000
  1
10
  7
TQS_CALIBRI
  0
TEXT
  8
1
  6
CONTINUOUS
 10
41.553389
 20
58.952932
 40
0.220000
  1
0
  7
TQS_CALIBRI
  0
TEXT
  8
1
  6
CONTINUOUS
 10
43.120613
 20
58.952932
 40
0.220000
  1
275
  7
TQS_CALIBRI
  0
TEXT
  8
1
  6
CONTINUOUS
 10
25.898625
 20
55.952931
 40
0.220000
  1
%%c
  7
TQS_CALIBRI
  0
TEXT
  8
1
  6
CONTINUOUS
 10
29.472163
 20
56.452931
 40
0.220000
  1
CABO
  7
TQS_CALIBRI
  0
TEXT
  8
1
  6
CONTINUOUS
 10
35.656723
 20
55.702932
 40
0.220000
  1
A
  7
TQS_CALIBRI
  0
TEXT
  8
1
  6
CONTINUOUS
 10
36.701538
 20
55.702932
 40
0.220000
  1
P
  7
TQS_CALIBRI
  0
TEXT
  8
1
  6
CONTINUOUS
 10
37.746355
 20
55.702932
 40
0.220000
  1
I
  7
TQS_CALIBRI
  0
TEXT
  8
1
  6
CONTINUOUS
 10
31.967922
 20
55.952931
 40
0.220000
  1
PESO
  7
TQS_CALIBRI
  0
TEXT
  8
1
  6
CONTINUOUS
 10
35.726902
 20
56.452931
 40
0.220000
  1
ANCORAGENS
  7
TQS_CALIBRI
  0
TEXT
  8
1
  6
CONTINUOUS
 10
27.805682
 20
57.536264
 40
0.400000
  1
RESUMO DE PROTENSÃO
  7
TQS_CALIBRI
  0
TEXT
  8
1
  6
CONTINUOUS
 10
27.343819
 20
56.973564
 40
0.300000
  1
Monocordoalhas não aderentes
  7
TQS_CALIBRI
  0
TEXT
  8
1
  6
CONTINUOUS
 10
27.734920
 20
55.952931
 40
0.220000
  1
COMPR
  7
TQS_CALIBRI
  0
TEXT
  8
1
  6
CONTINUOUS
 10
29.584708
 20
55.452932
 40
0.220000
  1
kgf/m
  7
TQS_CALIBRI
  0
TEXT
  8
1
  6
CONTINUOUS
 10
31.736485
 20
55.452932
 40
0.220000
  1
kgf
  7
TQS_CALIBRI
  0
TEXT
  8
1
  6
CONTINUOUS
 10
33.550877
 20
55.452932
 40
0.220000
  1
kgf+4%
  7
TQS_CALIBRI
  0
TEXT
  8
1
  6
CONTINUOUS
 10
27.739466
 20
55.452932
 40
0.220000
  1
m
  7
TQS_CALIBRI
  0
TEXT
  8
1
  6
CONTINUOUS
 10
25.877005
 20
55.452932
 40
0.220000
  1
mm
  7
TQS_CALIBRI
  0
TEXT
  8
1
  6
CONTINUOUS
 10
27.464782
 20
54.952931
 40
0.220000
  1
2248
  7
TQS_CALIBRI
  0
TEXT
  8
1
  6
CONTINUOUS
 10
36.510379
 20
54.952931
 40
0.220000
  1
66
  7
TQS_CALIBRI
  0
TEXT
  8
1
  6
CONTINUOUS
 10
35.465562
 20
54.952931
 40
0.220000
  1
66
  7
TQS_CALIBRI
  0
TEXT
  8
1
  6
CONTINUOUS
 10
29.584708
 20
54.952931
 40
0.220000
  1
0.886
  7
TQS_CALIBRI
  0
TEXT
  8
1
  6
CONTINUOUS
 10
31.174037
 20
54.952931
 40
0.220000
  1
1992
  7
TQS_CALIBRI
  0
TEXT
  8
1
  6
CONTINUOUS
 10
33.234035
 20
54.952931
 40
0.220000
  1
2072
  7
TQS_CALIBRI
  0
TEXT
  8
1
  6
CONTINUOUS
 10
25.276849
 20
54.952931
 40
0.220000
  1
3 %%c 12.7
  7
TQS_CALIBRI
  0
TEXT
  8
1
  6
CONTINUOUS
 10
27.464782
 20
54.452930
 40
0.220000
  1
412
  7
TQS_CALIBRI
  0
TEXT
  8
1
  6
CONTINUOUS
 10
36.510379
 20
54.452930
 40
0.220000
  1
10
  7
TQS_CALIBRI
  0
TEXT
  8
1
  6
CONTINUOUS
 10
35.465562
 20
54.452930
 40
0.220000
  1
10
  7
TQS_CALIBRI
  0
TEXT
  8
1
  6
CONTINUOUS
 10
29.584708
 20
54.452930
 40
0.220000
  1
0.886
  7
TQS_CALIBRI
  0
TEXT
  8
1
  6
CONTINUOUS
 10
31.174037
 20
54.452930
 40
0.220000
  1
365
  7
TQS_CALIBRI
  0
TEXT
  8
1
  6
CONTINUOUS
 10
33.234035
 20
54.452930
 40
0.220000
  1
380
  7
TQS_CALIBRI
  0
TEXT
  8
1
  6
CONTINUOUS
 10
25.276849
 20
54.452930
 40
0.220000
  1
2 %%c 12.7
  7
TQS_CALIBRI
  0
TEXT
  8
1
  6
CONTINUOUS
 10
19.989491
 20
22.623553
 40
0.300000
  1
L11
  7
TQS_CALIBRI
  0
TEXT
  8
1
  6
CONTINUOUS
 10
7.214865
 20
22.873195
 40
0.300000
  1
L10
  7
TQS_CALIBRI
  0
TEXT
  8
1
  6
CONTINUOUS
 10
82.247923
 20
44.639893
 40
0.300000
  1
L4
  7
TQS_CALIBRI
  0
TEXT
  8
1
  6
CONTINUOUS
 10
92.705451
 20
62.080731
 40
0.300000
  1
L1
  7
TQS_CALIBRI
  0
TEXT
  8
1
  6
CONTINUOUS
 10
40.324533
 20
29.987429
 40
0.300000
  1
L6
  7
TQS_CALIBRI
  0
TEXT
  8
1
  6
CONTINUOUS
 10
54.858175
 20
9.992011
 40
0.300000
  1
L14
  7
TQS_CALIBRI
  0
TEXT
  8
1
  6
CONTINUOUS
 10
79.659041
 20
18.648369
 40
0.300000
  1
L13
  7
TQS_CALIBRI
  0
TEXT
  8
1
  6
CONTINUOUS
 10
89.257605
 20
19.228928
 40
0.300000
  1
L12
  7
TQS_CALIBRI
  0
TEXT
  8
1
  6
CONTINUOUS
 10
55.129848
 20
25.737318
 40
0.300000
  1
L7
  7
TQS_CALIBRI
  0
TEXT
  8
1
  6
CONTINUOUS
 10
67.982522
 20
24.795488
 40
0.300000
  1
L8
  7
TQS_CALIBRI
  0
TEXT
  8
1
  6
CONTINUOUS
 10
63.102849
 20
36.496999
 40
0.300000
  1
L5
  7
TQS_CALIBRI
  0
TEXT
  8
1
  6
CONTINUOUS
 10
83.162053
 20
59.700207
 40
0.300000
  1
L2
  7
TQS_CALIBRI
  0
TEXT
  8
1
  6
CONTINUOUS
 10
83.332075
 20
55.633513
 40
0.300000
  1
L3
  7
TQS_CALIBRI
  0
TEXT
  8
1
  6
CONTINUOUS
 10
39.500081
 20
23.713422
 40
0.300000
  1
L9
  7
TQS_CALIBRI
  0
TEXT
  8
1
  6
CONTINUOUS
 10
44.798909
 20
24.163060
 40
0.300000
  1
L15
  7
TQS_CALIBRI
  0
TEXT
  8
1
  6
CONTINUOUS
 10
78.015356
 20
49.896715
 40
0.300000
  1
P187
  7
TQS_CALIBRI
  0
TEXT
  8
1
  6
CONTINUOUS
 10
36.583742
 20
15.714267
 40
0.300000
  1
P515
  7
TQS_CALIBRI
  0
TEXT
  8
1
  6
CONTINUOUS
 10
61.878000
 20
15.714267
 40
0.300000
  1
P517
  7
TQS_CALIBRI
  0
TEXT
  8
1
  6
CONTINUOUS
 10
75.178000
 20
18.414267
 40
0.300000
  1
P514
  7
TQS_CALIBRI
  0
TEXT
  8
1
  6
CONTINUOUS
 10
61.878000
 20
27.594267
 40
0.300000
  1
P508
  7
TQS_CALIBRI
  0
TEXT
  8
1
  6
CONTINUOUS
 10
75.178000
 20
27.594267
 40
0.300000
  1
P509
  7
TQS_CALIBRI
  0
TEXT
  8
1
  6
CONTINUOUS
 10
61.878000
 20
34.199433
 40
0.300000
  1
P503
  7
TQS_CALIBRI
  0
TEXT
  8
1
  6
CONTINUOUS
 10
78.015360
 20
40.406720
 40
0.300000
  1
P405
  7
TQS_CALIBRI
  0
TEXT
  8
1
  6
CONTINUOUS
 10
75.178000
 20
11.014267
 40
0.300000
  1
P518
  7
TQS_CALIBRI
  0
TEXT
  8
1
  6
CONTINUOUS
 10
98.104290
 20
20.714267
 40
0.300000
  1
P513
  7
TQS_CALIBRI
  0
TEXT
  8
1
  6
CONTINUOUS
 10
98.104290
 20
30.606720
 40
0.300000
  1
P507
  7
TQS_CALIBRI
  0
TEXT
  8
1
  6
CONTINUOUS
 10
98.104290
 20
40.406720
 40
0.300000
  1
P506
  7
TQS_CALIBRI
  0
TEXT
  8
1
  6
CONTINUOUS
 10
98.104290
 20
11.014267
 40
0.300000
  1
P520
  7
TQS_CALIBRI
  0
TEXT
  8
1
  6
CONTINUOUS
 10
78.015356
 20
71.536582
 40
0.300000
  1
PC5
  7
TQS_CALIBRI
  0
TEXT
  8
1
  6
CONTINUOUS
 10
86.718473
 20
71.536582
 40
0.300000
  1
PC6
  7
TQS_CALIBRI
  0
TEXT
  8
1
  6
CONTINUOUS
 10
42.162628
 20
25.417877
 40
0.300000
  1
PC11
  7
TQS_CALIBRI
  0
TEXT
  8
1
  6
CONTINUOUS
 10
85.905360
 20
49.896710
 40
0.300000
  1
P188
  7
TQS_CALIBRI
  0
TEXT
  8
1
  6
CONTINUOUS
 10
85.905360
 20
61.036710
 40
0.300000
  1
P183
  7
TQS_CALIBRI
  0
TEXT
  8
1
  6
CONTINUOUS
 10
82.315356
 20
61.436715
 40
0.300000
  1
PC8
  7
TQS_CALIBRI
  0
TEXT
  8
1
  6
CONTINUOUS
 10
82.315356
 20
57.236715
 40
0.300000
  1
PC9
  7
TQS_CALIBRI
  0
TEXT
  8
1
  6
CONTINUOUS
 10
85.905360
 20
55.466710
 40
0.300000
  1
P185
  7
TQS_CALIBRI
  0
TEXT
  8
1
  6
CONTINUOUS
 10
78.015356
 20
57.236710
 40
0.300000
  1
PC7
  7
TQS_CALIBRI
  0
TEXT
  8
1
  6
CONTINUOUS
 10
91.738010
 20
4.463351
 40
0.300000
  1
P118C
  7
TQS_CALIBRI
  0
TEXT
  8
1
  6
CONTINUOUS
 10
92.773598
 20
16.301150
 40
0.300000
  1
P115C
  7
TQS_CALIBRI
  0
TEXT
  8
1
  6
CONTINUOUS
 10
93.813401
 20
28.586969
 40
0.300000
  1
P110C
  7
TQS_CALIBRI
  0
TEXT
  8
1
  6
CONTINUOUS
 10
36.583742
 20
34.199433
 40
0.300000
  1
P501
  7
TQS_CALIBRI
  0
TEXT
  8
1
  6
CONTINUOUS
 10
96.482668
 20
60.522798
 40
0.300000
  1
P98C
  7
TQS_CALIBRI
  0
TEXT
  8
1
  6
CONTINUOUS
 10
95.719428
 20
51.505039
 40
0.300000
  1
P103C
  7
TQS_CALIBRI
  0
TEXT
  8
1
  6
CONTINUOUS
 10
89.315355
 20
50.340905
 40
0.300000
  1
P311
  7
TQS_CALIBRI
  0
TEXT
  8
1
  6
CONTINUOUS
 10
89.315355
 20
58.640843
 40
0.300000
  1
P310
  7
TQS_CALIBRI
  0
TEXT
  8
1
  6
CONTINUOUS
 10
10.973359
 20
4.602850
 40
0.300000
  1
P423
  7
TQS_CALIBRI
  0
TEXT
  8
1
  6
CONTINUOUS
 10
42.773359
 20
4.602850
 40
0.300000
  1
P425
  7
TQS_CALIBRI
  0
TEXT
  8
1
  6
CONTINUOUS
 10
58.773359
 20
4.602850
 40
0.300000
  1
P426
  7
TQS_CALIBRI
  0
TEXT
  8
1
  6
CONTINUOUS
 10
74.773359
 20
4.602850
 40
0.300000
  1
P427
  7
TQS_CALIBRI
  0
TEXT
  8
1
  6
CONTINUOUS
 10
10.573359
 20
20.006720
 40
0.300000
  1
P415
  7
TQS_CALIBRI
  0
TEXT
  8
1
  6
CONTINUOUS
 10
20.773359
 20
20.406720
 40
0.300000
  1
P416
  7
TQS_CALIBRI
  0
TEXT
  8
1
  6
CONTINUOUS
 10
32.883359
 20
16.407953
 40
0.300000
  1
P417
  7
TQS_CALIBRI
  0
TEXT
  8
1
  6
CONTINUOUS
 10
45.372623
 20
16.407953
 40
0.300000
  1
P418
  7
TQS_CALIBRI
  0
TEXT
  8
1
  6
CONTINUOUS
 10
54.452623
 20
12.916720
 40
0.300000
  1
P422
  7
TQS_CALIBRI
  0
TEXT
  8
1
  6
CONTINUOUS
 10
71.938672
 20
16.416720
 40
0.300000
  1
P420
  7
TQS_CALIBRI
  0
TEXT
  8
1
  6
CONTINUOUS
 10
80.593985
 20
16.216720
 40
0.300000
  1
P421
  7
TQS_CALIBRI
  0
TEXT
  8
1
  6
CONTINUOUS
 10
10.973359
 20
40.406720
 40
0.300000
  1
P401
  7
TQS_CALIBRI
  0
TEXT
  8
1
  6
CONTINUOUS
 10
26.773359
 20
40.406720
 40
0.300000
  1
P402
  7
TQS_CALIBRI
  0
TEXT
  8
1
  6
CONTINUOUS
 10
42.773359
 20
40.406720
 40
0.300000
  1
P403
  7
TQS_CALIBRI
  0
TEXT
  8
1
  6
CONTINUOUS
 10
58.773359
 20
40.406720
 40
0.300000
  1
P404
  7
TQS_CALIBRI
  0
TEXT
  8
1
  6
CONTINUOUS
 10
71.938672
 20
26.396720
 40
0.300000
  1
P411
  7
TQS_CALIBRI
  0
TEXT
  8
1
  6
CONTINUOUS
 10
80.593985
 20
28.827953
 40
0.300000
  1
P409
  7
TQS_CALIBRI
  0
TEXT
  8
1
  6
CONTINUOUS
 10
45.572623
 20
29.027953
 40
0.300000
  1
P408
  7
TQS_CALIBRI
  0
TEXT
  8
1
  6
CONTINUOUS
 10
54.452623
 20
25.407953
 40
0.300000
  1
P414
  7
TQS_CALIBRI
  0
TEXT
  8
1
  6
CONTINUOUS
 10
10.573359
 20
24.806720
 40
0.300000
  1
P412
  7
TQS_CALIBRI
  0
TEXT
  8
1
  6
CONTINUOUS
 10
20.773359
 20
24.806720
 40
0.300000
  1
P413
  7
TQS_CALIBRI
  0
TEXT
  8
1
  6
CONTINUOUS
 10
32.873359
 20
28.517953
 40
0.300000
  1
P407
  7
TQS_CALIBRI
  0
TEXT
  8
1
  6
CONTINUOUS
 10
90.288905
 20
66.135749
 40
0.300000
  1
P308
  7
TQS_CALIBRI
  0
TEXT
  8
1
  6
CONTINUOUS
 10
89.715355
 20
40.406720
 40
0.300000
  1
P406
  7
TQS_CALIBRI
  0
TEXT
  8
1
  6
CONTINUOUS
 10
75.167617
 20
34.199433
 40
0.300000
  1
P504
  7
TQS_CALIBRI
  0
TEXT
  8
1
  6
CONTINUOUS
 10
85.915355
 20
34.199433
 40
0.300000
  1
P505
  7
TQS_CALIBRI
  0
TEXT
  8
1
  6
CONTINUOUS
 10
47.839553
 20
15.714267
 40
0.300000
  1
P516
  7
TQS_CALIBRI
  0
TEXT
  8
1
  6
CONTINUOUS
 10
49.183742
 20
34.199433
 40
0.300000
  1
P502
  7
TQS_CALIBRI
  0
TEXT
  8
1
  6
CONTINUOUS
 10
36.583742
 20
24.956850
 40
0.300000
  1
P510
  7
TQS_CALIBRI
  0
TEXT
  8
1
  6
CONTINUOUS
 10
49.225871
 20
24.956850
 40
0.300000
  1
P511
  7
TQS_CALIBRI
  0
TEXT
  8
1
  6
CONTINUOUS
 10
86.641125
 20
22.606850
 40
0.300000
  1
P512
  7
TQS_CALIBRI
  0
TEXT
  8
1
  6
CONTINUOUS
 10
86.641145
 20
11.014267
 40
0.300000
  1
P519
  7
TQS_CALIBRI
  0
TEXT
  8
1
  6
CONTINUOUS
 10
96.938027
 20
65.885599
 40
0.300000
  1
P309
  7
TQS_CALIBRI
  0
TEXT
  8
1
  6
CONTINUOUS
 10
42.162623
 20
21.117953
 40
0.300000
  1
PC10
  7
TQS_CALIBRI
  0
TEXT
  8
1
  6
CONTINUOUS
 10
63.732623
 20
26.796720
 40
0.300000
  1
P410
  7
TQS_CALIBRI
  0
TEXT
  8
1
  6
CONTINUOUS
 10
63.532623
 20
16.416720
 40
0.300000
  1
P419
  7
TQS_CALIBRI
  0
TEXT
  8
1
  6
CONTINUOUS
 10
26.773359
 20
4.602850
 40
0.300000
  1
P424
  7
TQS_CALIBRI
  0
TEXT
  8
1
  6
CONTINUOUS
 10
94.775200
 20
40.307100
 40
0.300000
  1
P105C
  7
TQS_CALIBRI
  0
TEXT
  8
4
  6
CONTINUOUS
 10
5.488359
 20
23.079785
 40
0.300000
 50
90.000000
  1
C28
  7
TQS_CALIBRI
  0
TEXT
  8
4
  6
CONTINUOUS
 10
6.468359
 20
23.079785
 40
0.300000
 50
90.000000
  1
C29
  7
TQS_CALIBRI
  0
TEXT
  8
4
  6
CONTINUOUS
 10
7.448359
 20
23.079785
 40
0.300000
 50
90.000000
  1
C30
  7
TQS_CALIBRI
  0
TEXT
  8
4
  6
CONTINUOUS
 10
8.428359
 20
23.079785
 40
0.300000
 50
90.000000
  1
C31
  7
TQS_CALIBRI
  0
TEXT
  8
4
  6
CONTINUOUS
 10
9.408359
 20
23.079785
 40
0.300000
 50
90.000000
  1
C32
  7
TQS_CALIBRI
  0
TEXT
  8
4
  6
CONTINUOUS
 10
19.498359
 20
23.079785
 40
0.300000
 50
90.000000
  1
C35
  7
TQS_CALIBRI
  0
TEXT
  8
4
  6
CONTINUOUS
 10
19.758359
 20
23.079785
 40
0.300000
 50
90.000000
  1
C36
  7
TQS_CALIBRI
  0
TEXT
  8
4
  6
CONTINUOUS
 10
20.018359
 20
23.079785
 40
0.300000
 50
90.000000
  1
C37
  7
TQS_CALIBRI
  0
TEXT
  8
4
  6
CONTINUOUS
 10
20.278359
 20
23.079785
 40
0.300000
 50
90.000000
  1
C38
  7
TQS_CALIBRI
  0
TEXT
  8
4
  6
CONTINUOUS
 10
20.538359
 20
23.079785
 40
0.300000
 50
90.000000
  1
C39
  7
TQS_CALIBRI
  0
TEXT
  8
4
  6
CONTINUOUS
 10
20.798359
 20
23.079785
 40
0.300000
 50
90.000000
  1
C40
  7
TQS_CALIBRI
  0
TEXT
  8
4
  6
CONTINUOUS
 10
31.808359
 20
23.079785
 40
0.300000
 50
90.000000
  1
C41
  7
TQS_CALIBRI
  0
TEXT
  8
4
  6
CONTINUOUS
 10
32.068359
 20
23.079785
 40
0.300000
 50
90.000000
  1
C42
  7
TQS_CALIBRI
  0
TEXT
  8
4
  6
CONTINUOUS
 10
32.328359
 20
23.079785
 40
0.300000
 50
90.000000
  1
C43
  7
TQS_CALIBRI
  0
TEXT
  8
4
  6
CONTINUOUS
 10
32.588359
 20
23.079785
 40
0.300000
 50
90.000000
  1
C44
  7
TQS_CALIBRI
  0
TEXT
  8
4
  6
CONTINUOUS
 10
32.848359
 20
23.079785
 40
0.300000
 50
90.000000
  1
C45
  7
TQS_CALIBRI
  0
TEXT
  8
4
  6
CONTINUOUS
 10
33.108359
 20
23.079785
 40
0.300000
 50
90.000000
  1
C46
  7
TQS_CALIBRI
  0
TEXT
  8
4
  6
CONTINUOUS
 10
44.307623
 20
23.079785
 40
0.300000
 50
90.000000
  1
C47
  7
TQS_CALIBRI
  0
TEXT
  8
4
  6
CONTINUOUS
 10
44.627623
 20
23.079785
 40
0.300000
 50
90.000000
  1
C48
  7
TQS_CALIBRI
  0
TEXT
  8
4
  6
CONTINUOUS
 10
44.947623
 20
23.079785
 40
0.300000
 50
90.000000
  1
C49
  7
TQS_CALIBRI
  0
TEXT
  8
4
  6
CONTINUOUS
 10
45.267623
 20
23.079785
 40
0.300000
 50
90.000000
  1
C50
  7
TQS_CALIBRI
  0
TEXT
  8
4
  6
CONTINUOUS
 10
45.587623
 20
23.079785
 40
0.300000
 50
90.000000
  1
C51
  7
TQS_CALIBRI
  0
TEXT
  8
4
  6
CONTINUOUS
 10
62.267623
 20
23.079785
 40
0.300000
 50
90.000000
  1
C56
  7
TQS_CALIBRI
  0
TEXT
  8
4
  6
CONTINUOUS
 10
62.587623
 20
23.079785
 40
0.300000
 50
90.000000
  1
C57
  7
TQS_CALIBRI
  0
TEXT
  8
4
  6
CONTINUOUS
 10
62.907623
 20
23.079785
 40
0.300000
 50
90.000000
  1
C58
  7
TQS_CALIBRI
  0
TEXT
  8
4
  6
CONTINUOUS
 10
63.227623
 20
23.079785
 40
0.300000
 50
90.000000
  1
C59
  7
TQS_CALIBRI
  0
TEXT
  8
4
  6
CONTINUOUS
 10
63.547623
 20
23.079785
 40
0.300000
 50
90.000000
  1
C60
  7
TQS_CALIBRI
  0
TEXT
  8
4
  6
CONTINUOUS
 10
70.873672
 20
23.079785
 40
0.300000
 50
90.000000
  1
C61
  7
TQS_CALIBRI
  0
TEXT
  8
4
  6
CONTINUOUS
 10
71.193672
 20
23.079785
 40
0.300000
 50
90.000000
  1
C62
  7
TQS_CALIBRI
  0
TEXT
  8
4
  6
CONTINUOUS
 10
71.513672
 20
23.079785
 40
0.300000
 50
90.000000
  1
C63
  7
TQS_CALIBRI
  0
TEXT
  8
4
  6
CONTINUOUS
 10
71.833672
 20
23.079785
 40
0.300000
 50
90.000000
  1
C64
  7
TQS_CALIBRI
  0
TEXT
  8
4
  6
CONTINUOUS
 10
72.153672
 20
23.079785
 40
0.300000
 50
90.000000
  1
C65
  7
TQS_CALIBRI
  0
TEXT
  8
4
  6
CONTINUOUS
 10
79.528985
 20
23.079785
 40
0.300000
 50
90.000000
  1
C66
  7
TQS_CALIBRI
  0
TEXT
  8
4
  6
CONTINUOUS
 10
79.848985
 20
23.079785
 40
0.300000
 50
90.000000
  1
C67
  7
TQS_CALIBRI
  0
TEXT
  8
4
  6
CONTINUOUS
 10
80.168985
 20
23.079785
 40
0.300000
 50
90.000000
  1
C68
  7
TQS_CALIBRI
  0
TEXT
  8
4
  6
CONTINUOUS
 10
80.488985
 20
23.079785
 40
0.300000
 50
90.000000
  1
C69
  7
TQS_CALIBRI
  0
TEXT
  8
4
  6
CONTINUOUS
 10
80.808985
 20
23.079785
 40
0.300000
 50
90.000000
  1
C70
  7
TQS_CALIBRI
  0
TEXT
  8
4
  6
CONTINUOUS
 10
10.748359
 20
23.079785
 40
0.300000
 50
90.000000
  1
C33
  7
TQS_CALIBRI
  0
TEXT
  8
4
  6
CONTINUOUS
 10
11.548359
 20
23.079785
 40
0.300000
 50
90.000000
  1
C34
  7
TQS_CALIBRI
  0
TEXT
  8
4
  6
CONTINUOUS
 10
89.585925
 20
23.079785
 40
0.300000
 50
90.000000
  1
C71
  7
TQS_CALIBRI
  0
TEXT
  8
4
  6
CONTINUOUS
 10
90.105925
 20
23.079785
 40
0.300000
 50
90.000000
  1
C72
  7
TQS_CALIBRI
  0
TEXT
  8
4
  6
CONTINUOUS
 10
90.625925
 20
23.079785
 40
0.300000
 50
90.000000
  1
C73
  7
TQS_CALIBRI
  0
TEXT
  8
4
  6
CONTINUOUS
 10
53.227623
 20
23.079785
 40
0.300000
 50
90.000000
  1
C52
  7
TQS_CALIBRI
  0
TEXT
  8
4
  6
CONTINUOUS
 10
53.627623
 20
23.079785
 40
0.300000
 50
90.000000
  1
C53
  7
TQS_CALIBRI
  0
TEXT
  8
4
  6
CONTINUOUS
 10
54.027623
 20
23.079785
 40
0.300000
 50
90.000000
  1
C54
  7
TQS_CALIBRI
  0
TEXT
  8
4
  6
CONTINUOUS
 10
54.427623
 20
23.079785
 40
0.300000
 50
90.000000
  1
C55
  7
TQS_CALIBRI
  0
TEXT
  8
1
  6
CONTINUOUS
 10
101.932386
 20
23.396411
 40
0.350000
  1
NOTAS:
  7
TQS_CALIBRI
  0
TEXT
  8
2
  6
CONTINUOUS
 10
101.965840
 20
22.812661
 40
0.240000
  1
1) CONFERIR INFORMAÇÕES DA TABELA ACIMA (TABELA DE FERRERAGEM) NA OBRA
  7
TQS_CALIBRI
  0
TEXT
  8
2
  6
CONTINUOUS
 10
101.965840
 20
22.343353
 40
0.240000
  1
ANTES DA COMPRA DAS ARMADURAS.
  7
TQS_CALIBRI
  0
TEXT
  8
1
  6
CONTINUOUS
 10
102.073109
 20
8.835799
 40
0.455000
  1
ENGENHARIA
  7
TQS_CALIBRI
  0
TEXT
  8
1
  6
CONTINUOUS
 10
101.876737
 20
16.222571
 40
0.250000
  1
REV
  7
TQS_CALIBRI
  0
TEXT
  8
1
  6
CONTINUOUS
 10
103.356169
 20
16.222571
 40
0.250000
  1
DATA
  7
TQS_CALIBRI
  0
TEXT
  8
1
  6
CONTINUOUS
 10
105.030516
 20
16.222571
 40
0.250000
  1
ASSUNTO
  7
TQS_CALIBRI
  0
TEXT
  8
1
  6
CONTINUOUS
 10
101.832253
 20
14.047181
 40
0.250000
  1
PROPRIETÁRIO - 
  7
TQS_CALIBRI
  0
TEXT
  8
1
  6
CONTINUOUS
 10
108.042444
 20
2.579059
 40
0.250000
  1
ENGENHEIRO:
  7
TQS_CALIBRI
  0
TEXT
  8
1
  6
CONTINUOUS
 10
108.046365
 20
2.149652
 40
0.250000
  1
CREA REG.:
  7
TQS_CALIBRI
  0
TEXT
  8
1
  6
CONTINUOUS
 10
110.430567
 20
2.160333
 40
0.250000
  1
020930945-8
  7
TQS_CALIBRI
  0
TEXT
  8
1
  6
CONTINUOUS
 10
103.739739
 20
9.759850
 40
1.000000
  1
VGF
  7
TQS_CALIBRI
  0
TEXT
  8
1
  6
CONTINUOUS
 10
101.832253
 20
12.147181
 40
0.250000
  1
PROJETO              Eng. Civil - CREA:020930945-8
  7
TQS_CALIBRI
  0
TEXT
  8
1
  6
CONTINUOUS
 10
101.800510
 20
2.752624
 40
0.150000
  1
DATA:
  7
TQS_CALIBRI
  0
TEXT
  8
1
  6
CONTINUOUS
 10
101.788178
 20
1.752624
 40
0.150000
  1
FASE:
  7
TQS_CALIBRI
  0
TEXT
  8
1
  6
CONTINUOUS
 10
105.124829
 20
2.752624
 40
0.150000
  1
ESCALA:
  7
TQS_CALIBRI
  0
TEXT
  8
1
  6
CONTINUOUS
 10
105.112497
 20
1.752624
 40
0.150000
  1
PLANTA:
  7
TQS_CALIBRI
  0
TEXT
  8
1
  6
CONTINUOUS
 10
101.800510
 20
6.352624
 40
0.150000
  1
TÍTULO:
  7
TQS_CALIBRI
  0
TEXT
  8
1
  6
CONTINUOUS
 10
101.787482
 20
5.577767
 40
0.150000
  1
ELEMENTOS DA PRANCHA:
  7
TQS_CALIBRI
  0
TEXT
  8
1
  6
CONTINUOUS
 10
101.800510
 20
8.252624
 40
0.150000
  1
EMPREENDIMENTO/LOCAL:
  7
TQS_CALIBRI
  0
TEXT
  8
1
  6
CONTINUOUS
 10
106.761120
 20
11.025301
 40
0.150000
  1
CONTATOS:
  7
TQS_CALIBRI
  0
TEXT
  8
1
  6
CONTINUOUS
 10
114.224829
 20
2.752624
 40
0.150000
  1
PLANTA-REVISÃO:
  7
TQS_CALIBRI
  0
TEXT
  8
1
  6
CONTINUOUS
 10
102.041441
 20
16.843956
 40
0.200000
  1
00
  7
TQS_CALIBRI
  0
TEXT
  8
1
  6
CONTINUOUS
 10
102.041441
 20
17.343956
 40
0.200000
  1
01
  7
TQS_CALIBRI
  0
TEXT
  8
1
  6
CONTINUOUS
 10
102.041441
 20
17.843956
 40
0.200000
  1
02
  7
TQS_CALIBRI
  0
TEXT
  8
1
  6
CONTINUOUS
 10
102.041441
 20
18.343956
 40
0.200000
  1
03
  7
TQS_CALIBRI
  0
TEXT
  8
1
  6
CONTINUOUS
 10
102.041441
 20
18.843956
 40
0.200000
  1
04
  7
TQS_CALIBRI
  0
TEXT
  8
1
  6
CONTINUOUS
 10
102.041441
 20
19.343956
 40
0.200000
  1
05
  7
TQS_CALIBRI
  0
TEXT
  8
1
  6
CONTINUOUS
 10
102.041441
 20
19.843956
 40
0.200000
  1
06
  7
TQS_CALIBRI
  0
TEXT
  8
1
  6
CONTINUOUS
 10
102.041441
 20
20.343956
 40
0.200000
  1
07
  7
TQS_CALIBRI
  0
TEXT
  8
1
  6
CONTINUOUS
 10
102.041441
 20
20.843956
 40
0.200000
  1
08
  7
TQS_CALIBRI
  0
TEXT
  8
1
  6
CONTINUOUS
 10
102.041441
 20
21.343956
 40
0.200000
  1
09
  7
TQS_CALIBRI
  0
TEXT
  8
1
  6
CONTINUOUS
 10
102.041441
 20
21.843956
 40
0.200000
  1
10
  7
TQS_CALIBRI
  0
TEXT
  8
1
  6
CONTINUOUS
 10
116.437973
 20
16.222571
 40
0.250000
  1
AUTOR
  7
TQS_CALIBRI
  0
TEXT
  8
1
  6
CONTINUOUS
 10
106.749019
 20
10.335784
 40
0.195000
  1
Tel: 99928-2128
  7
TQS_CALIBRI
  0
TEXT
  8
1
  6
CONTINUOUS
 10
106.749019
 20
10.012284
 40
0.195000
  1
franciscogonca@hotmail.com 
  7
TQS_CALIBRI
  0
TEXT
  8
1
  6
CONTINUOUS
 10
106.749019
 20
9.680784
 40
0.195000
  1
Tel: 99981-6458
  7
TQS_CALIBRI
  0
TEXT
  8
1
  6
CONTINUOUS
 10
106.749019
 20
9.357284
 40
0.195000
  1
tiago@vgfengenharia.com.br 
  7
TQS_CALIBRI
  0
TEXT
  8
1
  6
CONTINUOUS
 10
106.749019
 20
9.025784
 40
0.195000
  1
Tel: 99912-8379
  7
TQS_CALIBRI
  0
TEXT
  8
1
  6
CONTINUOUS
 10
110.809443
 20
11.052624
 40
0.150000
  1
CLIENTE:
  7
TQS_CALIBRI
  0
TEXT
  8
1
  6
CONTINUOUS
 10
116.009770
 20
1.647683
 40
0.500000
  1
-R
  7
TQS_CALIBRI
  0
TEXT
  8
1
  6
CONTINUOUS
 10
101.832253
 20
12.547181
 40
0.250000
  1
RESPONSÁVEL -  Diego de Vasconcelos Gonçalves Ferreira
  7
TQS_CALIBRI
  0
TEXT
  8
1
  6
CONTINUOUS
 10
110.422141
 20
2.578345
 40
0.250000
  1
Diego Vasconcelos
  7
TQS_CALIBRI
  0
TEXT
  8
1
  6
CONTINUOUS
 10
106.749019
 20
10.667284
 40
0.195000
  1
diego@vgfengenharia.com.br 
  7
TQS_CALIBRI
  0
TEXT
  8
1
  6
CONTINUOUS
 10
104.982892
 20
16.853163
 40
0.200000
  1
Emissão inicial.
  7
TQS_CALIBRI
  0
TEXT
  8
1
  6
CONTINUOUS
 10
101.795719
 20
7.825700
 40
0.250000
  1
Assembléia Legislativa de Alagoas
  7
TQS_CALIBRI
  0
TEXT
  8
1
  6
CONTINUOUS
 10
104.517953
 20
14.045361
 40
0.250000
  1
ALA
  7
TQS_CALIBRI
  0
TEXT
  8
1
  6
CONTINUOUS
 10
101.789281
 20
2.263237
 40
0.250000
  1
27/02/2024
  7
TQS_CALIBRI
  0
TEXT
  8
1
  6
CONTINUOUS
 10
102.992347
 20
16.854551
 40
0.200000
  1
27/02/24
  7
TQS_CALIBRI
  0
TEXT
  8
1
  6
CONTINUOUS
 10
101.787954
 20
7.415393
 40
0.200000
  1
RUA SÁ E ALBUQUERQUE, NÚMERO 807, JARAGUÁ - MACEIÓ-AL
  7
TQS_CALIBRI
  0
TEXT
  8
1
  6
CONTINUOUS
 10
101.789859
 20
1.251887
 40
0.250000
  1
PE
  7
TQS_CALIBRI
  0
TEXT
  8
1
  6
CONTINUOUS
 10
105.114178
 20
1.251887
 40
0.250000
  1
CLA-EEM-EST-PE-0632-ARM-R00
  7
TQS_CALIBRI
  0
TEXT
  8
1
  6
CONTINUOUS
 10
116.547332
 20
16.842370
 40
0.200000
  1
DIEGO
  7
TQS_CALIBRI
  0
TEXT
  8
1
  6
CONTINUOUS
 10
114.396264
 20
1.644018
 40
0.500000
  1
0632
  7
TQS_CALIBRI
  0
TEXT
  8
1
  6
CONTINUOUS
 10
116.689770
 20
1.647683
 40
0.500000
  1
00
  7
TQS_CALIBRI
  0
TEXT
  8
1
  6
CONTINUOUS
 10
110.802729
 20
10.513659
 40
0.400000
  1
ALA
  7
TQS_CALIBRI
  0
TEXT
  8
1
  6
CONTINUOUS
 10
101.762319
 20
5.951739
 40
0.250000
  1
ARM. PROTENSÃO HORIZONTAL (05-Rooftop) - 01 - I
  7
TQS_CALIBRI
  0
ENDSEC
  0
EOF
