  0
SECTION
  2
HEADER
  9
$ACADVER
  1
AC1002
  9
$USERI1
 70
0
  9
$INSBASE
 10
0.000000
 20
0.000000
  9
$EXTMIN
 10
0.000000
 20
0.000000
  9
$EXTMAX
 10
7.761771
 20
4.436620
  9
$LIMMIN
 10
0.000000
 20
0.000000
  9
$LIMMAX
 10
12.000000
 20
9.000000
  9
$VIEWCTR
 10
78.887138
 20
59.361758
  9
$VIEWSIZE
 40
127.522840
  9
$TEXTSIZE
 40
0.100000
  9
$TRACEWID
 40
0.010000
  9
$LTSCALE
 40
1.000000
  0
ENDSEC
  0
SECTION
  2
TABLES
  0
TABLE
  2
LTYPE
 70
     3
  0
LTYPE
  2
CONTINUOUS
 70
    64
  3
Solid line
 72
    65
 73
     0
 40
0.000000
  0
LTYPE
  2
ESTILO_TQS_0001
 70
    64
  3
-  -  -  -  -  -
 72
    65
 73
     2
 40
1.000000
 49
0.700000
 49
-0.300000
  0
LTYPE
  2
ESTILO_TQS_0002
 70
    64
  3
. . . . . . . .
 72
    65
 73
     2
 40
0.400000
 49
0.100000
 49
-0.300000
  0
LTYPE
  2
ESTILO_TQS_0003
 70
    64
  3
- . - . - . - .
 72
    65
 73
     4
 40
0.910000
 49
0.500000
 49
-0.200000
 49
0.010000
 49
-0.200000
  0
LTYPE
  2
ESTILO_TQS_0004
 70
    64
  3
- .. - .. - ..
 72
    65
 73
     6
 40
1.120000
 49
0.500000
 49
-0.200000
 49
0.010000
 49
-0.200000
 49
0.010000
 49
-0.200000
  0
LTYPE
  2
CONTINUOUS
 70
    64
  3
- - - - - - - -
 72
    65
 73
     2
 40
0.400000
 49
0.300000
 49
-0.100000
  0
ENDTAB
  0
TABLE
  2
LAYER
 70
    89
  0
LAYER
  2
0
 70
     0
 62
     7
  6
CONTINUOUS
  0
LAYER
  2
1
 70
     0
 62
     1
  6
CONTINUOUS
  0
LAYER
  2
2
 70
     0
 62
     2
  6
CONTINUOUS
  0
LAYER
  2
3
 70
     0
 62
     3
  6
CONTINUOUS
  0
LAYER
  2
4
 70
     0
 62
     4
  6
CONTINUOUS
  0
LAYER
  2
5
 70
     0
 62
     5
  6
CONTINUOUS
  0
LAYER
  2
6
 70
     0
 62
     6
  6
CONTINUOUS
  0
LAYER
  2
7
 70
     0
 62
     7
  6
CONTINUOUS
  0
LAYER
  2
8
 70
     0
 62
     8
  6
CONTINUOUS
  0
LAYER
  2
9
 70
     0
 62
     9
  6
CONTINUOUS
  0
LAYER
  2
10
 70
     0
 62
    10
  6
CONTINUOUS
  0
LAYER
  2
11
 70
     0
 62
    11
  6
CONTINUOUS
  0
LAYER
  2
12
 70
     0
 62
    12
  6
CONTINUOUS
  0
LAYER
  2
13
 70
     0
 62
    13
  6
CONTINUOUS
  0
LAYER
  2
14
 70
     0
 62
    14
  6
CONTINUOUS
  0
LAYER
  2
15
 70
     0
 62
    15
  6
CONTINUOUS
  0
LAYER
  2
16
 70
     0
 62
     7
  6
CONTINUOUS
  0
LAYER
  2
17
 70
     0
 62
     2
  6
CONTINUOUS
  0
LAYER
  2
18
 70
     0
 62
     4
  6
CONTINUOUS
  0
LAYER
  2
19
 70
     0
 62
     5
  6
CONTINUOUS
  0
LAYER
  2
20
 70
     0
 62
     4
  6
CONTINUOUS
  0
LAYER
  2
21
 70
     0
 62
     2
  6
CONTINUOUS
  0
LAYER
  2
22
 70
     0
 62
     1
  6
CONTINUOUS
  0
LAYER
  2
23
 70
     0
 62
     7
  6
CONTINUOUS
  0
LAYER
  2
24
 70
     0
 62
     6
  6
CONTINUOUS
  0
LAYER
  2
25
 70
     0
 62
     1
  6
CONTINUOUS
  0
LAYER
  2
26
 70
     0
 62
     3
  6
CONTINUOUS
  0
LAYER
  2
27
 70
     0
 62
     4
  6
CONTINUOUS
  0
LAYER
  2
28
 70
     0
 62
     4
  6
CONTINUOUS
  0
LAYER
  2
30
 70
     0
 62
     4
  6
CONTINUOUS
  0
LAYER
  2
100
 70
     0
 62
     1
  6
CONTINUOUS
  0
LAYER
  2
101
 70
     0
 62
     9
  6
CONTINUOUS
  0
LAYER
  2
102
 70
     0
 62
     7
  6
CONTINUOUS
  0
LAYER
  2
103
 70
     0
 62
     2
  6
CONTINUOUS
  0
LAYER
  2
104
 70
     0
 62
    11
  6
CONTINUOUS
  0
LAYER
  2
105
 70
     0
 62
     3
  6
CONTINUOUS
  0
LAYER
  2
106
 70
     0
 62
     5
  6
CONTINUOUS
  0
LAYER
  2
107
 70
     0
 62
     3
  6
CONTINUOUS
  0
LAYER
  2
108
 70
     0
 62
     5
  6
CONTINUOUS
  0
LAYER
  2
109
 70
     0
 62
     3
  6
CONTINUOUS
  0
LAYER
  2
197
 70
     0
 62
     3
  6
CONTINUOUS
  0
LAYER
  2
198
 70
     0
 62
     2
  6
CONTINUOUS
  0
LAYER
  2
199
 70
     0
 62
     6
  6
CONTINUOUS
  0
LAYER
  2
200
 70
     0
 62
     7
  6
ESTILO_TQS_0002
  0
LAYER
  2
201
 70
     0
 62
     7
  6
ESTILO_TQS_0001
  0
LAYER
  2
202
 70
     0
 62
     7
  6
CONTINUOUS
  0
LAYER
  2
203
 70
     0
 62
     7
  6
ESTILO_TQS_0001
  0
LAYER
  2
204
 70
     0
 62
     7
  6
ESTILO_TQS_0003
  0
LAYER
  2
205
 70
     0
 62
     5
  6
ESTILO_TQS_0004
  0
LAYER
  2
206
 70
     0
 62
    15
  6
CONTINUOUS
  0
LAYER
  2
207
 70
     0
 62
     2
  6
CONTINUOUS
  0
LAYER
  2
208
 70
     0
 62
     5
  6
CONTINUOUS
  0
LAYER
  2
210
 70
     0
 62
    15
  6
ESTILO_TQS_0002
  0
LAYER
  2
211
 70
     0
 62
     7
  6
ESTILO_TQS_0001
  0
LAYER
  2
214
 70
     0
 62
    15
  6
CONTINUOUS
  0
LAYER
  2
215
 70
     0
 62
     2
  6
CONTINUOUS
  0
LAYER
  2
216
 70
     0
 62
     3
  6
CONTINUOUS
  0
LAYER
  2
217
 70
     0
 62
     3
  6
CONTINUOUS
  0
LAYER
  2
218
 70
     0
 62
     2
  6
CONTINUOUS
  0
LAYER
  2
219
 70
     0
 62
    15
  6
CONTINUOUS
  0
LAYER
  2
220
 70
     0
 62
    10
  6
CONTINUOUS
  0
LAYER
  2
221
 70
     0
 62
    11
  6
CONTINUOUS
  0
LAYER
  2
222
 70
     0
 62
    12
  6
CONTINUOUS
  0
LAYER
  2
223
 70
     0
 62
     6
  6
CONTINUOUS
  0
LAYER
  2
224
 70
     0
 62
     1
  6
CONTINUOUS
  0
LAYER
  2
225
 70
     0
 62
    15
  6
CONTINUOUS
  0
LAYER
  2
226
 70
     0
 62
     2
  6
CONTINUOUS
  0
LAYER
  2
227
 70
     0
 62
    10
  6
CONTINUOUS
  0
LAYER
  2
228
 70
     0
 62
    11
  6
CONTINUOUS
  0
LAYER
  2
229
 70
     0
 62
    12
  6
CONTINUOUS
  0
LAYER
  2
230
 70
     0
 62
     6
  6
CONTINUOUS
  0
LAYER
  2
231
 70
     0
 62
     3
  6
CONTINUOUS
  0
LAYER
  2
232
 70
     0
 62
    12
  6
CONTINUOUS
  0
LAYER
  2
233
 70
     0
 62
     4
  6
CONTINUOUS
  0
LAYER
  2
234
 70
     0
 62
    13
  6
CONTINUOUS
  0
LAYER
  2
235
 70
     0
 62
     5
  6
CONTINUOUS
  0
LAYER
  2
236
 70
     0
 62
     2
  6
CONTINUOUS
  0
LAYER
  2
237
 70
     0
 62
     6
  6
CONTINUOUS
  0
LAYER
  2
238
 70
     0
 62
    12
  6
CONTINUOUS
  0
LAYER
  2
239
 70
     0
 62
    11
  6
CONTINUOUS
  0
LAYER
  2
240
 70
     0
 62
    11
  6
CONTINUOUS
  0
LAYER
  2
241
 70
     0
 62
    12
  6
CONTINUOUS
  0
ENDTAB
  0
TABLE
  2
STYLE
 70
     1
  0
STYLE
  2
STANDARD
 70
    64
 40
0.000000
 41
1.000000
 50
0.000000
 71
     0
 42
0.200000
  3
ROMANS.SHX
  4

  0
STYLE
  2
TQS_CALIBRI
 70
     0
 40
0.000000
 41
1.000000
 50
0.000000
 71
     0
 42
0.200000
  3
calibri.ttf
  0
STYLE
  2
TQS_CALIBRI_U
 70
     0
 40
0.000000
 41
1.000000
 50
0.000000
 71
     0
 42
0.200000
  3
calibri.ttf
  0
STYLE
  2
TQS_CALIBRI_I
 70
     0
 40
0.000000
 41
1.000000
 50
0.000000
 71
     0
 42
0.200000
  3
calibri.ttf
  0
STYLE
  2
TQS_CALIBRI_I_U
 70
     0
 40
0.000000
 41
1.000000
 50
0.000000
 71
     0
 42
0.200000
  3
calibri.ttf
  0
STYLE
  2
TQS_CALIBRI_B
 70
     0
 40
0.000000
 41
1.000000
 50
0.000000
 71
     0
 42
0.200000
  3
calibri.ttf
  0
STYLE
  2
TQS_CALIBRI_B_U
 70
     0
 40
0.000000
 41
1.000000
 50
0.000000
 71
     0
 42
0.200000
  3
calibri.ttf
  0
STYLE
  2
TQS_CALIBRI_B_I
 70
     0
 40
0.000000
 41
1.000000
 50
0.000000
 71
     0
 42
0.200000
  3
calibri.ttf
  0
STYLE
  2
TQS_CALIBRI_B_I_U
 70
     0
 40
0.000000
 41
1.000000
 50
0.000000
 71
     0
 42
0.200000
  3
calibri.ttf
  0
ENDTAB
  0
TABLE
  2
VIEW
 70
     0
  0
ENDTAB
  0
ENDSEC
  0
SECTION
  2
BLOCKS
  0
BLOCK
  8
0
  2
_PLWTQS
 70
    64
 10
0.000000
 20
0.000000
  0
TEXT
  8
0
  6
CONTINUOUS
 10
0.000000
 20
0.000000
 40
0.200000
  1
$PLWDWGGlBMVwAAAAAAAChABAAAABMAwISWV6Am2UD57H74XzCmYqnB4nABNzeHGSE2Y9eBopr2LDW5hB8wrn89lFrVFNvLkJyw7RQx5k923iyCwj7NBTalU42kEprxAqvQggohxlyarK1ohTfftwZPGyZpnE+l7jj4ubLJpiQIgQo4/BY=
  7
TQS_CALIBRI
  0
TEXT
  8
0
  6
CONTINUOUS
 10
0.000000
 20
-0.250000
 40
0.200000
  1
$PLWDWGrjlbB8m+MxMKRRYDWUve2Y2SjpLhb93E8IwfP05PGutEH3RCYke9HAClt4CkBGjlDEpVIy9CD4L6gtmYh8dGE8SojuWAt0+RSHMQVWuGTZBaZjeztYZ4ZH5af03GWeewztXdaAiLouqRI/oWOjCobCHGF2unB2pjWU1yUjPSKcI=
  7
TQS_CALIBRI
  0
TEXT
  8
0
  6
CONTINUOUS
 10
0.000000
 20
-0.500000
 40
0.200000
  1
$PLWDWGEX+tEGJ2spqvnwy/WAc+HslXW1wjO0UQpUKP2+mXZKe/5sRlYsgJxUfv/RucPauPSYZi0lS+SHv9fIgcgYeZtJK6L//mhaOs6yFJ8FbA3yIWJ2ze0EYGpBg16LZ2V249lM+fD5fPIn2X2p6vJxBgcD3aZHYZD+bb7M5kVRVFy3w=
  7
TQS_CALIBRI
  0
TEXT
  8
0
  6
CONTINUOUS
 10
0.000000
 20
-0.750000
 40
0.200000
  1
$PLWDWGMvKspsZqPQW7qSf5MvZzMIn35ImAL5rNWp/aSC825SZOpycuGHPqJQKB9MGq8ZxIWq/8hZFSe6aHVINNEqeEm/+H9rK+emXOs1R7mLivi1MGM3vUVOIaqr9T9heEzRk+xBOPUQZ7UVCS9BFtH+QxWUgfCvP1VJmABlwa5NBWoBU=
  7
TQS_CALIBRI
  0
TEXT
  8
0
  6
CONTINUOUS
 10
0.000000
 20
-1.000000
 40
0.200000
  1
$PLWDWGd17BqBOp0M6ePBB3Qj6RHaCmPRA2UIuhLE09rPUKFHCa3MwKmMSPIIZiI6MQgw88Q/jJarg7R/cRs2WX2qH1WibS8DeeL8MDx/vgzLtJtA0efYgS/gTvaogNa30fja2dl6qKgA1pdn0AAwthZTgE5JbbL1u6i92ObqxX/rI6UoY=
  7
TQS_CALIBRI
  0
TEXT
  8
0
  6
CONTINUOUS
 10
0.000000
 20
-1.250000
 40
0.200000
  1
$PLWDWGFPobyba72J9r7TeS3tC322TLOFZPcazjJ3ve1p1CyRZln/rJVVXwFFMSrdu5KigJZTUuaMNKnQt3BbBzGllCoXP3GiUEcTuVzpyL8wWmQRv67a19rqFocybnRJfnTUpwuK56ojw6rbYv4l3qPpsDNZXmF49C01wobNl3kMHeyMA=
  7
TQS_CALIBRI
  0
TEXT
  8
0
  6
CONTINUOUS
 10
0.000000
 20
-1.500000
 40
0.200000
  1
$PLWDWGOCHKKYuJiqaa71ZB1uEzTwMCZHlryE/jrC8eVjEFlUn40fADzGErW8uHdLgpO3m7Lm+hoJmlzyoBKXNGnmt5r/UdYT7bOtp2Tj/3Ivz2Hm+CUGrQt8X8doAHrV4ukrV/VbucTq0pbTLpMmoAqraxmMEVCpAQTHSqpD7XRy2QAYQ=
  7
TQS_CALIBRI
  0
TEXT
  8
0
  6
CONTINUOUS
 10
0.000000
 20
-1.750000
 40
0.200000
  1
$PLWDWGuGoQkQI8VIDKKluFZt+TnPXjhU8OhTWh3azHzOGhjRT5kE8aSoaLoRWILRPTWKFQmsHNUkysCTcAAAAA0/4jg41zXF4i0/cvDpLlf5rBzVJMrAk3AAAAAA==
  7
TQS_CALIBRI
  0
ENDBLK
  8
0
  0
ENDSEC
  0
SECTION
  2
ENTITIES
  0
SOLID
  8
13
  6
CONTINUOUS
 10
102.095046
 20
10.244446
 11
102.095046
 21
9.498246
 12
101.971546
 22
9.498246
 13
101.971546
 23
9.498246
  0
SOLID
  8
13
  6
CONTINUOUS
 10
102.095046
 20
10.244446
 11
101.971546
 21
9.498246
 12
101.971546
 22
11.162246
 13
101.971546
 23
11.162246
  0
SOLID
  8
13
  6
CONTINUOUS
 10
102.095046
 20
10.244446
 11
101.971546
 21
11.162246
 12
102.095046
 22
11.162246
 13
102.095046
 23
11.162246
  0
SOLID
  8
13
  6
CONTINUOUS
 10
102.095046
 20
10.244446
 11
102.095046
 21
11.162246
 12
102.095046
 22
10.244446
 13
102.095046
 23
10.244446
  0
SOLID
  8
13
  6
CONTINUOUS
 10
102.522746
 20
10.230979
 11
102.522746
 21
9.498246
 12
102.095046
 22
9.498246
 13
102.095046
 23
9.498246
  0
SOLID
  8
13
  6
CONTINUOUS
 10
102.522746
 20
10.230979
 11
102.095046
 21
9.498246
 12
102.095046
 22
10.244446
 13
102.095046
 23
10.244446
  0
SOLID
  8
13
  6
CONTINUOUS
 10
102.522746
 20
10.230979
 11
102.095046
 21
10.244446
 12
102.143544
 22
10.248642
 13
102.143544
 23
10.248642
  0
SOLID
  8
13
  6
CONTINUOUS
 10
102.522746
 20
10.230979
 11
102.143544
 21
10.248642
 12
102.211078
 22
10.252071
 13
102.211078
 23
10.252071
  0
SOLID
  8
13
  6
CONTINUOUS
 10
102.522746
 20
10.230979
 11
102.211078
 21
10.252071
 12
102.259959
 22
10.252484
 13
102.259959
 23
10.252484
  0
SOLID
  8
13
  6
CONTINUOUS
 10
102.522746
 20
10.230979
 11
102.259959
 21
10.252484
 12
102.290321
 22
10.252141
 13
102.290321
 23
10.252141
  0
SOLID
  8
13
  6
CONTINUOUS
 10
102.522746
 20
10.230979
 11
102.290321
 21
10.252141
 12
102.334203
 22
10.250668
 13
102.334203
 23
10.250668
  0
SOLID
  8
13
  6
CONTINUOUS
 10
102.522746
 20
10.230979
 11
102.334203
 21
10.250668
 12
102.394518
 22
10.246747
 13
102.394518
 23
10.246747
  0
SOLID
  8
13
  6
CONTINUOUS
 10
102.522746
 20
10.230979
 11
102.394518
 21
10.246747
 12
102.446340
 22
10.241621
 13
102.446340
 23
10.241621
  0
SOLID
  8
13
  6
CONTINUOUS
 10
102.522746
 20
10.230979
 11
102.446340
 21
10.241621
 12
102.490083
 22
10.235974
 13
102.490083
 23
10.235974
  0
SOLID
  8
13
  6
CONTINUOUS
 10
102.522746
 20
10.230979
 11
102.490083
 21
10.235974
 12
102.522746
 22
10.230979
 13
102.522746
 23
10.230979
  0
SOLID
  8
13
  6
CONTINUOUS
 10
102.594246
 20
10.217654
 11
102.594246
 21
9.498246
 12
103.021946
 22
9.498246
 13
103.021946
 23
9.498246
  0
SOLID
  8
13
  6
CONTINUOUS
 10
102.594246
 20
10.217654
 11
103.021946
 21
9.498246
 12
103.021946
 22
10.064184
 13
103.021946
 23
10.064184
  0
SOLID
  8
13
  6
CONTINUOUS
 10
102.594246
 20
10.217654
 11
103.021946
 21
10.064184
 12
103.003898
 22
10.073542
 13
103.003898
 23
10.073542
  0
SOLID
  8
13
  6
CONTINUOUS
 10
102.594246
 20
10.217654
 11
103.003898
 21
10.073542
 12
102.981716
 22
10.084501
 13
102.981716
 23
10.084501
  0
SOLID
  8
13
  6
CONTINUOUS
 10
102.594246
 20
10.217654
 11
102.981716
 21
10.084501
 12
102.953307
 22
10.098271
 13
102.953307
 23
10.098271
  0
SOLID
  8
13
  6
CONTINUOUS
 10
102.594246
 20
10.217654
 11
102.953307
 21
10.098271
 12
102.912865
 22
10.116383
 13
102.912865
 23
10.116383
  0
SOLID
  8
13
  6
CONTINUOUS
 10
102.594246
 20
10.217654
 11
102.912865
 21
10.116383
 12
102.885024
 22
10.128001
 13
102.885024
 23
10.128001
  0
SOLID
  8
13
  6
CONTINUOUS
 10
102.594246
 20
10.217654
 11
102.885024
 21
10.128001
 12
102.844071
 22
10.144755
 13
102.844071
 23
10.144755
  0
SOLID
  8
13
  6
CONTINUOUS
 10
102.594246
 20
10.217654
 11
102.844071
 21
10.144755
 12
102.813490
 22
10.155923
 13
102.813490
 23
10.155923
  0
SOLID
  8
13
  6
CONTINUOUS
 10
102.594246
 20
10.217654
 11
102.813490
 21
10.155923
 12
102.778388
 22
10.168156
 13
102.778388
 23
10.168156
  0
SOLID
  8
13
  6
CONTINUOUS
 10
102.594246
 20
10.217654
 11
102.778388
 21
10.168156
 12
102.744083
 22
10.178793
 13
102.744083
 23
10.178793
  0
SOLID
  8
13
  6
CONTINUOUS
 10
102.594246
 20
10.217654
 11
102.744083
 21
10.178793
 12
102.703465
 22
10.191172
 13
102.703465
 23
10.191172
  0
SOLID
  8
13
  6
CONTINUOUS
 10
102.594246
 20
10.217654
 11
102.703465
 21
10.191172
 12
102.665141
 22
10.201162
 13
102.665141
 23
10.201162
  0
SOLID
  8
13
  6
CONTINUOUS
 10
102.594246
 20
10.217654
 11
102.665141
 21
10.201162
 12
102.624819
 22
10.210970
 13
102.624819
 23
10.210970
  0
SOLID
  8
13
  6
CONTINUOUS
 10
102.594246
 20
10.217654
 11
102.624819
 21
10.210970
 12
102.594246
 22
10.217654
 13
102.594246
 23
10.217654
  0
SOLID
  8
13
  6
CONTINUOUS
 10
103.093446
 20
10.024343
 11
103.093446
 21
9.498246
 12
103.521146
 22
9.498246
 13
103.521146
 23
9.498246
  0
SOLID
  8
13
  6
CONTINUOUS
 10
103.093446
 20
10.024343
 11
103.521146
 21
9.498246
 12
103.521146
 22
9.661030
 13
103.521146
 23
9.661030
  0
SOLID
  8
13
  6
CONTINUOUS
 10
103.093446
 20
10.024343
 11
103.521146
 21
9.661030
 12
103.507797
 22
9.676793
 13
103.507797
 23
9.676793
  0
SOLID
  8
13
  6
CONTINUOUS
 10
103.093446
 20
10.024343
 11
103.507797
 21
9.676793
 12
103.495964
 22
9.690528
 13
103.495964
 23
9.690528
  0
SOLID
  8
13
  6
CONTINUOUS
 10
103.093446
 20
10.024343
 11
103.495964
 21
9.690528
 12
103.473877
 22
9.715277
 13
103.473877
 23
9.715277
  0
SOLID
  8
13
  6
CONTINUOUS
 10
103.093446
 20
10.024343
 11
103.473877
 21
9.715277
 12
103.454164
 22
9.736530
 13
103.454164
 23
9.736530
  0
SOLID
  8
13
  6
CONTINUOUS
 10
103.093446
 20
10.024343
 11
103.454164
 21
9.736530
 12
103.434048
 22
9.757502
 13
103.434048
 23
9.757502
  0
SOLID
  8
13
  6
CONTINUOUS
 10
103.093446
 20
10.024343
 11
103.434048
 21
9.757502
 12
103.410015
 22
9.781535
 13
103.410015
 23
9.781535
  0
SOLID
  8
13
  6
CONTINUOUS
 10
103.093446
 20
10.024343
 11
103.410015
 21
9.781535
 12
103.399294
 22
9.791943
 13
103.399294
 23
9.791943
  0
SOLID
  8
13
  6
CONTINUOUS
 10
103.093446
 20
10.024343
 11
103.399294
 21
9.791943
 12
103.388429
 22
9.802406
 13
103.388429
 23
9.802406
  0
SOLID
  8
13
  6
CONTINUOUS
 10
103.093446
 20
10.024343
 11
103.388429
 21
9.802406
 12
103.359952
 22
9.828752
 13
103.359952
 23
9.828752
  0
SOLID
  8
13
  6
CONTINUOUS
 10
103.093446
 20
10.024343
 11
103.359952
 21
9.828752
 12
103.325139
 22
9.859181
 13
103.325139
 23
9.859181
  0
SOLID
  8
13
  6
CONTINUOUS
 10
103.093446
 20
10.024343
 11
103.325139
 21
9.859181
 12
103.286846
 22
9.890826
 13
103.286846
 23
9.890826
  0
SOLID
  8
13
  6
CONTINUOUS
 10
103.093446
 20
10.024343
 11
103.286846
 21
9.890826
 12
103.251036
 22
9.918745
 13
103.251036
 23
9.918745
  0
SOLID
  8
13
  6
CONTINUOUS
 10
103.093446
 20
10.024343
 11
103.251036
 21
9.918745
 12
103.200839
 22
9.955427
 13
103.200839
 23
9.955427
  0
SOLID
  8
13
  6
CONTINUOUS
 10
103.093446
 20
10.024343
 11
103.200839
 21
9.955427
 12
103.134352
 22
9.999676
 13
103.134352
 23
9.999676
  0
SOLID
  8
13
  6
CONTINUOUS
 10
103.093446
 20
10.024343
 11
103.134352
 21
9.999676
 12
103.093446
 22
10.024343
 13
103.093446
 23
10.024343
  0
SOLID
  8
13
  6
CONTINUOUS
 10
102.522746
 20
10.635283
 11
102.522746
 21
11.162246
 12
102.095046
 22
11.162246
 13
102.095046
 23
11.162246
  0
SOLID
  8
13
  6
CONTINUOUS
 10
102.522746
 20
10.635283
 11
102.095046
 21
11.162246
 12
102.095046
 22
10.995122
 13
102.095046
 23
10.995122
  0
SOLID
  8
13
  6
CONTINUOUS
 10
102.522746
 20
10.635283
 11
102.095046
 21
10.995122
 12
102.153689
 22
10.929235
 13
102.153689
 23
10.929235
  0
SOLID
  8
13
  6
CONTINUOUS
 10
102.522746
 20
10.635283
 11
102.153689
 21
10.929235
 12
102.237359
 22
10.846559
 13
102.237359
 23
10.846559
  0
SOLID
  8
13
  6
CONTINUOUS
 10
102.522746
 20
10.635283
 11
102.237359
 21
10.846559
 12
102.308389
 22
10.784730
 13
102.308389
 23
10.784730
  0
SOLID
  8
13
  6
CONTINUOUS
 10
102.522746
 20
10.635283
 11
102.308389
 21
10.784730
 12
102.366624
 22
10.739274
 13
102.366624
 23
10.739274
  0
SOLID
  8
13
  6
CONTINUOUS
 10
102.522746
 20
10.635283
 11
102.366624
 21
10.739274
 12
102.406322
 22
10.710064
 13
102.406322
 23
10.710064
  0
SOLID
  8
13
  6
CONTINUOUS
 10
102.522746
 20
10.635283
 11
102.406322
 21
10.710064
 12
102.455827
 22
10.676682
 13
102.455827
 23
10.676682
  0
SOLID
  8
13
  6
CONTINUOUS
 10
102.522746
 20
10.635283
 11
102.455827
 21
10.676682
 12
102.493954
 22
10.652515
 13
102.493954
 23
10.652515
  0
SOLID
  8
13
  6
CONTINUOUS
 10
102.522746
 20
10.635283
 11
102.493954
 21
10.652515
 12
102.522746
 22
10.635283
 13
102.522746
 23
10.635283
  0
SOLID
  8
13
  6
CONTINUOUS
 10
103.021946
 20
10.443678
 11
103.021946
 21
11.162246
 12
102.594246
 22
11.162246
 13
102.594246
 23
11.162246
  0
SOLID
  8
13
  6
CONTINUOUS
 10
103.021946
 20
10.443678
 11
102.594246
 21
11.162246
 12
102.594246
 22
10.595859
 13
102.594246
 23
10.595859
  0
SOLID
  8
13
  6
CONTINUOUS
 10
103.021946
 20
10.443678
 11
102.594246
 21
10.595859
 12
102.663800
 22
10.561766
 13
102.663800
 23
10.561766
  0
SOLID
  8
13
  6
CONTINUOUS
 10
103.021946
 20
10.443678
 11
102.663800
 21
10.561766
 12
102.744359
 22
10.527375
 13
102.744359
 23
10.527375
  0
SOLID
  8
13
  6
CONTINUOUS
 10
103.021946
 20
10.443678
 11
102.744359
 21
10.527375
 12
102.812197
 22
10.501464
 13
102.812197
 23
10.501464
  0
SOLID
  8
13
  6
CONTINUOUS
 10
103.021946
 20
10.443678
 11
102.812197
 21
10.501464
 12
102.889458
 22
10.476967
 13
102.889458
 23
10.476967
  0
SOLID
  8
13
  6
CONTINUOUS
 10
103.021946
 20
10.443678
 11
102.889458
 21
10.476967
 12
102.950702
 22
10.460007
 13
102.950702
 23
10.460007
  0
SOLID
  8
13
  6
CONTINUOUS
 10
103.021946
 20
10.443678
 11
102.950702
 21
10.460007
 12
103.021946
 22
10.443678
 13
103.021946
 23
10.443678
  0
SOLID
  8
13
  6
CONTINUOUS
 10
103.093446
 20
10.430307
 11
103.093446
 21
11.162246
 12
103.521146
 22
11.162246
 13
103.521146
 23
11.162246
  0
SOLID
  8
13
  6
CONTINUOUS
 10
103.093446
 20
10.430307
 11
103.521146
 21
11.162246
 12
103.521146
 22
10.417580
 13
103.521146
 23
10.417580
  0
SOLID
  8
13
  6
CONTINUOUS
 10
103.093446
 20
10.430307
 11
103.521146
 21
10.417580
 12
103.476372
 22
10.413637
 13
103.476372
 23
10.413637
  0
SOLID
  8
13
  6
CONTINUOUS
 10
103.093446
 20
10.430307
 11
103.476372
 21
10.413637
 12
103.416577
 22
10.410480
 13
103.416577
 23
10.410480
  0
SOLID
  8
13
  6
CONTINUOUS
 10
103.093446
 20
10.430307
 11
103.416577
 21
10.410480
 12
103.366788
 22
10.409453
 13
103.366788
 23
10.409453
  0
SOLID
  8
13
  6
CONTINUOUS
 10
103.093446
 20
10.430307
 11
103.366788
 21
10.409453
 12
103.336830
 22
10.409453
 13
103.336830
 23
10.409453
  0
SOLID
  8
13
  6
CONTINUOUS
 10
103.093446
 20
10.430307
 11
103.336830
 21
10.409453
 12
103.286182
 22
10.410821
 13
103.286182
 23
10.410821
  0
SOLID
  8
13
  6
CONTINUOUS
 10
103.093446
 20
10.430307
 11
103.286182
 21
10.410821
 12
103.241261
 22
10.413321
 13
103.241261
 23
10.413321
  0
SOLID
  8
13
  6
CONTINUOUS
 10
103.093446
 20
10.430307
 11
103.241261
 21
10.413321
 12
103.205545
 22
10.416539
 13
103.205545
 23
10.416539
  0
SOLID
  8
13
  6
CONTINUOUS
 10
103.093446
 20
10.430307
 11
103.205545
 21
10.416539
 12
103.155349
 22
10.421044
 13
103.155349
 23
10.421044
  0
SOLID
  8
13
  6
CONTINUOUS
 10
103.093446
 20
10.430307
 11
103.155349
 21
10.421044
 12
103.093446
 22
10.430307
 13
103.093446
 23
10.430307
  0
SOLID
  8
13
  6
CONTINUOUS
 10
102.594246
 20
9.498246
 11
102.594246
 21
11.162246
 12
102.522746
 22
11.162246
 13
102.522746
 23
11.162246
  0
SOLID
  8
13
  6
CONTINUOUS
 10
102.594246
 20
9.498246
 11
102.522746
 21
11.162246
 12
102.522746
 22
9.498246
 13
102.522746
 23
9.498246
  0
SOLID
  8
13
  6
CONTINUOUS
 10
102.594246
 20
9.498246
 11
102.522746
 21
9.498246
 12
102.522746
 22
9.498246
 13
102.522746
 23
9.498246
  0
SOLID
  8
13
  6
CONTINUOUS
 10
103.021946
 20
11.162246
 11
103.093446
 21
11.162246
 12
103.093446
 22
9.498246
 13
103.093446
 23
9.498246
  0
SOLID
  8
13
  6
CONTINUOUS
 10
103.021946
 20
11.162246
 11
103.093446
 21
9.498246
 12
103.021946
 22
9.498246
 13
103.021946
 23
9.498246
  0
SOLID
  8
13
  6
CONTINUOUS
 10
103.021946
 20
11.162246
 11
103.021946
 21
9.498246
 12
103.021946
 22
11.162246
 13
103.021946
 23
11.162246
  0
SOLID
  8
13
  6
CONTINUOUS
 10
103.521146
 20
9.498246
 11
103.635546
 21
9.498246
 12
103.635546
 22
11.162246
 13
103.635546
 23
11.162246
  0
SOLID
  8
13
  6
CONTINUOUS
 10
103.521146
 20
9.498246
 11
103.635546
 21
11.162246
 12
103.521146
 22
11.162246
 13
103.521146
 23
11.162246
  0
SOLID
  8
13
  6
CONTINUOUS
 10
103.521146
 20
9.498246
 11
103.521146
 21
11.162246
 12
103.521146
 22
9.498246
 13
103.521146
 23
9.498246
  0
LINE
  8
1
  6
CONTINUOUS
 10
15.636400
 20
69.324670
 11
35.060128
 21
69.324670
  0
LINE
  8
1
  6
CONTINUOUS
 10
15.636400
 20
69.324670
 11
15.636400
 21
68.324670
  0
LINE
  8
1
  6
CONTINUOUS
 10
15.636400
 20
68.324670
 11
31.925680
 21
68.324670
  0
LINE
  8
1
  6
CONTINUOUS
 10
15.636400
 20
68.324670
 11
15.636400
 21
67.324670
  0
LINE
  8
1
  6
CONTINUOUS
 10
18.125516
 20
68.324670
 11
18.125516
 21
67.324670
  0
LINE
  8
1
  6
CONTINUOUS
 10
20.263229
 20
68.324670
 11
20.263229
 21
67.324670
  0
LINE
  8
1
  6
CONTINUOUS
 10
21.638596
 20
68.324670
 11
21.638596
 21
67.324670
  0
LINE
  8
1
  6
CONTINUOUS
 10
25.803109
 20
67.824670
 11
25.803109
 21
67.324670
  0
LINE
  8
1
  6
CONTINUOUS
 10
28.791232
 20
68.324670
 11
28.791232
 21
67.324670
  0
LINE
  8
1
  6
CONTINUOUS
 10
29.836047
 20
67.824670
 11
29.836048
 21
67.324670
  0
LINE
  8
1
  6
CONTINUOUS
 10
30.880864
 20
67.824670
 11
30.880864
 21
67.324670
  0
LINE
  8
1
  6
CONTINUOUS
 10
31.925680
 20
68.324670
 11
31.925680
 21
67.324670
  0
LINE
  8
1
  6
CONTINUOUS
 10
15.636400
 20
67.324670
 11
35.060128
 21
67.324670
  0
LINE
  8
1
  6
CONTINUOUS
 10
21.638596
 20
67.824670
 11
25.803109
 21
67.824670
  0
LINE
  8
1
  6
CONTINUOUS
 10
25.803109
 20
67.824670
 11
28.791232
 21
67.824670
  0
LINE
  8
1
  6
CONTINUOUS
 10
28.791232
 20
67.824670
 11
29.836048
 21
67.824670
  0
LINE
  8
1
  6
CONTINUOUS
 10
29.836048
 20
67.824670
 11
30.880864
 21
67.824670
  0
LINE
  8
1
  6
CONTINUOUS
 10
30.880864
 20
67.824670
 11
35.060128
 21
67.824670
  0
LINE
  8
1
  6
CONTINUOUS
 10
35.060128
 20
67.324670
 11
35.060128
 21
69.324670
  0
LINE
  8
1
  6
CONTINUOUS
 10
33.492904
 20
67.824670
 11
33.492904
 21
67.324670
  0
LINE
  8
1
  6
CONTINUOUS
 10
31.925680
 20
68.324670
 11
35.060128
 21
68.324670
  0
LINE
  8
1
  6
CONTINUOUS
 10
15.636400
 20
67.324670
 11
15.636400
 21
66.824669
  0
LINE
  8
1
  6
CONTINUOUS
 10
15.636400
 20
66.824669
 11
35.060128
 21
66.824669
  0
LINE
  8
1
  6
CONTINUOUS
 10
18.125516
 20
67.324670
 11
18.125516
 21
66.824669
  0
LINE
  8
1
  6
CONTINUOUS
 10
20.263229
 20
67.324670
 11
20.263229
 21
66.824669
  0
LINE
  8
1
  6
CONTINUOUS
 10
21.638596
 20
67.324670
 11
21.638596
 21
66.824669
  0
LINE
  8
1
  6
CONTINUOUS
 10
25.803109
 20
67.324670
 11
25.803109
 21
66.824669
  0
LINE
  8
1
  6
CONTINUOUS
 10
28.791232
 20
67.324670
 11
28.791232
 21
66.824669
  0
LINE
  8
1
  6
CONTINUOUS
 10
29.836048
 20
67.324670
 11
29.836048
 21
66.824669
  0
LINE
  8
1
  6
CONTINUOUS
 10
30.880864
 20
67.324670
 11
30.880864
 21
66.824669
  0
LINE
  8
1
  6
CONTINUOUS
 10
31.925680
 20
67.324670
 11
31.925680
 21
66.824669
  0
LINE
  8
1
  6
CONTINUOUS
 10
31.925680
 20
66.824669
 11
31.925680
 21
67.324670
  0
LINE
  8
1
  6
CONTINUOUS
 10
31.925680
 20
67.324670
 11
31.925680
 21
66.824669
  0
LINE
  8
1
  6
CONTINUOUS
 10
33.492904
 20
67.324670
 11
33.492904
 21
66.824669
  0
LINE
  8
1
  6
CONTINUOUS
 10
35.060128
 20
67.324670
 11
35.060128
 21
66.824669
  0
LINE
  8
1
  6
CONTINUOUS
 10
15.636400
 20
66.824669
 11
15.636400
 21
66.324669
  0
LINE
  8
1
  6
CONTINUOUS
 10
15.636400
 20
66.324669
 11
35.060128
 21
66.324669
  0
LINE
  8
1
  6
CONTINUOUS
 10
18.125516
 20
66.824669
 11
18.125516
 21
66.324669
  0
LINE
  8
1
  6
CONTINUOUS
 10
20.263229
 20
66.824669
 11
20.263229
 21
66.324669
  0
LINE
  8
1
  6
CONTINUOUS
 10
21.638596
 20
66.824669
 11
21.638596
 21
66.324669
  0
LINE
  8
1
  6
CONTINUOUS
 10
25.803109
 20
66.824669
 11
25.803109
 21
66.324669
  0
LINE
  8
1
  6
CONTINUOUS
 10
28.791232
 20
66.824669
 11
28.791232
 21
66.324669
  0
LINE
  8
1
  6
CONTINUOUS
 10
29.836048
 20
66.824669
 11
29.836048
 21
66.324669
  0
LINE
  8
1
  6
CONTINUOUS
 10
30.880864
 20
66.824669
 11
30.880864
 21
66.324669
  0
LINE
  8
1
  6
CONTINUOUS
 10
31.925680
 20
66.824669
 11
31.925680
 21
66.324669
  0
LINE
  8
1
  6
CONTINUOUS
 10
31.925680
 20
66.324669
 11
31.925680
 21
66.824669
  0
LINE
  8
1
  6
CONTINUOUS
 10
31.925680
 20
66.824669
 11
31.925680
 21
66.324669
  0
LINE
  8
1
  6
CONTINUOUS
 10
33.492904
 20
66.824669
 11
33.492904
 21
66.324669
  0
LINE
  8
1
  6
CONTINUOUS
 10
35.060128
 20
66.824669
 11
35.060128
 21
66.324669
  0
LINE
  8
1
  6
CONTINUOUS
 10
15.636400
 20
66.324668
 11
15.636400
 21
65.824668
  0
LINE
  8
1
  6
CONTINUOUS
 10
15.636400
 20
65.824668
 11
35.060128
 21
65.824668
  0
LINE
  8
1
  6
CONTINUOUS
 10
18.125516
 20
66.324668
 11
18.125516
 21
65.824668
  0
LINE
  8
1
  6
CONTINUOUS
 10
20.263229
 20
66.324668
 11
20.263229
 21
65.824668
  0
LINE
  8
1
  6
CONTINUOUS
 10
21.638596
 20
66.324668
 11
21.638596
 21
65.824668
  0
LINE
  8
1
  6
CONTINUOUS
 10
25.803109
 20
66.324668
 11
25.803109
 21
65.824668
  0
LINE
  8
1
  6
CONTINUOUS
 10
28.791232
 20
66.324668
 11
28.791232
 21
65.824668
  0
LINE
  8
1
  6
CONTINUOUS
 10
29.836048
 20
66.324668
 11
29.836048
 21
65.824668
  0
LINE
  8
1
  6
CONTINUOUS
 10
30.880864
 20
66.324668
 11
30.880864
 21
65.824668
  0
LINE
  8
1
  6
CONTINUOUS
 10
31.925680
 20
66.324668
 11
31.925680
 21
65.824668
  0
LINE
  8
1
  6
CONTINUOUS
 10
31.925680
 20
65.824668
 11
31.925680
 21
66.324668
  0
LINE
  8
1
  6
CONTINUOUS
 10
31.925680
 20
66.324669
 11
31.925680
 21
65.824668
  0
LINE
  8
1
  6
CONTINUOUS
 10
33.492904
 20
66.324668
 11
33.492904
 21
65.824668
  0
LINE
  8
1
  6
CONTINUOUS
 10
35.060128
 20
66.324668
 11
35.060128
 21
65.824668
  0
LINE
  8
1
  6
CONTINUOUS
 10
15.636400
 20
65.824667
 11
15.636400
 21
65.324667
  0
LINE
  8
1
  6
CONTINUOUS
 10
15.636400
 20
65.324667
 11
35.060128
 21
65.324667
  0
LINE
  8
1
  6
CONTINUOUS
 10
18.125516
 20
65.824667
 11
18.125516
 21
65.324667
  0
LINE
  8
1
  6
CONTINUOUS
 10
20.263229
 20
65.824667
 11
20.263229
 21
65.324667
  0
LINE
  8
1
  6
CONTINUOUS
 10
21.638596
 20
65.824667
 11
21.638596
 21
65.324667
  0
LINE
  8
1
  6
CONTINUOUS
 10
25.803109
 20
65.824667
 11
25.803109
 21
65.324667
  0
LINE
  8
1
  6
CONTINUOUS
 10
28.791232
 20
65.824667
 11
28.791232
 21
65.324667
  0
LINE
  8
1
  6
CONTINUOUS
 10
29.836048
 20
65.824667
 11
29.836048
 21
65.324667
  0
LINE
  8
1
  6
CONTINUOUS
 10
30.880864
 20
65.824667
 11
30.880864
 21
65.324667
  0
LINE
  8
1
  6
CONTINUOUS
 10
31.925680
 20
65.824667
 11
31.925680
 21
65.324667
  0
LINE
  8
1
  6
CONTINUOUS
 10
31.925680
 20
65.324667
 11
31.925680
 21
65.824667
  0
LINE
  8
1
  6
CONTINUOUS
 10
31.925680
 20
65.824668
 11
31.925680
 21
65.324667
  0
LINE
  8
1
  6
CONTINUOUS
 10
33.492904
 20
65.824667
 11
33.492904
 21
65.324667
  0
LINE
  8
1
  6
CONTINUOUS
 10
35.060128
 20
65.824667
 11
35.060128
 21
65.324667
  0
LINE
  8
1
  6
CONTINUOUS
 10
15.636400
 20
65.324667
 11
15.636400
 21
64.824667
  0
LINE
  8
1
  6
CONTINUOUS
 10
15.636400
 20
64.824667
 11
35.060128
 21
64.824667
  0
LINE
  8
1
  6
CONTINUOUS
 10
18.125516
 20
65.324667
 11
18.125516
 21
64.824667
  0
LINE
  8
1
  6
CONTINUOUS
 10
20.263229
 20
65.324667
 11
20.263229
 21
64.824667
  0
LINE
  8
1
  6
CONTINUOUS
 10
21.638596
 20
65.324667
 11
21.638596
 21
64.824667
  0
LINE
  8
1
  6
CONTINUOUS
 10
25.803109
 20
65.324667
 11
25.803109
 21
64.824667
  0
LINE
  8
1
  6
CONTINUOUS
 10
28.791232
 20
65.324667
 11
28.791232
 21
64.824667
  0
LINE
  8
1
  6
CONTINUOUS
 10
29.836048
 20
65.324667
 11
29.836048
 21
64.824667
  0
LINE
  8
1
  6
CONTINUOUS
 10
30.880864
 20
65.324667
 11
30.880864
 21
64.824667
  0
LINE
  8
1
  6
CONTINUOUS
 10
31.925680
 20
65.324667
 11
31.925680
 21
64.824667
  0
LINE
  8
1
  6
CONTINUOUS
 10
31.925680
 20
64.824667
 11
31.925680
 21
65.324667
  0
LINE
  8
1
  6
CONTINUOUS
 10
31.925680
 20
65.324667
 11
31.925680
 21
64.824666
  0
LINE
  8
1
  6
CONTINUOUS
 10
33.492904
 20
65.324667
 11
33.492904
 21
64.824667
  0
LINE
  8
1
  6
CONTINUOUS
 10
35.060128
 20
65.324667
 11
35.060128
 21
64.824667
  0
LINE
  8
1
  6
CONTINUOUS
 10
15.636400
 20
64.824666
 11
15.636400
 21
64.324666
  0
LINE
  8
1
  6
CONTINUOUS
 10
15.636400
 20
64.324666
 11
35.060128
 21
64.324666
  0
LINE
  8
1
  6
CONTINUOUS
 10
18.125516
 20
64.824666
 11
18.125516
 21
64.324666
  0
LINE
  8
1
  6
CONTINUOUS
 10
20.263229
 20
64.824666
 11
20.263229
 21
64.324666
  0
LINE
  8
1
  6
CONTINUOUS
 10
21.638596
 20
64.824666
 11
21.638596
 21
64.324666
  0
LINE
  8
1
  6
CONTINUOUS
 10
25.803109
 20
64.824666
 11
25.803109
 21
64.324666
  0
LINE
  8
1
  6
CONTINUOUS
 10
28.791232
 20
64.824666
 11
28.791232
 21
64.324666
  0
LINE
  8
1
  6
CONTINUOUS
 10
29.836048
 20
64.824666
 11
29.836048
 21
64.324666
  0
LINE
  8
1
  6
CONTINUOUS
 10
30.880864
 20
64.824666
 11
30.880864
 21
64.324666
  0
LINE
  8
1
  6
CONTINUOUS
 10
31.925680
 20
64.824666
 11
31.925680
 21
64.324666
  0
LINE
  8
1
  6
CONTINUOUS
 10
31.925680
 20
64.324666
 11
31.925680
 21
64.824666
  0
LINE
  8
1
  6
CONTINUOUS
 10
31.925680
 20
64.824666
 11
31.925680
 21
64.324666
  0
LINE
  8
1
  6
CONTINUOUS
 10
33.492904
 20
64.824666
 11
33.492904
 21
64.324666
  0
LINE
  8
1
  6
CONTINUOUS
 10
35.060128
 20
64.824666
 11
35.060128
 21
64.324666
  0
LINE
  8
1
  6
CONTINUOUS
 10
15.636400
 20
64.324665
 11
15.636400
 21
63.824665
  0
LINE
  8
1
  6
CONTINUOUS
 10
15.636400
 20
63.824665
 11
35.060128
 21
63.824665
  0
LINE
  8
1
  6
CONTINUOUS
 10
18.125516
 20
64.324665
 11
18.125516
 21
63.824665
  0
LINE
  8
1
  6
CONTINUOUS
 10
20.263229
 20
64.324665
 11
20.263229
 21
63.824665
  0
LINE
  8
1
  6
CONTINUOUS
 10
21.638596
 20
64.324665
 11
21.638596
 21
63.824665
  0
LINE
  8
1
  6
CONTINUOUS
 10
25.803109
 20
64.324665
 11
25.803109
 21
63.824665
  0
LINE
  8
1
  6
CONTINUOUS
 10
28.791232
 20
64.324665
 11
28.791232
 21
63.824665
  0
LINE
  8
1
  6
CONTINUOUS
 10
29.836048
 20
64.324665
 11
29.836048
 21
63.824665
  0
LINE
  8
1
  6
CONTINUOUS
 10
30.880864
 20
64.324665
 11
30.880864
 21
63.824665
  0
LINE
  8
1
  6
CONTINUOUS
 10
31.925680
 20
64.324665
 11
31.925680
 21
63.824665
  0
LINE
  8
1
  6
CONTINUOUS
 10
31.925680
 20
63.824665
 11
31.925680
 21
64.324665
  0
LINE
  8
1
  6
CONTINUOUS
 10
31.925680
 20
64.324666
 11
31.925680
 21
63.824665
  0
LINE
  8
1
  6
CONTINUOUS
 10
33.492904
 20
64.324665
 11
33.492904
 21
63.824665
  0
LINE
  8
1
  6
CONTINUOUS
 10
35.060128
 20
64.324665
 11
35.060128
 21
63.824665
  0
LINE
  8
1
  6
CONTINUOUS
 10
15.636400
 20
63.824665
 11
15.636400
 21
63.324664
  0
LINE
  8
1
  6
CONTINUOUS
 10
15.636400
 20
63.324664
 11
35.060128
 21
63.324664
  0
LINE
  8
1
  6
CONTINUOUS
 10
18.125516
 20
63.824665
 11
18.125516
 21
63.324664
  0
LINE
  8
1
  6
CONTINUOUS
 10
20.263229
 20
63.824665
 11
20.263229
 21
63.324664
  0
LINE
  8
1
  6
CONTINUOUS
 10
21.638596
 20
63.824665
 11
21.638596
 21
63.324664
  0
LINE
  8
1
  6
CONTINUOUS
 10
25.803109
 20
63.824665
 11
25.803109
 21
63.324664
  0
LINE
  8
1
  6
CONTINUOUS
 10
28.791232
 20
63.824665
 11
28.791232
 21
63.324664
  0
LINE
  8
1
  6
CONTINUOUS
 10
29.836048
 20
63.824665
 11
29.836048
 21
63.324664
  0
LINE
  8
1
  6
CONTINUOUS
 10
30.880864
 20
63.824665
 11
30.880864
 21
63.324664
  0
LINE
  8
1
  6
CONTINUOUS
 10
31.925680
 20
63.824665
 11
31.925680
 21
63.324664
  0
LINE
  8
1
  6
CONTINUOUS
 10
31.925680
 20
63.324664
 11
31.925680
 21
63.824665
  0
LINE
  8
1
  6
CONTINUOUS
 10
31.925680
 20
63.824665
 11
31.925680
 21
63.324664
  0
LINE
  8
1
  6
CONTINUOUS
 10
33.492904
 20
63.824665
 11
33.492904
 21
63.324664
  0
LINE
  8
1
  6
CONTINUOUS
 10
35.060128
 20
63.824665
 11
35.060128
 21
63.324664
  0
LINE
  8
1
  6
CONTINUOUS
 10
15.636400
 20
63.324664
 11
15.636400
 21
62.824664
  0
LINE
  8
1
  6
CONTINUOUS
 10
15.636400
 20
62.824664
 11
35.060128
 21
62.824664
  0
LINE
  8
1
  6
CONTINUOUS
 10
18.125516
 20
63.324664
 11
18.125516
 21
62.824664
  0
LINE
  8
1
  6
CONTINUOUS
 10
20.263229
 20
63.324664
 11
20.263229
 21
62.824664
  0
LINE
  8
1
  6
CONTINUOUS
 10
21.638596
 20
63.324664
 11
21.638596
 21
62.824664
  0
LINE
  8
1
  6
CONTINUOUS
 10
25.803109
 20
63.324664
 11
25.803109
 21
62.824664
  0
LINE
  8
1
  6
CONTINUOUS
 10
28.791232
 20
63.324664
 11
28.791232
 21
62.824664
  0
LINE
  8
1
  6
CONTINUOUS
 10
29.836048
 20
63.324664
 11
29.836048
 21
62.824664
  0
LINE
  8
1
  6
CONTINUOUS
 10
30.880864
 20
63.324664
 11
30.880864
 21
62.824664
  0
LINE
  8
1
  6
CONTINUOUS
 10
31.925680
 20
63.324664
 11
31.925680
 21
62.824664
  0
LINE
  8
1
  6
CONTINUOUS
 10
31.925680
 20
62.824664
 11
31.925680
 21
63.324664
  0
LINE
  8
1
  6
CONTINUOUS
 10
31.925680
 20
63.324664
 11
31.925680
 21
62.824664
  0
LINE
  8
1
  6
CONTINUOUS
 10
33.492904
 20
63.324664
 11
33.492904
 21
62.824664
  0
LINE
  8
1
  6
CONTINUOUS
 10
35.060128
 20
63.324664
 11
35.060128
 21
62.824664
  0
LINE
  8
1
  6
CONTINUOUS
 10
15.636400
 20
62.187311
 11
28.919492
 21
62.187311
  0
LINE
  8
1
  6
CONTINUOUS
 10
15.636400
 20
60.824664
 11
28.919492
 21
60.824664
  0
LINE
  8
1
  6
CONTINUOUS
 10
15.636400
 20
60.324663
 11
24.558109
 21
60.324663
  0
LINE
  8
1
  6
CONTINUOUS
 10
24.558109
 20
60.324663
 11
26.746232
 21
60.324663
  0
LINE
  8
1
  6
CONTINUOUS
 10
26.126212
 20
60.324663
 11
27.171028
 21
60.324663
  0
LINE
  8
1
  6
CONTINUOUS
 10
27.171028
 20
60.324663
 11
28.835864
 21
60.324663
  0
LINE
  8
1
  6
CONTINUOUS
 10
28.835864
 20
60.324663
 11
28.919492
 21
60.324663
  0
LINE
  8
1
  6
CONTINUOUS
 10
15.636400
 20
62.187311
 11
15.636400
 21
59.324663
  0
LINE
  8
1
  6
CONTINUOUS
 10
15.636400
 20
59.324664
 11
28.919492
 21
59.324664
  0
LINE
  8
1
  6
CONTINUOUS
 10
17.774112
 20
60.324663
 11
17.774112
 21
59.324663
  0
LINE
  8
1
  6
CONTINUOUS
 10
19.962236
 20
59.324663
 11
19.962236
 21
60.324663
  0
LINE
  8
1
  6
CONTINUOUS
 10
26.829860
 20
60.324663
 11
26.829860
 21
59.324664
  0
LINE
  8
1
  6
CONTINUOUS
 10
27.874677
 20
60.324663
 11
27.874677
 21
59.324664
  0
LINE
  8
1
  6
CONTINUOUS
 10
21.665048
 20
59.324664
 11
21.665048
 21
59.824664
  0
LINE
  8
1
  6
CONTINUOUS
 10
28.919492
 20
59.324664
 11
28.919492
 21
62.187311
  0
LINE
  8
1
  6
CONTINUOUS
 10
19.962236
 20
59.824664
 11
25.785045
 21
59.824664
  0
LINE
  8
1
  6
CONTINUOUS
 10
25.785045
 20
59.324664
 11
25.785045
 21
60.824664
  0
LINE
  8
1
  6
CONTINUOUS
 10
23.725047
 20
59.324664
 11
23.725047
 21
59.824664
  0
LINE
  8
1
  6
CONTINUOUS
 10
15.636400
 20
59.324663
 11
15.636400
 21
58.824663
  0
LINE
  8
1
  6
CONTINUOUS
 10
17.774112
 20
59.324663
 11
17.774112
 21
58.824663
  0
LINE
  8
1
  6
CONTINUOUS
 10
19.962236
 20
59.324663
 11
19.962236
 21
58.824663
  0
LINE
  8
1
  6
CONTINUOUS
 10
15.636400
 20
58.824663
 11
28.919492
 21
58.824663
  0
LINE
  8
1
  6
CONTINUOUS
 10
25.785045
 20
59.324663
 11
25.785045
 21
58.824663
  0
LINE
  8
1
  6
CONTINUOUS
 10
26.829860
 20
59.324663
 11
26.829860
 21
58.824663
  0
LINE
  8
1
  6
CONTINUOUS
 10
27.874677
 20
59.324663
 11
27.874677
 21
58.824663
  0
LINE
  8
1
  6
CONTINUOUS
 10
21.665048
 20
59.324663
 11
21.665048
 21
58.824663
  0
LINE
  8
1
  6
CONTINUOUS
 10
23.725047
 20
58.824663
 11
23.725047
 21
59.324663
  0
LINE
  8
1
  6
CONTINUOUS
 10
25.785045
 20
58.824663
 11
25.785045
 21
59.324663
  0
LINE
  8
1
  6
CONTINUOUS
 10
28.919492
 20
59.324663
 11
28.919492
 21
58.824663
  0
LINE
  8
1
  6
CONTINUOUS
 10
15.636400
 20
58.824662
 11
15.636400
 21
58.324662
  0
LINE
  8
1
  6
CONTINUOUS
 10
17.774112
 20
58.824662
 11
17.774112
 21
58.324662
  0
LINE
  8
1
  6
CONTINUOUS
 10
19.962236
 20
58.824662
 11
19.962236
 21
58.324662
  0
LINE
  8
1
  6
CONTINUOUS
 10
15.636400
 20
58.324662
 11
28.919492
 21
58.324662
  0
LINE
  8
1
  6
CONTINUOUS
 10
25.785045
 20
58.824663
 11
25.785045
 21
58.324662
  0
LINE
  8
1
  6
CONTINUOUS
 10
26.829860
 20
58.824663
 11
26.829860
 21
58.324662
  0
LINE
  8
1
  6
CONTINUOUS
 10
27.874677
 20
58.824663
 11
27.874677
 21
58.324662
  0
LINE
  8
1
  6
CONTINUOUS
 10
21.665048
 20
58.824662
 11
21.665048
 21
58.324662
  0
LINE
  8
1
  6
CONTINUOUS
 10
23.725047
 20
58.324662
 11
23.725047
 21
58.824662
  0
LINE
  8
1
  6
CONTINUOUS
 10
25.785045
 20
58.324662
 11
25.785045
 21
58.824662
  0
LINE
  8
1
  6
CONTINUOUS
 10
28.919492
 20
58.824663
 11
28.919492
 21
58.324662
  0
LINE
  8
1
  6
CONTINUOUS
 10
15.636400
 20
58.324661
 11
15.636400
 21
57.824661
  0
LINE
  8
1
  6
CONTINUOUS
 10
17.774112
 20
58.324661
 11
17.774112
 21
57.824661
  0
LINE
  8
1
  6
CONTINUOUS
 10
19.962236
 20
58.324661
 11
19.962236
 21
57.824661
  0
LINE
  8
1
  6
CONTINUOUS
 10
15.636400
 20
57.824661
 11
28.919492
 21
57.824661
  0
LINE
  8
1
  6
CONTINUOUS
 10
25.785045
 20
58.324662
 11
25.785045
 21
57.824662
  0
LINE
  8
1
  6
CONTINUOUS
 10
26.829860
 20
58.324662
 11
26.829860
 21
57.824662
  0
LINE
  8
1
  6
CONTINUOUS
 10
27.874677
 20
58.324662
 11
27.874677
 21
57.824662
  0
LINE
  8
1
  6
CONTINUOUS
 10
21.665048
 20
58.324662
 11
21.665048
 21
57.824661
  0
LINE
  8
1
  6
CONTINUOUS
 10
23.725047
 20
57.824661
 11
23.725047
 21
58.324662
  0
LINE
  8
1
  6
CONTINUOUS
 10
25.785045
 20
57.824661
 11
25.785045
 21
58.324662
  0
LINE
  8
1
  6
CONTINUOUS
 10
28.919492
 20
58.324662
 11
28.919492
 21
57.824661
  0
LINE
  8
2
  6
CONTINUOUS
 10
101.700000
 20
23.900000
 11
101.700000
 21
23.900000
  0
LINE
  8
2
  6
CONTINUOUS
 10
118.000000
 20
23.900000
 11
118.000000
 21
23.900000
  0
LINE
  8
2
  6
CONTINUOUS
 10
118.000000
 20
23.900000
 11
101.700000
 21
23.900000
  0
LINE
  8
2
  6
CONTINUOUS
 10
118.000000
 20
22.200000
 11
101.700000
 21
22.200000
  0
LINE
  8
2
  6
CONTINUOUS
 10
101.700000
 20
23.900000
 11
101.700000
 21
22.200000
  0
LINE
  8
2
  6
CONTINUOUS
 10
118.000000
 20
22.200000
 11
118.000000
 21
23.900000
  0
POLYLINE
  8
1
  6
CONTINUOUS
 66
     1
  0
VERTEX
  8
1
  6
CONTINUOUS
 10
10.419069
 20
41.678080
  0
VERTEX
  8
1
  6
CONTINUOUS
 10
5.419069
 20
41.678080
  0
SEQEND
  8
1
  6
CONTINUOUS
  0
POLYLINE
  8
1
  6
CONTINUOUS
 66
     1
  0
VERTEX
  8
1
  6
CONTINUOUS
 10
5.419069
 20
41.278080
  0
VERTEX
  8
1
  6
CONTINUOUS
 10
10.419069
 20
41.278080
  0
SEQEND
  8
1
  6
CONTINUOUS
  0
POLYLINE
  8
1
  6
CONTINUOUS
 66
     1
  0
VERTEX
  8
1
  6
CONTINUOUS
 10
26.219069
 20
41.678080
  0
VERTEX
  8
1
  6
CONTINUOUS
 10
11.219069
 20
41.678080
  0
SEQEND
  8
1
  6
CONTINUOUS
  0
POLYLINE
  8
1
  6
ESTILO_TQS_0001
 66
     1
  0
VERTEX
  8
1
  6
ESTILO_TQS_0001
 10
11.219069
 20
41.278080
  0
VERTEX
  8
1
  6
ESTILO_TQS_0001
 10
26.219069
 20
41.278080
  0
SEQEND
  8
1
  6
ESTILO_TQS_0001
  0
POLYLINE
  8
1
  6
CONTINUOUS
 66
     1
  0
VERTEX
  8
1
  6
CONTINUOUS
 10
36.629452
 20
41.678080
  0
VERTEX
  8
1
  6
CONTINUOUS
 10
27.019069
 20
41.678080
  0
SEQEND
  8
1
  6
CONTINUOUS
  0
POLYLINE
  8
1
  6
ESTILO_TQS_0001
 66
     1
  0
VERTEX
  8
1
  6
ESTILO_TQS_0001
 10
27.019069
 20
41.278080
  0
VERTEX
  8
1
  6
ESTILO_TQS_0001
 10
36.429452
 20
41.278080
  0
SEQEND
  8
1
  6
ESTILO_TQS_0001
  0
POLYLINE
  8
1
  6
CONTINUOUS
 66
     1
  0
VERTEX
  8
1
  6
CONTINUOUS
 10
42.219069
 20
41.678080
  0
VERTEX
  8
1
  6
CONTINUOUS
 10
36.629452
 20
41.678080
  0
SEQEND
  8
1
  6
CONTINUOUS
  0
POLYLINE
  8
1
  6
ESTILO_TQS_0001
 66
     1
  0
VERTEX
  8
1
  6
ESTILO_TQS_0001
 10
36.829452
 20
41.278080
  0
VERTEX
  8
1
  6
ESTILO_TQS_0001
 10
42.219069
 20
41.278080
  0
SEQEND
  8
1
  6
ESTILO_TQS_0001
  0
POLYLINE
  8
1
  6
CONTINUOUS
 66
     1
  0
VERTEX
  8
1
  6
CONTINUOUS
 10
58.219069
 20
41.678080
  0
VERTEX
  8
1
  6
CONTINUOUS
 10
43.019069
 20
41.678080
  0
SEQEND
  8
1
  6
CONTINUOUS
  0
POLYLINE
  8
1
  6
ESTILO_TQS_0001
 66
     1
  0
VERTEX
  8
1
  6
ESTILO_TQS_0001
 10
43.019069
 20
41.278080
  0
VERTEX
  8
1
  6
ESTILO_TQS_0001
 10
58.219069
 20
41.278080
  0
SEQEND
  8
1
  6
ESTILO_TQS_0001
  0
POLYLINE
  8
1
  6
CONTINUOUS
 66
     1
  0
VERTEX
  8
1
  6
CONTINUOUS
 10
77.461070
 20
41.678080
  0
VERTEX
  8
1
  6
CONTINUOUS
 10
59.019069
 20
41.678080
  0
SEQEND
  8
1
  6
CONTINUOUS
  0
POLYLINE
  8
1
  6
ESTILO_TQS_0001
 66
     1
  0
VERTEX
  8
1
  6
ESTILO_TQS_0001
 10
59.019069
 20
41.278080
  0
VERTEX
  8
1
  6
ESTILO_TQS_0001
 10
77.461070
 20
41.278080
  0
SEQEND
  8
1
  6
ESTILO_TQS_0001
  0
POLYLINE
  8
1
  6
CONTINUOUS
 66
     1
  0
VERTEX
  8
1
  6
CONTINUOUS
 10
5.419069
 20
41.678080
  0
VERTEX
  8
1
  6
CONTINUOUS
 10
5.419069
 20
41.278080
  0
SEQEND
  8
1
  6
CONTINUOUS
  0
POLYLINE
  8
1
  6
CONTINUOUS
 66
     1
  0
VERTEX
  8
1
  6
CONTINUOUS
 10
10.419069
 20
5.874210
  0
VERTEX
  8
1
  6
CONTINUOUS
 10
5.419069
 20
5.874210
  0
SEQEND
  8
1
  6
CONTINUOUS
  0
POLYLINE
  8
1
  6
CONTINUOUS
 66
     1
  0
VERTEX
  8
1
  6
CONTINUOUS
 10
5.419069
 20
5.474210
  0
VERTEX
  8
1
  6
CONTINUOUS
 10
10.419069
 20
5.474210
  0
SEQEND
  8
1
  6
CONTINUOUS
  0
POLYLINE
  8
1
  6
ESTILO_TQS_0001
 66
     1
  0
VERTEX
  8
1
  6
ESTILO_TQS_0001
 10
26.219069
 20
5.874210
  0
VERTEX
  8
1
  6
ESTILO_TQS_0001
 10
11.219069
 20
5.874210
  0
SEQEND
  8
1
  6
ESTILO_TQS_0001
  0
POLYLINE
  8
1
  6
CONTINUOUS
 66
     1
  0
VERTEX
  8
1
  6
CONTINUOUS
 10
11.219069
 20
5.474210
  0
VERTEX
  8
1
  6
CONTINUOUS
 10
26.219069
 20
5.474210
  0
SEQEND
  8
1
  6
CONTINUOUS
  0
POLYLINE
  8
1
  6
ESTILO_TQS_0001
 66
     1
  0
VERTEX
  8
1
  6
ESTILO_TQS_0001
 10
36.429452
 20
5.874210
  0
VERTEX
  8
1
  6
ESTILO_TQS_0001
 10
27.019069
 20
5.874210
  0
SEQEND
  8
1
  6
ESTILO_TQS_0001
  0
POLYLINE
  8
1
  6
CONTINUOUS
 66
     1
  0
VERTEX
  8
1
  6
CONTINUOUS
 10
27.019069
 20
5.474210
  0
VERTEX
  8
1
  6
CONTINUOUS
 10
36.629452
 20
5.474210
  0
SEQEND
  8
1
  6
CONTINUOUS
  0
POLYLINE
  8
1
  6
ESTILO_TQS_0001
 66
     1
  0
VERTEX
  8
1
  6
ESTILO_TQS_0001
 10
42.219069
 20
5.874210
  0
VERTEX
  8
1
  6
ESTILO_TQS_0001
 10
36.829452
 20
5.874210
  0
SEQEND
  8
1
  6
ESTILO_TQS_0001
  0
POLYLINE
  8
1
  6
CONTINUOUS
 66
     1
  0
VERTEX
  8
1
  6
CONTINUOUS
 10
36.629452
 20
5.474210
  0
VERTEX
  8
1
  6
CONTINUOUS
 10
42.219069
 20
5.474210
  0
SEQEND
  8
1
  6
CONTINUOUS
  0
POLYLINE
  8
1
  6
ESTILO_TQS_0001
 66
     1
  0
VERTEX
  8
1
  6
ESTILO_TQS_0001
 10
58.219069
 20
5.874210
  0
VERTEX
  8
1
  6
ESTILO_TQS_0001
 10
43.019069
 20
5.874210
  0
SEQEND
  8
1
  6
ESTILO_TQS_0001
  0
POLYLINE
  8
1
  6
CONTINUOUS
 66
     1
  0
VERTEX
  8
1
  6
CONTINUOUS
 10
43.019069
 20
5.474210
  0
VERTEX
  8
1
  6
CONTINUOUS
 10
58.219069
 20
5.474210
  0
SEQEND
  8
1
  6
CONTINUOUS
  0
POLYLINE
  8
1
  6
ESTILO_TQS_0001
 66
     1
  0
VERTEX
  8
1
  6
ESTILO_TQS_0001
 10
74.219069
 20
5.874210
  0
VERTEX
  8
1
  6
ESTILO_TQS_0001
 10
59.019069
 20
5.874210
  0
SEQEND
  8
1
  6
ESTILO_TQS_0001
  0
POLYLINE
  8
1
  6
CONTINUOUS
 66
     1
  0
VERTEX
  8
1
  6
CONTINUOUS
 10
59.019069
 20
5.474210
  0
VERTEX
  8
1
  6
CONTINUOUS
 10
74.219069
 20
5.474210
  0
SEQEND
  8
1
  6
CONTINUOUS
  0
POLYLINE
  8
1
  6
CONTINUOUS
 66
     1
  0
VERTEX
  8
1
  6
CONTINUOUS
 10
75.023710
 20
5.874210
  0
VERTEX
  8
1
  6
CONTINUOUS
 10
75.019069
 20
5.874210
  0
SEQEND
  8
1
  6
CONTINUOUS
  0
POLYLINE
  8
1
  6
CONTINUOUS
 66
     1
  0
VERTEX
  8
1
  6
CONTINUOUS
 10
75.019069
 20
5.474210
  0
VERTEX
  8
1
  6
CONTINUOUS
 10
75.223710
 20
5.474210
  0
SEQEND
  8
1
  6
CONTINUOUS
  0
POLYLINE
  8
1
  6
ESTILO_TQS_0001
 66
     1
  0
VERTEX
  8
1
  6
ESTILO_TQS_0001
 10
86.486855
 20
5.874210
  0
VERTEX
  8
1
  6
ESTILO_TQS_0001
 10
75.423710
 20
5.874210
  0
SEQEND
  8
1
  6
ESTILO_TQS_0001
  0
POLYLINE
  8
1
  6
CONTINUOUS
 66
     1
  0
VERTEX
  8
1
  6
CONTINUOUS
 10
75.223710
 20
5.474210
  0
VERTEX
  8
1
  6
CONTINUOUS
 10
86.686855
 20
5.474210
  0
SEQEND
  8
1
  6
CONTINUOUS
  0
POLYLINE
  8
1
  6
ESTILO_TQS_0001
 66
     1
  0
VERTEX
  8
1
  6
ESTILO_TQS_0001
 10
91.376635
 20
5.874210
  0
VERTEX
  8
1
  6
ESTILO_TQS_0001
 10
86.886855
 20
5.874210
  0
SEQEND
  8
1
  6
ESTILO_TQS_0001
  0
POLYLINE
  8
1
  6
CONTINUOUS
 66
     1
  0
VERTEX
  8
1
  6
CONTINUOUS
 10
86.686855
 20
5.474210
  0
VERTEX
  8
1
  6
CONTINUOUS
 10
91.342779
 20
5.474210
  0
SEQEND
  8
1
  6
CONTINUOUS
  0
POLYLINE
  8
1
  6
CONTINUOUS
 66
     1
  0
VERTEX
  8
1
  6
CONTINUOUS
 10
5.419069
 20
5.874210
  0
VERTEX
  8
1
  6
CONTINUOUS
 10
5.419069
 20
5.474210
  0
SEQEND
  8
1
  6
CONTINUOUS
  0
POLYLINE
  8
1
  6
CONTINUOUS
 66
     1
  0
VERTEX
  8
1
  6
CONTINUOUS
 10
10.419069
 20
20.878080
  0
VERTEX
  8
1
  6
CONTINUOUS
 10
10.419069
 20
5.874210
  0
SEQEND
  8
1
  6
CONTINUOUS
  0
POLYLINE
  8
1
  6
ESTILO_TQS_0001
 66
     1
  0
VERTEX
  8
1
  6
ESTILO_TQS_0001
 10
10.819069
 20
5.874210
  0
VERTEX
  8
1
  6
ESTILO_TQS_0001
 10
10.819069
 20
20.878080
  0
SEQEND
  8
1
  6
ESTILO_TQS_0001
  0
POLYLINE
  8
1
  6
CONTINUOUS
 66
     1
  0
VERTEX
  8
1
  6
CONTINUOUS
 10
10.419069
 20
25.678080
  0
VERTEX
  8
1
  6
CONTINUOUS
 10
10.419069
 20
21.678080
  0
SEQEND
  8
1
  6
CONTINUOUS
  0
POLYLINE
  8
1
  6
ESTILO_TQS_0001
 66
     1
  0
VERTEX
  8
1
  6
ESTILO_TQS_0001
 10
10.819069
 20
21.678080
  0
VERTEX
  8
1
  6
ESTILO_TQS_0001
 10
10.819069
 20
25.678080
  0
SEQEND
  8
1
  6
ESTILO_TQS_0001
  0
POLYLINE
  8
1
  6
CONTINUOUS
 66
     1
  0
VERTEX
  8
1
  6
CONTINUOUS
 10
10.419069
 20
41.278080
  0
VERTEX
  8
1
  6
CONTINUOUS
 10
10.419069
 20
26.478080
  0
SEQEND
  8
1
  6
CONTINUOUS
  0
POLYLINE
  8
1
  6
ESTILO_TQS_0001
 66
     1
  0
VERTEX
  8
1
  6
ESTILO_TQS_0001
 10
10.819069
 20
26.478080
  0
VERTEX
  8
1
  6
ESTILO_TQS_0001
 10
10.819069
 20
41.278080
  0
SEQEND
  8
1
  6
ESTILO_TQS_0001
  0
POLYLINE
  8
1
  6
CONTINUOUS
 66
     1
  0
VERTEX
  8
1
  6
CONTINUOUS
 10
82.414186
 20
77.107942
  0
VERTEX
  8
1
  6
CONTINUOUS
 10
78.261066
 20
77.107942
  0
SEQEND
  8
1
  6
CONTINUOUS
  0
POLYLINE
  8
1
  6
CONTINUOUS
 66
     1
  0
VERTEX
  8
1
  6
CONTINUOUS
 10
78.261066
 20
76.707942
  0
VERTEX
  8
1
  6
CONTINUOUS
 10
82.274186
 20
76.707942
  0
SEQEND
  8
1
  6
CONTINUOUS
  0
POLYLINE
  8
1
  6
CONTINUOUS
 66
     1
  0
VERTEX
  8
1
  6
CONTINUOUS
 10
86.564183
 20
77.107942
  0
VERTEX
  8
1
  6
CONTINUOUS
 10
82.414186
 20
77.107942
  0
SEQEND
  8
1
  6
CONTINUOUS
  0
POLYLINE
  8
1
  6
CONTINUOUS
 66
     1
  0
VERTEX
  8
1
  6
CONTINUOUS
 10
82.554186
 20
76.707942
  0
VERTEX
  8
1
  6
CONTINUOUS
 10
86.564183
 20
76.707942
  0
SEQEND
  8
1
  6
CONTINUOUS
  0
POLYLINE
  8
1
  6
CONTINUOUS
 66
     1
  0
VERTEX
  8
1
  6
CONTINUOUS
 10
82.274186
 20
76.707942
  0
VERTEX
  8
1
  6
CONTINUOUS
 10
82.274186
 20
72.807943
  0
SEQEND
  8
1
  6
CONTINUOUS
  0
POLYLINE
  8
1
  6
CONTINUOUS
 66
     1
  0
VERTEX
  8
1
  6
CONTINUOUS
 10
82.554186
 20
72.807943
  0
VERTEX
  8
1
  6
CONTINUOUS
 10
82.554186
 20
76.707942
  0
SEQEND
  8
1
  6
CONTINUOUS
  0
POLYLINE
  8
1
  6
CONTINUOUS
 66
     1
  0
VERTEX
  8
1
  6
CONTINUOUS
 10
82.274186
 20
72.807943
  0
VERTEX
  8
1
  6
CONTINUOUS
 10
78.261066
 20
72.807943
  0
SEQEND
  8
1
  6
CONTINUOUS
  0
POLYLINE
  8
1
  6
CONTINUOUS
 66
     1
  0
VERTEX
  8
1
  6
CONTINUOUS
 10
78.261070
 20
72.407943
  0
VERTEX
  8
1
  6
CONTINUOUS
 10
82.414186
 20
72.407943
  0
SEQEND
  8
1
  6
CONTINUOUS
  0
POLYLINE
  8
1
  6
CONTINUOUS
 66
     1
  0
VERTEX
  8
1
  6
CONTINUOUS
 10
86.564183
 20
72.807943
  0
VERTEX
  8
1
  6
CONTINUOUS
 10
82.554186
 20
72.807943
  0
SEQEND
  8
1
  6
CONTINUOUS
  0
POLYLINE
  8
1
  6
CONTINUOUS
 66
     1
  0
VERTEX
  8
1
  6
CONTINUOUS
 10
82.414186
 20
72.407943
  0
VERTEX
  8
1
  6
CONTINUOUS
 10
86.564183
 20
72.407943
  0
SEQEND
  8
1
  6
CONTINUOUS
  0
POLYLINE
  8
1
  6
CONTINUOUS
 66
     1
  0
VERTEX
  8
1
  6
CONTINUOUS
 10
86.564187
 20
72.407942
  0
VERTEX
  8
1
  6
CONTINUOUS
 10
86.564187
 20
67.007109
  0
SEQEND
  8
1
  6
CONTINUOUS
  0
POLYLINE
  8
1
  6
CONTINUOUS
 66
     1
  0
VERTEX
  8
1
  6
CONTINUOUS
 10
86.964187
 20
67.407109
  0
VERTEX
  8
1
  6
CONTINUOUS
 10
86.964187
 20
72.407942
  0
SEQEND
  8
1
  6
CONTINUOUS
  0
POLYLINE
  8
1
  6
CONTINUOUS
 66
     1
  0
VERTEX
  8
1
  6
CONTINUOUS
 10
77.861070
 20
50.768075
  0
VERTEX
  8
1
  6
CONTINUOUS
 10
77.861070
 20
41.678080
  0
SEQEND
  8
1
  6
CONTINUOUS
  0
POLYLINE
  8
1
  6
CONTINUOUS
 66
     1
  0
VERTEX
  8
1
  6
CONTINUOUS
 10
78.261070
 20
41.678080
  0
VERTEX
  8
1
  6
CONTINUOUS
 10
78.261070
 20
50.768070
  0
SEQEND
  8
1
  6
CONTINUOUS
  0
POLYLINE
  8
1
  6
CONTINUOUS
 66
     1
  0
VERTEX
  8
1
  6
CONTINUOUS
 10
77.861070
 20
58.108070
  0
VERTEX
  8
1
  6
CONTINUOUS
 10
77.861070
 20
51.568075
  0
SEQEND
  8
1
  6
CONTINUOUS
  0
POLYLINE
  8
1
  6
CONTINUOUS
 66
     1
  0
VERTEX
  8
1
  6
CONTINUOUS
 10
78.261070
 20
51.568075
  0
VERTEX
  8
1
  6
CONTINUOUS
 10
78.261070
 20
58.108070
  0
SEQEND
  8
1
  6
CONTINUOUS
  0
POLYLINE
  8
1
  6
CONTINUOUS
 66
     1
  0
VERTEX
  8
1
  6
CONTINUOUS
 10
77.861070
 20
72.407942
  0
VERTEX
  8
1
  6
CONTINUOUS
 10
77.861070
 20
62.708070
  0
SEQEND
  8
1
  6
CONTINUOUS
  0
POLYLINE
  8
1
  6
CONTINUOUS
 66
     1
  0
VERTEX
  8
1
  6
CONTINUOUS
 10
78.261070
 20
62.708070
  0
VERTEX
  8
1
  6
CONTINUOUS
 10
78.261070
 20
72.407942
  0
SEQEND
  8
1
  6
CONTINUOUS
  0
POLYLINE
  8
1
  6
CONTINUOUS
 66
     1
  0
VERTEX
  8
1
  6
CONTINUOUS
 10
81.761066
 20
58.508070
  0
VERTEX
  8
1
  6
CONTINUOUS
 10
78.261066
 20
58.508070
  0
SEQEND
  8
1
  6
CONTINUOUS
  0
POLYLINE
  8
1
  6
CONTINUOUS
 66
     1
  0
VERTEX
  8
1
  6
CONTINUOUS
 10
78.261070
 20
58.108070
  0
VERTEX
  8
1
  6
CONTINUOUS
 10
81.761066
 20
58.108070
  0
SEQEND
  8
1
  6
CONTINUOUS
  0
POLYLINE
  8
1
  6
CONTINUOUS
 66
     1
  0
VERTEX
  8
1
  6
CONTINUOUS
 10
85.751070
 20
58.508070
  0
VERTEX
  8
1
  6
CONTINUOUS
 10
82.561459
 20
58.508070
  0
SEQEND
  8
1
  6
CONTINUOUS
  0
POLYLINE
  8
1
  6
CONTINUOUS
 66
     1
  0
VERTEX
  8
1
  6
CONTINUOUS
 10
82.561066
 20
58.108070
  0
VERTEX
  8
1
  6
CONTINUOUS
 10
85.751070
 20
58.108070
  0
SEQEND
  8
1
  6
CONTINUOUS
  0
POLYLINE
  8
1
  6
CONTINUOUS
 66
     1
  0
VERTEX
  8
1
  6
CONTINUOUS
 10
85.751070
 20
58.108070
  0
VERTEX
  8
1
  6
CONTINUOUS
 10
85.751070
 20
58.508070
  0
SEQEND
  8
1
  6
CONTINUOUS
  0
POLYLINE
  8
1
  6
CONTINUOUS
 66
     1
  0
VERTEX
  8
1
  6
CONTINUOUS
 10
82.161459
 20
62.308075
  0
VERTEX
  8
1
  6
CONTINUOUS
 10
82.161459
 20
58.508075
  0
SEQEND
  8
1
  6
CONTINUOUS
  0
POLYLINE
  8
1
  6
CONTINUOUS
 66
     1
  0
VERTEX
  8
1
  6
CONTINUOUS
 10
82.561459
 20
58.508075
  0
VERTEX
  8
1
  6
CONTINUOUS
 10
82.561459
 20
62.308070
  0
SEQEND
  8
1
  6
CONTINUOUS
  0
POLYLINE
  8
1
  6
CONTINUOUS
 66
     1
  0
VERTEX
  8
1
  6
CONTINUOUS
 10
81.761066
 20
62.708070
  0
VERTEX
  8
1
  6
CONTINUOUS
 10
78.261070
 20
62.708070
  0
SEQEND
  8
1
  6
CONTINUOUS
  0
POLYLINE
  8
1
  6
CONTINUOUS
 66
     1
  0
VERTEX
  8
1
  6
CONTINUOUS
 10
78.261066
 20
62.308070
  0
VERTEX
  8
1
  6
CONTINUOUS
 10
81.761066
 20
62.308070
  0
SEQEND
  8
1
  6
CONTINUOUS
  0
POLYLINE
  8
1
  6
CONTINUOUS
 66
     1
  0
VERTEX
  8
1
  6
CONTINUOUS
 10
85.751070
 20
62.708070
  0
VERTEX
  8
1
  6
CONTINUOUS
 10
82.561066
 20
62.708070
  0
SEQEND
  8
1
  6
CONTINUOUS
  0
POLYLINE
  8
1
  6
CONTINUOUS
 66
     1
  0
VERTEX
  8
1
  6
CONTINUOUS
 10
82.561459
 20
62.308070
  0
VERTEX
  8
1
  6
CONTINUOUS
 10
85.751070
 20
62.308070
  0
SEQEND
  8
1
  6
CONTINUOUS
  0
POLYLINE
  8
1
  6
CONTINUOUS
 66
     1
  0
VERTEX
  8
1
  6
CONTINUOUS
 10
85.751070
 20
56.338070
  0
VERTEX
  8
1
  6
CONTINUOUS
 10
85.751070
 20
51.568070
  0
SEQEND
  8
1
  6
CONTINUOUS
  0
POLYLINE
  8
1
  6
CONTINUOUS
 66
     1
  0
VERTEX
  8
1
  6
CONTINUOUS
 10
86.151070
 20
51.568070
  0
VERTEX
  8
1
  6
CONTINUOUS
 10
86.151070
 20
56.338070
  0
SEQEND
  8
1
  6
CONTINUOUS
  0
POLYLINE
  8
1
  6
CONTINUOUS
 66
     1
  0
VERTEX
  8
1
  6
CONTINUOUS
 10
85.751070
 20
58.108070
  0
VERTEX
  8
1
  6
CONTINUOUS
 10
85.751070
 20
57.138070
  0
SEQEND
  8
1
  6
CONTINUOUS
  0
POLYLINE
  8
1
  6
CONTINUOUS
 66
     1
  0
VERTEX
  8
1
  6
CONTINUOUS
 10
86.151070
 20
57.138070
  0
VERTEX
  8
1
  6
CONTINUOUS
 10
86.151070
 20
58.308070
  0
SEQEND
  8
1
  6
CONTINUOUS
  0
POLYLINE
  8
1
  6
CONTINUOUS
 66
     1
  0
VERTEX
  8
1
  6
CONTINUOUS
 10
85.751070
 20
61.908070
  0
VERTEX
  8
1
  6
CONTINUOUS
 10
85.751070
 20
58.508070
  0
SEQEND
  8
1
  6
CONTINUOUS
  0
POLYLINE
  8
1
  6
CONTINUOUS
 66
     1
  0
VERTEX
  8
1
  6
CONTINUOUS
 10
86.151070
 20
58.308070
  0
VERTEX
  8
1
  6
CONTINUOUS
 10
86.151070
 20
61.908070
  0
SEQEND
  8
1
  6
CONTINUOUS
  0
POLYLINE
  8
1
  6
CONTINUOUS
 66
     1
  0
VERTEX
  8
1
  6
CONTINUOUS
 10
85.751070
 20
51.168070
  0
VERTEX
  8
1
  6
CONTINUOUS
 10
78.261066
 20
51.168070
  0
SEQEND
  8
1
  6
CONTINUOUS
  0
POLYLINE
  8
1
  6
CONTINUOUS
 66
     1
  0
VERTEX
  8
1
  6
CONTINUOUS
 10
78.261070
 20
50.768070
  0
VERTEX
  8
1
  6
CONTINUOUS
 10
85.751070
 20
50.768070
  0
SEQEND
  8
1
  6
CONTINUOUS
  0
POLYLINE
  8
1
  6
ESTILO_TQS_0001
 66
     1
  0
VERTEX
  8
1
  6
ESTILO_TQS_0001
 10
92.337434
 20
17.223085
  0
VERTEX
  8
1
  6
ESTILO_TQS_0001
 10
91.385853
 20
5.983177
  0
SEQEND
  8
1
  6
ESTILO_TQS_0001
  0
POLYLINE
  8
1
  6
CONTINUOUS
 66
     1
  0
VERTEX
  8
1
  6
CONTINUOUS
 10
91.983716
 20
5.932574
  0
VERTEX
  8
1
  6
CONTINUOUS
 10
92.935296
 20
17.172482
  0
SEQEND
  8
1
  6
CONTINUOUS
  0
POLYLINE
  8
1
  6
ESTILO_TQS_0001
 66
     1
  0
VERTEX
  8
1
  6
ESTILO_TQS_0001
 10
93.377560
 20
29.508877
  0
VERTEX
  8
1
  6
ESTILO_TQS_0001
 10
92.421793
 20
18.219521
  0
SEQEND
  8
1
  6
ESTILO_TQS_0001
  0
POLYLINE
  8
1
  6
CONTINUOUS
 66
     1
  0
VERTEX
  8
1
  6
CONTINUOUS
 10
93.019655
 20
18.168918
  0
VERTEX
  8
1
  6
CONTINUOUS
 10
93.975422
 20
29.458274
  0
SEQEND
  8
1
  6
CONTINUOUS
  0
POLYLINE
  8
1
  6
ESTILO_TQS_0001
 66
     1
  0
VERTEX
  8
1
  6
ESTILO_TQS_0001
 10
93.848437
 20
35.070793
  0
VERTEX
  8
1
  6
ESTILO_TQS_0001
 10
93.461919
 20
30.505312
  0
SEQEND
  8
1
  6
ESTILO_TQS_0001
  0
POLYLINE
  8
1
  6
CONTINUOUS
 66
     1
  0
VERTEX
  8
1
  6
CONTINUOUS
 10
94.059781
 20
30.454709
  0
VERTEX
  8
1
  6
CONTINUOUS
 10
94.465373
 20
35.245485
  0
SEQEND
  8
1
  6
CONTINUOUS
  0
POLYLINE
  8
1
  6
ESTILO_TQS_0001
 66
     1
  0
VERTEX
  8
1
  6
ESTILO_TQS_0001
 10
94.369820
 20
41.229285
  0
VERTEX
  8
1
  6
ESTILO_TQS_0001
 10
93.882301
 20
35.470793
  0
SEQEND
  8
1
  6
ESTILO_TQS_0001
  0
POLYLINE
  8
1
  6
CONTINUOUS
 66
     1
  0
VERTEX
  8
1
  6
CONTINUOUS
 10
94.465373
 20
35.245485
  0
VERTEX
  8
1
  6
CONTINUOUS
 10
94.967682
 20
41.178682
  0
SEQEND
  8
1
  6
CONTINUOUS
  0
POLYLINE
  8
1
  6
CONTINUOUS
 66
     1
  0
VERTEX
  8
1
  6
CONTINUOUS
 10
95.317820
 20
52.426905
  0
VERTEX
  8
1
  6
CONTINUOUS
 10
94.420435
 20
41.827146
  0
SEQEND
  8
1
  6
CONTINUOUS
  0
POLYLINE
  8
1
  6
CONTINUOUS
 66
     1
  0
VERTEX
  8
1
  6
CONTINUOUS
 10
95.018298
 20
41.776543
  0
VERTEX
  8
1
  6
CONTINUOUS
 10
95.915683
 20
52.376302
  0
SEQEND
  8
1
  6
CONTINUOUS
  0
POLYLINE
  8
1
  6
CONTINUOUS
 66
     1
  0
VERTEX
  8
1
  6
CONTINUOUS
 10
95.917668
 20
59.512207
  0
VERTEX
  8
1
  6
CONTINUOUS
 10
95.368436
 20
53.024767
  0
SEQEND
  8
1
  6
CONTINUOUS
  0
POLYLINE
  8
1
  6
CONTINUOUS
 66
     1
  0
VERTEX
  8
1
  6
CONTINUOUS
 10
95.966298
 20
52.974163
  0
VERTEX
  8
1
  6
CONTINUOUS
 10
96.534604
 20
59.686900
  0
SEQEND
  8
1
  6
CONTINUOUS
  0
POLYLINE
  8
1
  6
CONTINUOUS
 66
     1
  0
VERTEX
  8
1
  6
CONTINUOUS
 10
96.081270
 20
61.444646
  0
VERTEX
  8
1
  6
CONTINUOUS
 10
95.951533
 20
59.912207
  0
SEQEND
  8
1
  6
CONTINUOUS
  0
POLYLINE
  8
1
  6
CONTINUOUS
 66
     1
  0
VERTEX
  8
1
  6
CONTINUOUS
 10
96.534604
 20
59.686900
  0
VERTEX
  8
1
  6
CONTINUOUS
 10
96.679133
 20
61.394043
  0
SEQEND
  8
1
  6
CONTINUOUS
  0
POLYLINE
  8
1
  6
CONTINUOUS
 66
     1
  0
VERTEX
  8
1
  6
CONTINUOUS
 10
96.535299
 20
66.807560
  0
VERTEX
  8
1
  6
CONTINUOUS
 10
96.131886
 20
62.042508
  0
SEQEND
  8
1
  6
CONTINUOUS
  0
POLYLINE
  8
1
  6
CONTINUOUS
 66
     1
  0
VERTEX
  8
1
  6
CONTINUOUS
 10
96.729748
 20
61.991904
  0
VERTEX
  8
1
  6
CONTINUOUS
 10
97.133162
 20
66.756957
  0
SEQEND
  8
1
  6
CONTINUOUS
  0
POLYLINE
  8
1
  6
CONTINUOUS
 66
     1
  0
VERTEX
  8
1
  6
CONTINUOUS
 10
89.361065
 20
67.407109
  0
VERTEX
  8
1
  6
CONTINUOUS
 10
86.964187
 20
67.407109
  0
SEQEND
  8
1
  6
CONTINUOUS
  0
POLYLINE
  8
1
  6
CONTINUOUS
 66
     1
  0
VERTEX
  8
1
  6
CONTINUOUS
 10
86.564187
 20
67.007109
  0
VERTEX
  8
1
  6
CONTINUOUS
 10
89.161065
 20
67.007109
  0
SEQEND
  8
1
  6
CONTINUOUS
  0
POLYLINE
  8
1
  6
CONTINUOUS
 66
     1
  0
VERTEX
  8
1
  6
CONTINUOUS
 10
89.674615
 20
67.407109
  0
VERTEX
  8
1
  6
CONTINUOUS
 10
89.361065
 20
67.407109
  0
SEQEND
  8
1
  6
CONTINUOUS
  0
POLYLINE
  8
1
  6
CONTINUOUS
 66
     1
  0
VERTEX
  8
1
  6
CONTINUOUS
 10
89.561065
 20
67.007109
  0
VERTEX
  8
1
  6
CONTINUOUS
 10
89.674615
 20
67.007109
  0
SEQEND
  8
1
  6
CONTINUOUS
  0
POLYLINE
  8
1
  6
CONTINUOUS
 66
     1
  0
VERTEX
  8
1
  6
CONTINUOUS
 10
96.586017
 20
67.407109
  0
VERTEX
  8
1
  6
CONTINUOUS
 10
90.534615
 20
67.407109
  0
SEQEND
  8
1
  6
CONTINUOUS
  0
POLYLINE
  8
1
  6
CONTINUOUS
 66
     1
  0
VERTEX
  8
1
  6
CONTINUOUS
 10
90.534615
 20
67.007109
  0
VERTEX
  8
1
  6
CONTINUOUS
 10
96.552161
 20
67.007109
  0
SEQEND
  8
1
  6
CONTINUOUS
  0
POLYLINE
  8
1
  6
CONTINUOUS
 66
     1
  0
VERTEX
  8
1
  6
CONTINUOUS
 10
89.161065
 20
51.212265
  0
VERTEX
  8
1
  6
CONTINUOUS
 10
89.161065
 20
41.678080
  0
SEQEND
  8
1
  6
CONTINUOUS
  0
POLYLINE
  8
1
  6
CONTINUOUS
 66
     1
  0
VERTEX
  8
1
  6
CONTINUOUS
 10
89.561065
 20
41.678080
  0
VERTEX
  8
1
  6
CONTINUOUS
 10
89.561065
 20
51.212265
  0
SEQEND
  8
1
  6
CONTINUOUS
  0
POLYLINE
  8
1
  6
CONTINUOUS
 66
     1
  0
VERTEX
  8
1
  6
CONTINUOUS
 10
89.161065
 20
59.512203
  0
VERTEX
  8
1
  6
CONTINUOUS
 10
89.161065
 20
51.612265
  0
SEQEND
  8
1
  6
CONTINUOUS
  0
POLYLINE
  8
1
  6
CONTINUOUS
 66
     1
  0
VERTEX
  8
1
  6
CONTINUOUS
 10
89.561065
 20
51.612265
  0
VERTEX
  8
1
  6
CONTINUOUS
 10
89.561065
 20
59.512203
  0
SEQEND
  8
1
  6
CONTINUOUS
  0
POLYLINE
  8
1
  6
CONTINUOUS
 66
     1
  0
VERTEX
  8
1
  6
CONTINUOUS
 10
89.161065
 20
67.007109
  0
VERTEX
  8
1
  6
CONTINUOUS
 10
89.161065
 20
59.912203
  0
SEQEND
  8
1
  6
CONTINUOUS
  0
POLYLINE
  8
1
  6
CONTINUOUS
 66
     1
  0
VERTEX
  8
1
  6
CONTINUOUS
 10
89.561065
 20
59.912207
  0
VERTEX
  8
1
  6
CONTINUOUS
 10
89.561065
 20
67.007109
  0
SEQEND
  8
1
  6
CONTINUOUS
  0
POLYLINE
  8
1
  6
CONTINUOUS
 66
     1
  0
VERTEX
  8
1
  6
CONTINUOUS
 10
90.254615
 20
59.912207
  0
VERTEX
  8
1
  6
CONTINUOUS
 10
89.561065
 20
59.912207
  0
SEQEND
  8
1
  6
CONTINUOUS
  0
POLYLINE
  8
1
  6
CONTINUOUS
 66
     1
  0
VERTEX
  8
1
  6
CONTINUOUS
 10
89.561065
 20
59.512207
  0
VERTEX
  8
1
  6
CONTINUOUS
 10
90.394615
 20
59.512207
  0
SEQEND
  8
1
  6
CONTINUOUS
  0
POLYLINE
  8
1
  6
CONTINUOUS
 66
     1
  0
VERTEX
  8
1
  6
CONTINUOUS
 10
95.951533
 20
59.912207
  0
VERTEX
  8
1
  6
CONTINUOUS
 10
90.534615
 20
59.912207
  0
SEQEND
  8
1
  6
CONTINUOUS
  0
POLYLINE
  8
1
  6
CONTINUOUS
 66
     1
  0
VERTEX
  8
1
  6
CONTINUOUS
 10
90.394615
 20
59.512207
  0
VERTEX
  8
1
  6
CONTINUOUS
 10
95.917668
 20
59.512207
  0
SEQEND
  8
1
  6
CONTINUOUS
  0
POLYLINE
  8
1
  6
CONTINUOUS
 66
     1
  0
VERTEX
  8
1
  6
CONTINUOUS
 10
90.254615
 20
67.007109
  0
VERTEX
  8
1
  6
CONTINUOUS
 10
90.254615
 20
59.912207
  0
SEQEND
  8
1
  6
CONTINUOUS
  0
POLYLINE
  8
1
  6
CONTINUOUS
 66
     1
  0
VERTEX
  8
1
  6
CONTINUOUS
 10
90.534615
 20
59.912207
  0
VERTEX
  8
1
  6
CONTINUOUS
 10
90.534615
 20
67.007109
  0
SEQEND
  8
1
  6
CONTINUOUS
  0
POLYLINE
  8
1
  6
ESTILO_TQS_0001
 66
     1
  0
VERTEX
  8
1
  6
ESTILO_TQS_0001
 10
36.429452
 20
16.585627
  0
VERTEX
  8
1
  6
ESTILO_TQS_0001
 10
36.429452
 20
5.874210
  0
SEQEND
  8
1
  6
ESTILO_TQS_0001
  0
POLYLINE
  8
1
  6
ESTILO_TQS_0001
 66
     1
  0
VERTEX
  8
1
  6
ESTILO_TQS_0001
 10
36.829452
 20
5.874210
  0
VERTEX
  8
1
  6
ESTILO_TQS_0001
 10
36.829452
 20
16.585627
  0
SEQEND
  8
1
  6
ESTILO_TQS_0001
  0
POLYLINE
  8
1
  6
ESTILO_TQS_0001
 66
     1
  0
VERTEX
  8
1
  6
ESTILO_TQS_0001
 10
36.429452
 20
25.828210
  0
VERTEX
  8
1
  6
ESTILO_TQS_0001
 10
36.429452
 20
16.985627
  0
SEQEND
  8
1
  6
ESTILO_TQS_0001
  0
POLYLINE
  8
1
  6
ESTILO_TQS_0001
 66
     1
  0
VERTEX
  8
1
  6
ESTILO_TQS_0001
 10
36.829452
 20
16.985627
  0
VERTEX
  8
1
  6
ESTILO_TQS_0001
 10
36.829452
 20
25.828210
  0
SEQEND
  8
1
  6
ESTILO_TQS_0001
  0
POLYLINE
  8
1
  6
ESTILO_TQS_0001
 66
     1
  0
VERTEX
  8
1
  6
ESTILO_TQS_0001
 10
36.429452
 20
35.070793
  0
VERTEX
  8
1
  6
ESTILO_TQS_0001
 10
36.429452
 20
26.228210
  0
SEQEND
  8
1
  6
ESTILO_TQS_0001
  0
POLYLINE
  8
1
  6
ESTILO_TQS_0001
 66
     1
  0
VERTEX
  8
1
  6
ESTILO_TQS_0001
 10
36.829452
 20
26.228210
  0
VERTEX
  8
1
  6
ESTILO_TQS_0001
 10
36.829452
 20
35.070793
  0
SEQEND
  8
1
  6
ESTILO_TQS_0001
  0
POLYLINE
  8
1
  6
ESTILO_TQS_0001
 66
     1
  0
VERTEX
  8
1
  6
ESTILO_TQS_0001
 10
36.429452
 20
41.278080
  0
VERTEX
  8
1
  6
ESTILO_TQS_0001
 10
36.429452
 20
35.470793
  0
SEQEND
  8
1
  6
ESTILO_TQS_0001
  0
POLYLINE
  8
1
  6
ESTILO_TQS_0001
 66
     1
  0
VERTEX
  8
1
  6
ESTILO_TQS_0001
 10
36.829452
 20
35.470793
  0
VERTEX
  8
1
  6
ESTILO_TQS_0001
 10
36.829452
 20
41.278080
  0
SEQEND
  8
1
  6
ESTILO_TQS_0001
  0
POLYLINE
  8
1
  6
ESTILO_TQS_0001
 66
     1
  0
VERTEX
  8
1
  6
ESTILO_TQS_0001
 10
49.029452
 20
35.470793
  0
VERTEX
  8
1
  6
ESTILO_TQS_0001
 10
36.829452
 20
35.470793
  0
SEQEND
  8
1
  6
ESTILO_TQS_0001
  0
POLYLINE
  8
1
  6
ESTILO_TQS_0001
 66
     1
  0
VERTEX
  8
1
  6
ESTILO_TQS_0001
 10
36.829452
 20
35.070793
  0
VERTEX
  8
1
  6
ESTILO_TQS_0001
 10
49.029452
 20
35.070793
  0
SEQEND
  8
1
  6
ESTILO_TQS_0001
  0
POLYLINE
  8
1
  6
ESTILO_TQS_0001
 66
     1
  0
VERTEX
  8
1
  6
ESTILO_TQS_0001
 10
61.723710
 20
35.470793
  0
VERTEX
  8
1
  6
ESTILO_TQS_0001
 10
49.429452
 20
35.470793
  0
SEQEND
  8
1
  6
ESTILO_TQS_0001
  0
POLYLINE
  8
1
  6
ESTILO_TQS_0001
 66
     1
  0
VERTEX
  8
1
  6
ESTILO_TQS_0001
 10
49.471581
 20
35.070793
  0
VERTEX
  8
1
  6
ESTILO_TQS_0001
 10
61.723710
 20
35.070793
  0
SEQEND
  8
1
  6
ESTILO_TQS_0001
  0
POLYLINE
  8
1
  6
ESTILO_TQS_0001
 66
     1
  0
VERTEX
  8
1
  6
ESTILO_TQS_0001
 10
75.013327
 20
35.470793
  0
VERTEX
  8
1
  6
ESTILO_TQS_0001
 10
62.123710
 20
35.470793
  0
SEQEND
  8
1
  6
ESTILO_TQS_0001
  0
POLYLINE
  8
1
  6
ESTILO_TQS_0001
 66
     1
  0
VERTEX
  8
1
  6
ESTILO_TQS_0001
 10
62.123710
 20
35.070793
  0
VERTEX
  8
1
  6
ESTILO_TQS_0001
 10
75.013327
 20
35.070793
  0
SEQEND
  8
1
  6
ESTILO_TQS_0001
  0
POLYLINE
  8
1
  6
ESTILO_TQS_0001
 66
     1
  0
VERTEX
  8
1
  6
ESTILO_TQS_0001
 10
85.761065
 20
35.470793
  0
VERTEX
  8
1
  6
ESTILO_TQS_0001
 10
75.413327
 20
35.470793
  0
SEQEND
  8
1
  6
ESTILO_TQS_0001
  0
POLYLINE
  8
1
  6
ESTILO_TQS_0001
 66
     1
  0
VERTEX
  8
1
  6
ESTILO_TQS_0001
 10
75.423710
 20
35.070793
  0
VERTEX
  8
1
  6
ESTILO_TQS_0001
 10
85.761065
 20
35.070793
  0
SEQEND
  8
1
  6
ESTILO_TQS_0001
  0
POLYLINE
  8
1
  6
ESTILO_TQS_0001
 66
     1
  0
VERTEX
  8
1
  6
ESTILO_TQS_0001
 10
86.686855
 20
35.470793
  0
VERTEX
  8
1
  6
ESTILO_TQS_0001
 10
86.161065
 20
35.470793
  0
SEQEND
  8
1
  6
ESTILO_TQS_0001
  0
POLYLINE
  8
1
  6
ESTILO_TQS_0001
 66
     1
  0
VERTEX
  8
1
  6
ESTILO_TQS_0001
 10
86.161065
 20
35.070793
  0
VERTEX
  8
1
  6
ESTILO_TQS_0001
 10
86.486855
 20
35.070793
  0
SEQEND
  8
1
  6
ESTILO_TQS_0001
  0
POLYLINE
  8
1
  6
ESTILO_TQS_0001
 66
     1
  0
VERTEX
  8
1
  6
ESTILO_TQS_0001
 10
93.882301
 20
35.470793
  0
VERTEX
  8
1
  6
ESTILO_TQS_0001
 10
86.686855
 20
35.470793
  0
SEQEND
  8
1
  6
ESTILO_TQS_0001
  0
POLYLINE
  8
1
  6
ESTILO_TQS_0001
 66
     1
  0
VERTEX
  8
1
  6
ESTILO_TQS_0001
 10
86.886855
 20
35.070793
  0
VERTEX
  8
1
  6
ESTILO_TQS_0001
 10
93.848437
 20
35.070793
  0
SEQEND
  8
1
  6
ESTILO_TQS_0001
  0
POLYLINE
  8
1
  6
ESTILO_TQS_0001
 66
     1
  0
VERTEX
  8
1
  6
ESTILO_TQS_0001
 10
75.023710
 20
11.885627
  0
VERTEX
  8
1
  6
ESTILO_TQS_0001
 10
75.023710
 20
5.874210
  0
SEQEND
  8
1
  6
ESTILO_TQS_0001
  0
POLYLINE
  8
1
  6
ESTILO_TQS_0001
 66
     1
  0
VERTEX
  8
1
  6
ESTILO_TQS_0001
 10
75.423710
 20
5.874210
  0
VERTEX
  8
1
  6
ESTILO_TQS_0001
 10
75.423710
 20
11.885627
  0
SEQEND
  8
1
  6
ESTILO_TQS_0001
  0
POLYLINE
  8
1
  6
ESTILO_TQS_0001
 66
     1
  0
VERTEX
  8
1
  6
ESTILO_TQS_0001
 10
75.023710
 20
16.585627
  0
VERTEX
  8
1
  6
ESTILO_TQS_0001
 10
75.023710
 20
12.285627
  0
SEQEND
  8
1
  6
ESTILO_TQS_0001
  0
POLYLINE
  8
1
  6
ESTILO_TQS_0001
 66
     1
  0
VERTEX
  8
1
  6
ESTILO_TQS_0001
 10
75.423710
 20
12.285627
  0
VERTEX
  8
1
  6
ESTILO_TQS_0001
 10
75.423710
 20
16.785627
  0
SEQEND
  8
1
  6
ESTILO_TQS_0001
  0
POLYLINE
  8
1
  6
ESTILO_TQS_0001
 66
     1
  0
VERTEX
  8
1
  6
ESTILO_TQS_0001
 10
75.023710
 20
19.285627
  0
VERTEX
  8
1
  6
ESTILO_TQS_0001
 10
75.023710
 20
16.985627
  0
SEQEND
  8
1
  6
ESTILO_TQS_0001
  0
POLYLINE
  8
1
  6
ESTILO_TQS_0001
 66
     1
  0
VERTEX
  8
1
  6
ESTILO_TQS_0001
 10
75.423710
 20
16.785627
  0
VERTEX
  8
1
  6
ESTILO_TQS_0001
 10
75.423710
 20
19.285627
  0
SEQEND
  8
1
  6
ESTILO_TQS_0001
  0
POLYLINE
  8
1
  6
ESTILO_TQS_0001
 66
     1
  0
VERTEX
  8
1
  6
ESTILO_TQS_0001
 10
75.023710
 20
28.465627
  0
VERTEX
  8
1
  6
ESTILO_TQS_0001
 10
75.023710
 20
19.685627
  0
SEQEND
  8
1
  6
ESTILO_TQS_0001
  0
POLYLINE
  8
1
  6
ESTILO_TQS_0001
 66
     1
  0
VERTEX
  8
1
  6
ESTILO_TQS_0001
 10
75.423710
 20
19.685627
  0
VERTEX
  8
1
  6
ESTILO_TQS_0001
 10
75.423710
 20
28.465627
  0
SEQEND
  8
1
  6
ESTILO_TQS_0001
  0
POLYLINE
  8
1
  6
ESTILO_TQS_0001
 66
     1
  0
VERTEX
  8
1
  6
ESTILO_TQS_0001
 10
75.023710
 20
35.070793
  0
VERTEX
  8
1
  6
ESTILO_TQS_0001
 10
75.023710
 20
28.865627
  0
SEQEND
  8
1
  6
ESTILO_TQS_0001
  0
POLYLINE
  8
1
  6
ESTILO_TQS_0001
 66
     1
  0
VERTEX
  8
1
  6
ESTILO_TQS_0001
 10
75.423710
 20
28.865627
  0
VERTEX
  8
1
  6
ESTILO_TQS_0001
 10
75.423710
 20
35.070793
  0
SEQEND
  8
1
  6
ESTILO_TQS_0001
  0
POLYLINE
  8
1
  6
CONTINUOUS
 66
     1
  0
VERTEX
  8
1
  6
CONTINUOUS
 10
75.423710
 20
5.874210
  0
VERTEX
  8
1
  6
CONTINUOUS
 10
75.023710
 20
5.874210
  0
SEQEND
  8
1
  6
CONTINUOUS
  0
POLYLINE
  8
1
  6
CONTINUOUS
 66
     1
  0
VERTEX
  8
1
  6
CONTINUOUS
 10
75.413327
 20
35.070793
  0
VERTEX
  8
1
  6
CONTINUOUS
 10
75.423710
 20
35.070793
  0
SEQEND
  8
1
  6
CONTINUOUS
  0
POLYLINE
  8
1
  6
ESTILO_TQS_0001
 66
     1
  0
VERTEX
  8
1
  6
ESTILO_TQS_0001
 10
86.486855
 20
11.885627
  0
VERTEX
  8
1
  6
ESTILO_TQS_0001
 10
86.486855
 20
5.874210
  0
SEQEND
  8
1
  6
ESTILO_TQS_0001
  0
POLYLINE
  8
1
  6
ESTILO_TQS_0001
 66
     1
  0
VERTEX
  8
1
  6
ESTILO_TQS_0001
 10
86.886855
 20
5.874210
  0
VERTEX
  8
1
  6
ESTILO_TQS_0001
 10
86.886855
 20
11.885627
  0
SEQEND
  8
1
  6
ESTILO_TQS_0001
  0
POLYLINE
  8
1
  6
ESTILO_TQS_0001
 66
     1
  0
VERTEX
  8
1
  6
ESTILO_TQS_0001
 10
86.486855
 20
23.478210
  0
VERTEX
  8
1
  6
ESTILO_TQS_0001
 10
86.486855
 20
12.285627
  0
SEQEND
  8
1
  6
ESTILO_TQS_0001
  0
POLYLINE
  8
1
  6
ESTILO_TQS_0001
 66
     1
  0
VERTEX
  8
1
  6
ESTILO_TQS_0001
 10
86.886855
 20
12.285627
  0
VERTEX
  8
1
  6
ESTILO_TQS_0001
 10
86.886855
 20
23.478210
  0
SEQEND
  8
1
  6
ESTILO_TQS_0001
  0
POLYLINE
  8
1
  6
ESTILO_TQS_0001
 66
     1
  0
VERTEX
  8
1
  6
ESTILO_TQS_0001
 10
86.486855
 20
35.070793
  0
VERTEX
  8
1
  6
ESTILO_TQS_0001
 10
86.486855
 20
23.878210
  0
SEQEND
  8
1
  6
ESTILO_TQS_0001
  0
POLYLINE
  8
1
  6
ESTILO_TQS_0001
 66
     1
  0
VERTEX
  8
1
  6
ESTILO_TQS_0001
 10
86.886855
 20
23.878210
  0
VERTEX
  8
1
  6
ESTILO_TQS_0001
 10
86.886855
 20
35.070793
  0
SEQEND
  8
1
  6
ESTILO_TQS_0001
  0
POLYLINE
  8
1
  6
ESTILO_TQS_0001
 66
     1
  0
VERTEX
  8
1
  6
ESTILO_TQS_0001
 10
47.685263
 20
16.985627
  0
VERTEX
  8
1
  6
ESTILO_TQS_0001
 10
36.829452
 20
16.985627
  0
SEQEND
  8
1
  6
ESTILO_TQS_0001
  0
POLYLINE
  8
1
  6
ESTILO_TQS_0001
 66
     1
  0
VERTEX
  8
1
  6
ESTILO_TQS_0001
 10
36.829452
 20
16.585627
  0
VERTEX
  8
1
  6
ESTILO_TQS_0001
 10
47.685263
 20
16.585627
  0
SEQEND
  8
1
  6
ESTILO_TQS_0001
  0
POLYLINE
  8
1
  6
ESTILO_TQS_0001
 66
     1
  0
VERTEX
  8
1
  6
ESTILO_TQS_0001
 10
49.071581
 20
16.985627
  0
VERTEX
  8
1
  6
ESTILO_TQS_0001
 10
48.085263
 20
16.985627
  0
SEQEND
  8
1
  6
ESTILO_TQS_0001
  0
POLYLINE
  8
1
  6
ESTILO_TQS_0001
 66
     1
  0
VERTEX
  8
1
  6
ESTILO_TQS_0001
 10
48.085263
 20
16.585627
  0
VERTEX
  8
1
  6
ESTILO_TQS_0001
 10
49.271581
 20
16.585627
  0
SEQEND
  8
1
  6
ESTILO_TQS_0001
  0
POLYLINE
  8
1
  6
ESTILO_TQS_0001
 66
     1
  0
VERTEX
  8
1
  6
ESTILO_TQS_0001
 10
61.723710
 20
16.985627
  0
VERTEX
  8
1
  6
ESTILO_TQS_0001
 10
49.471581
 20
16.985627
  0
SEQEND
  8
1
  6
ESTILO_TQS_0001
  0
POLYLINE
  8
1
  6
ESTILO_TQS_0001
 66
     1
  0
VERTEX
  8
1
  6
ESTILO_TQS_0001
 10
49.271581
 20
16.585627
  0
VERTEX
  8
1
  6
ESTILO_TQS_0001
 10
61.723710
 20
16.585627
  0
SEQEND
  8
1
  6
ESTILO_TQS_0001
  0
POLYLINE
  8
1
  6
ESTILO_TQS_0001
 66
     1
  0
VERTEX
  8
1
  6
ESTILO_TQS_0001
 10
75.023710
 20
16.985627
  0
VERTEX
  8
1
  6
ESTILO_TQS_0001
 10
62.123710
 20
16.985627
  0
SEQEND
  8
1
  6
ESTILO_TQS_0001
  0
POLYLINE
  8
1
  6
ESTILO_TQS_0001
 66
     1
  0
VERTEX
  8
1
  6
ESTILO_TQS_0001
 10
62.123710
 20
16.585627
  0
VERTEX
  8
1
  6
ESTILO_TQS_0001
 10
75.023710
 20
16.585627
  0
SEQEND
  8
1
  6
ESTILO_TQS_0001
  0
POLYLINE
  8
1
  6
ESTILO_TQS_0001
 66
     1
  0
VERTEX
  8
1
  6
ESTILO_TQS_0001
 10
49.071581
 20
21.989313
  0
VERTEX
  8
1
  6
ESTILO_TQS_0001
 10
49.071581
 20
16.985627
  0
SEQEND
  8
1
  6
ESTILO_TQS_0001
  0
POLYLINE
  8
1
  6
ESTILO_TQS_0001
 66
     1
  0
VERTEX
  8
1
  6
ESTILO_TQS_0001
 10
49.471581
 20
16.985627
  0
VERTEX
  8
1
  6
ESTILO_TQS_0001
 10
49.471581
 20
22.239313
  0
SEQEND
  8
1
  6
ESTILO_TQS_0001
  0
POLYLINE
  8
1
  6
ESTILO_TQS_0001
 66
     1
  0
VERTEX
  8
1
  6
ESTILO_TQS_0001
 10
49.071581
 20
25.828210
  0
VERTEX
  8
1
  6
ESTILO_TQS_0001
 10
49.071581
 20
22.489313
  0
SEQEND
  8
1
  6
ESTILO_TQS_0001
  0
POLYLINE
  8
1
  6
ESTILO_TQS_0001
 66
     1
  0
VERTEX
  8
1
  6
ESTILO_TQS_0001
 10
49.471581
 20
22.239313
  0
VERTEX
  8
1
  6
ESTILO_TQS_0001
 10
49.471581
 20
25.828210
  0
SEQEND
  8
1
  6
ESTILO_TQS_0001
  0
POLYLINE
  8
1
  6
ESTILO_TQS_0001
 66
     1
  0
VERTEX
  8
1
  6
ESTILO_TQS_0001
 10
49.071581
 20
26.289237
  0
VERTEX
  8
1
  6
ESTILO_TQS_0001
 10
49.071581
 20
26.228210
  0
SEQEND
  8
1
  6
ESTILO_TQS_0001
  0
POLYLINE
  8
1
  6
ESTILO_TQS_0001
 66
     1
  0
VERTEX
  8
1
  6
ESTILO_TQS_0001
 10
49.471581
 20
26.228210
  0
VERTEX
  8
1
  6
ESTILO_TQS_0001
 10
49.471581
 20
26.539237
  0
SEQEND
  8
1
  6
ESTILO_TQS_0001
  0
POLYLINE
  8
1
  6
ESTILO_TQS_0001
 66
     1
  0
VERTEX
  8
1
  6
ESTILO_TQS_0001
 10
49.071581
 20
35.070793
  0
VERTEX
  8
1
  6
ESTILO_TQS_0001
 10
49.071581
 20
26.789237
  0
SEQEND
  8
1
  6
ESTILO_TQS_0001
  0
POLYLINE
  8
1
  6
ESTILO_TQS_0001
 66
     1
  0
VERTEX
  8
1
  6
ESTILO_TQS_0001
 10
49.471581
 20
26.539237
  0
VERTEX
  8
1
  6
ESTILO_TQS_0001
 10
49.471581
 20
35.070793
  0
SEQEND
  8
1
  6
ESTILO_TQS_0001
  0
POLYLINE
  8
1
  6
CONTINUOUS
 66
     1
  0
VERTEX
  8
1
  6
CONTINUOUS
 10
49.429452
 20
35.070793
  0
VERTEX
  8
1
  6
CONTINUOUS
 10
49.471581
 20
35.070793
  0
SEQEND
  8
1
  6
CONTINUOUS
  0
POLYLINE
  8
1
  6
ESTILO_TQS_0001
 66
     1
  0
VERTEX
  8
1
  6
ESTILO_TQS_0001
 10
61.723710
 20
28.465627
  0
VERTEX
  8
1
  6
ESTILO_TQS_0001
 10
61.723710
 20
16.985627
  0
SEQEND
  8
1
  6
ESTILO_TQS_0001
  0
POLYLINE
  8
1
  6
ESTILO_TQS_0001
 66
     1
  0
VERTEX
  8
1
  6
ESTILO_TQS_0001
 10
62.123710
 20
16.985627
  0
VERTEX
  8
1
  6
ESTILO_TQS_0001
 10
62.123710
 20
28.465627
  0
SEQEND
  8
1
  6
ESTILO_TQS_0001
  0
POLYLINE
  8
1
  6
ESTILO_TQS_0001
 66
     1
  0
VERTEX
  8
1
  6
ESTILO_TQS_0001
 10
61.723710
 20
35.070793
  0
VERTEX
  8
1
  6
ESTILO_TQS_0001
 10
61.723710
 20
28.865627
  0
SEQEND
  8
1
  6
ESTILO_TQS_0001
  0
POLYLINE
  8
1
  6
ESTILO_TQS_0001
 66
     1
  0
VERTEX
  8
1
  6
ESTILO_TQS_0001
 10
62.123710
 20
28.865627
  0
VERTEX
  8
1
  6
ESTILO_TQS_0001
 10
62.123710
 20
35.070793
  0
SEQEND
  8
1
  6
ESTILO_TQS_0001
  0
POLYLINE
  8
1
  6
CONTINUOUS
 66
     1
  0
VERTEX
  8
1
  6
CONTINUOUS
 10
89.161065
 20
41.678080
  0
VERTEX
  8
1
  6
CONTINUOUS
 10
78.261070
 20
41.678080
  0
SEQEND
  8
1
  6
CONTINUOUS
  0
POLYLINE
  8
1
  6
CONTINUOUS
 66
     1
  0
VERTEX
  8
1
  6
CONTINUOUS
 10
78.261070
 20
41.278080
  0
VERTEX
  8
1
  6
CONTINUOUS
 10
89.161065
 20
41.278080
  0
SEQEND
  8
1
  6
CONTINUOUS
  0
POLYLINE
  8
1
  6
CONTINUOUS
 66
     1
  0
VERTEX
  8
1
  6
CONTINUOUS
 10
94.410449
 20
41.678080
  0
VERTEX
  8
1
  6
CONTINUOUS
 10
89.961065
 20
41.678080
  0
SEQEND
  8
1
  6
CONTINUOUS
  0
POLYLINE
  8
1
  6
CONTINUOUS
 66
     1
  0
VERTEX
  8
1
  6
CONTINUOUS
 10
89.961065
 20
41.278080
  0
VERTEX
  8
1
  6
CONTINUOUS
 10
94.376593
 20
41.278080
  0
SEQEND
  8
1
  6
CONTINUOUS
  0
POLYLINE
  8
1
  6
CONTINUOUS
 66
     1
  0
VERTEX
  8
1
  6
CONTINUOUS
 10
41.608338
 20
26.789237
  0
VERTEX
  8
1
  6
CONTINUOUS
 10
38.208333
 20
26.789237
  0
SEQEND
  8
1
  6
CONTINUOUS
  0
POLYLINE
  8
1
  6
CONTINUOUS
 66
     1
  0
VERTEX
  8
1
  6
CONTINUOUS
 10
38.208333
 20
26.289237
  0
VERTEX
  8
1
  6
CONTINUOUS
 10
41.608338
 20
26.289237
  0
SEQEND
  8
1
  6
CONTINUOUS
  0
POLYLINE
  8
1
  6
CONTINUOUS
 66
     1
  0
VERTEX
  8
1
  6
CONTINUOUS
 10
42.008338
 20
26.289237
  0
VERTEX
  8
1
  6
CONTINUOUS
 10
42.008338
 20
22.489313
  0
SEQEND
  8
1
  6
CONTINUOUS
  0
POLYLINE
  8
1
  6
CONTINUOUS
 66
     1
  0
VERTEX
  8
1
  6
CONTINUOUS
 10
42.408338
 20
22.489313
  0
VERTEX
  8
1
  6
CONTINUOUS
 10
42.408338
 20
26.289237
  0
SEQEND
  8
1
  6
CONTINUOUS
  0
POLYLINE
  8
1
  6
ESTILO_TQS_0001
 66
     1
  0
VERTEX
  8
1
  6
ESTILO_TQS_0001
 10
49.071581
 20
26.789237
  0
VERTEX
  8
1
  6
ESTILO_TQS_0001
 10
42.408338
 20
26.789237
  0
SEQEND
  8
1
  6
ESTILO_TQS_0001
  0
POLYLINE
  8
1
  6
ESTILO_TQS_0001
 66
     1
  0
VERTEX
  8
1
  6
ESTILO_TQS_0001
 10
42.408338
 20
26.289237
  0
VERTEX
  8
1
  6
ESTILO_TQS_0001
 10
49.071581
 20
26.289237
  0
SEQEND
  8
1
  6
ESTILO_TQS_0001
  0
POLYLINE
  8
1
  6
ESTILO_TQS_0001
 66
     1
  0
VERTEX
  8
1
  6
ESTILO_TQS_0001
 10
49.071581
 20
22.489313
  0
VERTEX
  8
1
  6
ESTILO_TQS_0001
 10
42.408338
 20
22.489313
  0
SEQEND
  8
1
  6
ESTILO_TQS_0001
  0
POLYLINE
  8
1
  6
ESTILO_TQS_0001
 66
     1
  0
VERTEX
  8
1
  6
ESTILO_TQS_0001
 10
42.408333
 20
21.989313
  0
VERTEX
  8
1
  6
ESTILO_TQS_0001
 10
49.071581
 20
21.989313
  0
SEQEND
  8
1
  6
ESTILO_TQS_0001
  0
POLYLINE
  8
1
  6
CONTINUOUS
 66
     1
  0
VERTEX
  8
1
  6
CONTINUOUS
 10
61.861070
 20
19.268070
  0
VERTEX
  8
1
  6
CONTINUOUS
 10
61.861070
 20
16.268070
  0
VERTEX
  8
1
  6
CONTINUOUS
 10
65.461070
 20
16.268070
  0
VERTEX
  8
1
  6
CONTINUOUS
 10
65.461070
 20
19.268070
  0
VERTEX
  8
1
  6
CONTINUOUS
 10
61.861070
 20
19.268070
  0
SEQEND
  8
1
  6
CONTINUOUS
  0
POLYLINE
  8
1
  6
CONTINUOUS
 66
     1
  0
VERTEX
  8
1
  6
CONTINUOUS
 10
43.861070
 20
19.268070
  0
VERTEX
  8
1
  6
CONTINUOUS
 10
43.861070
 20
16.268070
  0
VERTEX
  8
1
  6
CONTINUOUS
 10
47.461070
 20
16.268070
  0
VERTEX
  8
1
  6
CONTINUOUS
 10
47.461070
 20
19.268070
  0
VERTEX
  8
1
  6
CONTINUOUS
 10
43.861070
 20
19.268070
  0
SEQEND
  8
1
  6
CONTINUOUS
  0
POLYLINE
  8
1
  6
CONTINUOUS
 66
     1
  0
VERTEX
  8
1
  6
CONTINUOUS
 10
43.861070
 20
31.868070
  0
VERTEX
  8
1
  6
CONTINUOUS
 10
43.861070
 20
28.268070
  0
VERTEX
  8
1
  6
CONTINUOUS
 10
47.461070
 20
28.268070
  0
VERTEX
  8
1
  6
CONTINUOUS
 10
47.461070
 20
31.868070
  0
VERTEX
  8
1
  6
CONTINUOUS
 10
43.861070
 20
31.868070
  0
SEQEND
  8
1
  6
CONTINUOUS
  0
POLYLINE
  8
1
  6
CONTINUOUS
 66
     1
  0
VERTEX
  8
1
  6
CONTINUOUS
 10
52.861070
 20
27.668070
  0
VERTEX
  8
1
  6
CONTINUOUS
 10
52.861070
 20
24.668070
  0
VERTEX
  8
1
  6
CONTINUOUS
 10
56.461070
 20
24.668070
  0
VERTEX
  8
1
  6
CONTINUOUS
 10
56.461070
 20
27.668070
  0
VERTEX
  8
1
  6
CONTINUOUS
 10
52.861070
 20
27.668070
  0
SEQEND
  8
1
  6
CONTINUOUS
  0
POLYLINE
  8
1
  6
CONTINUOUS
 66
     1
  0
VERTEX
  8
1
  6
CONTINUOUS
 10
31.261070
 20
19.268070
  0
VERTEX
  8
1
  6
CONTINUOUS
 10
31.261070
 20
16.268070
  0
VERTEX
  8
1
  6
CONTINUOUS
 10
34.861070
 20
16.268070
  0
VERTEX
  8
1
  6
CONTINUOUS
 10
34.861070
 20
19.268070
  0
VERTEX
  8
1
  6
CONTINUOUS
 10
31.261070
 20
19.268070
  0
SEQEND
  8
1
  6
CONTINUOUS
  0
POLYLINE
  8
1
  6
CONTINUOUS
 66
     1
  0
VERTEX
  8
1
  6
CONTINUOUS
 10
31.261070
 20
31.268070
  0
VERTEX
  8
1
  6
CONTINUOUS
 10
31.261070
 20
28.268070
  0
VERTEX
  8
1
  6
CONTINUOUS
 10
34.861070
 20
28.268070
  0
VERTEX
  8
1
  6
CONTINUOUS
 10
34.861070
 20
31.268070
  0
VERTEX
  8
1
  6
CONTINUOUS
 10
31.261070
 20
31.268070
  0
SEQEND
  8
1
  6
CONTINUOUS
  0
POLYLINE
  8
1
  6
CONTINUOUS
 66
     1
  0
VERTEX
  8
1
  6
CONTINUOUS
 10
36.061070
 20
27.668070
  0
VERTEX
  8
1
  6
CONTINUOUS
 10
36.061070
 20
21.668070
  0
VERTEX
  8
1
  6
CONTINUOUS
 10
38.461070
 20
21.668070
  0
VERTEX
  8
1
  6
CONTINUOUS
 10
38.461070
 20
27.668070
  0
VERTEX
  8
1
  6
CONTINUOUS
 10
36.061070
 20
27.668070
  0
SEQEND
  8
1
  6
CONTINUOUS
  0
POLYLINE
  8
1
  6
CONTINUOUS
 66
     1
  0
VERTEX
  8
1
  6
CONTINUOUS
 10
18.661070
 20
27.668070
  0
VERTEX
  8
1
  6
CONTINUOUS
 10
18.661070
 20
19.868070
  0
VERTEX
  8
1
  6
CONTINUOUS
 10
22.261070
 20
19.868070
  0
VERTEX
  8
1
  6
CONTINUOUS
 10
22.261070
 20
27.668070
  0
VERTEX
  8
1
  6
CONTINUOUS
 10
18.661070
 20
27.668070
  0
SEQEND
  8
1
  6
CONTINUOUS
  0
POLYLINE
  8
1
  6
CONTINUOUS
 66
     1
  0
VERTEX
  8
1
  6
CONTINUOUS
 10
78.661070
 20
19.268070
  0
VERTEX
  8
1
  6
CONTINUOUS
 10
78.661070
 20
16.268070
  0
VERTEX
  8
1
  6
CONTINUOUS
 10
82.261070
 20
16.268070
  0
VERTEX
  8
1
  6
CONTINUOUS
 10
82.261070
 20
19.268070
  0
VERTEX
  8
1
  6
CONTINUOUS
 10
78.661070
 20
19.268070
  0
SEQEND
  8
1
  6
CONTINUOUS
  0
POLYLINE
  8
1
  6
CONTINUOUS
 66
     1
  0
VERTEX
  8
1
  6
CONTINUOUS
 10
78.661070
 20
31.868070
  0
VERTEX
  8
1
  6
CONTINUOUS
 10
78.661070
 20
28.868070
  0
VERTEX
  8
1
  6
CONTINUOUS
 10
82.261070
 20
28.868070
  0
VERTEX
  8
1
  6
CONTINUOUS
 10
82.261070
 20
31.868070
  0
VERTEX
  8
1
  6
CONTINUOUS
 10
78.661070
 20
31.868070
  0
SEQEND
  8
1
  6
CONTINUOUS
  0
POLYLINE
  8
1
  6
CONTINUOUS
 66
     1
  0
VERTEX
  8
1
  6
CONTINUOUS
 10
52.861070
 20
15.668070
  0
VERTEX
  8
1
  6
CONTINUOUS
 10
52.861070
 20
12.668070
  0
VERTEX
  8
1
  6
CONTINUOUS
 10
56.461070
 20
12.668070
  0
VERTEX
  8
1
  6
CONTINUOUS
 10
56.461070
 20
15.668070
  0
VERTEX
  8
1
  6
CONTINUOUS
 10
52.861070
 20
15.668070
  0
SEQEND
  8
1
  6
CONTINUOUS
  0
POLYLINE
  8
1
  6
CONTINUOUS
 66
     1
  0
VERTEX
  8
1
  6
CONTINUOUS
 10
70.261070
 20
19.268070
  0
VERTEX
  8
1
  6
CONTINUOUS
 10
70.261070
 20
16.268070
  0
VERTEX
  8
1
  6
CONTINUOUS
 10
73.861070
 20
16.268070
  0
VERTEX
  8
1
  6
CONTINUOUS
 10
73.861070
 20
19.268070
  0
VERTEX
  8
1
  6
CONTINUOUS
 10
70.261070
 20
19.268070
  0
SEQEND
  8
1
  6
CONTINUOUS
  0
POLYLINE
  8
1
  6
CONTINUOUS
 66
     1
  0
VERTEX
  8
1
  6
CONTINUOUS
 10
70.261070
 20
29.468070
  0
VERTEX
  8
1
  6
CONTINUOUS
 10
70.261070
 20
26.468070
  0
VERTEX
  8
1
  6
CONTINUOUS
 10
73.861070
 20
26.468070
  0
VERTEX
  8
1
  6
CONTINUOUS
 10
73.861070
 20
29.468070
  0
VERTEX
  8
1
  6
CONTINUOUS
 10
70.261070
 20
29.468070
  0
SEQEND
  8
1
  6
CONTINUOUS
  0
POLYLINE
  8
1
  6
CONTINUOUS
 66
     1
  0
VERTEX
  8
1
  6
CONTINUOUS
 10
61.861070
 20
29.468070
  0
VERTEX
  8
1
  6
CONTINUOUS
 10
61.861070
 20
26.468070
  0
VERTEX
  8
1
  6
CONTINUOUS
 10
65.461070
 20
26.468070
  0
VERTEX
  8
1
  6
CONTINUOUS
 10
65.461070
 20
29.468070
  0
VERTEX
  8
1
  6
CONTINUOUS
 10
61.861070
 20
29.468070
  0
SEQEND
  8
1
  6
CONTINUOUS
  0
LINE
  8
1
  6
CONTINUOUS
 10
5.419069
 20
5.874210
 11
5.419069
 21
41.278080
  0
LINE
  8
1
  6
CONTINUOUS
 10
80.661065
 20
55.708070
 11
82.341065
 21
55.708070
  0
LINE
  8
1
  6
CONTINUOUS
 10
82.341065
 20
55.708070
 11
82.341065
 21
58.108070
  0
LINE
  8
1
  6
CONTINUOUS
 10
80.661065
 20
55.708070
 11
80.661065
 21
53.468071
  0
LINE
  8
1
  6
CONTINUOUS
 10
80.661065
 20
53.468071
 11
83.463181
 21
53.468071
  0
LINE
  8
1
  6
CONTINUOUS
 10
83.463181
 20
53.468071
 11
83.463181
 21
54.028071
  0
LINE
  8
1
  6
CONTINUOUS
 10
83.463181
 20
54.028071
 11
85.751070
 21
54.028071
  0
LINE
  8
1
  6
CONTINUOUS
 10
78.061066
 20
51.168075
 11
78.061066
 21
51.168075
  0
POLYLINE
  8
1
  6
CONTINUOUS
 66
     1
  0
VERTEX
  8
1
  6
CONTINUOUS
 10
77.861066
 20
50.768075
  0
VERTEX
  8
1
  6
CONTINUOUS
 10
78.261066
 20
50.768075
  0
VERTEX
  8
1
  6
CONTINUOUS
 10
78.261066
 20
51.568075
  0
VERTEX
  8
1
  6
CONTINUOUS
 10
77.861066
 20
51.568075
  0
VERTEX
  8
1
  6
CONTINUOUS
 10
77.861066
 20
50.768075
  0
SEQEND
  8
1
  6
CONTINUOUS
  0
LINE
  8
1
  6
CONTINUOUS
 10
36.629452
 20
16.785627
 11
36.629452
 21
16.785627
  0
POLYLINE
  8
1
  6
CONTINUOUS
 66
     1
  0
VERTEX
  8
1
  6
CONTINUOUS
 10
36.429452
 20
16.585627
  0
VERTEX
  8
1
  6
CONTINUOUS
 10
36.829452
 20
16.585627
  0
VERTEX
  8
1
  6
CONTINUOUS
 10
36.829452
 20
16.985627
  0
VERTEX
  8
1
  6
CONTINUOUS
 10
36.429452
 20
16.985627
  0
VERTEX
  8
1
  6
CONTINUOUS
 10
36.429452
 20
16.585627
  0
SEQEND
  8
1
  6
CONTINUOUS
  0
LINE
  8
5
  6
CONTINUOUS
 10
36.829452
 20
16.585627
 11
37.029452
 21
16.385627
  0
LINE
  8
5
  6
CONTINUOUS
 10
36.829452
 20
16.985627
 11
37.029452
 21
17.185627
  0
LINE
  8
5
  6
CONTINUOUS
 10
36.429452
 20
16.985627
 11
36.229452
 21
17.185627
  0
LINE
  8
5
  6
CONTINUOUS
 10
36.429452
 20
16.585627
 11
36.229452
 21
16.385627
  0
LINE
  8
1
  6
CONTINUOUS
 10
61.923710
 20
16.785627
 11
61.923710
 21
16.785627
  0
POLYLINE
  8
1
  6
CONTINUOUS
 66
     1
  0
VERTEX
  8
1
  6
CONTINUOUS
 10
61.723710
 20
16.585627
  0
VERTEX
  8
1
  6
CONTINUOUS
 10
62.123710
 20
16.585627
  0
VERTEX
  8
1
  6
CONTINUOUS
 10
62.123710
 20
16.985627
  0
VERTEX
  8
1
  6
CONTINUOUS
 10
61.723710
 20
16.985627
  0
VERTEX
  8
1
  6
CONTINUOUS
 10
61.723710
 20
16.585627
  0
SEQEND
  8
1
  6
CONTINUOUS
  0
LINE
  8
5
  6
CONTINUOUS
 10
62.123710
 20
16.585627
 11
62.323710
 21
16.385627
  0
LINE
  8
5
  6
CONTINUOUS
 10
62.123710
 20
16.985627
 11
62.323710
 21
17.185627
  0
LINE
  8
5
  6
CONTINUOUS
 10
61.723710
 20
16.985627
 11
61.523710
 21
17.185627
  0
LINE
  8
5
  6
CONTINUOUS
 10
61.723710
 20
16.585627
 11
61.523710
 21
16.385627
  0
LINE
  8
1
  6
CONTINUOUS
 10
75.223710
 20
19.485627
 11
75.223710
 21
19.485627
  0
POLYLINE
  8
1
  6
CONTINUOUS
 66
     1
  0
VERTEX
  8
1
  6
CONTINUOUS
 10
75.023710
 20
19.285627
  0
VERTEX
  8
1
  6
CONTINUOUS
 10
75.423710
 20
19.285627
  0
VERTEX
  8
1
  6
CONTINUOUS
 10
75.423710
 20
19.685627
  0
VERTEX
  8
1
  6
CONTINUOUS
 10
75.023710
 20
19.685627
  0
VERTEX
  8
1
  6
CONTINUOUS
 10
75.023710
 20
19.285627
  0
SEQEND
  8
1
  6
CONTINUOUS
  0
LINE
  8
5
  6
CONTINUOUS
 10
75.423710
 20
19.285627
 11
75.623710
 21
19.085627
  0
LINE
  8
5
  6
CONTINUOUS
 10
75.423710
 20
19.685627
 11
75.623710
 21
19.885627
  0
LINE
  8
5
  6
CONTINUOUS
 10
75.023710
 20
19.685627
 11
74.823710
 21
19.885627
  0
LINE
  8
5
  6
CONTINUOUS
 10
75.023710
 20
19.285627
 11
74.823710
 21
19.085627
  0
LINE
  8
1
  6
CONTINUOUS
 10
61.923710
 20
28.665627
 11
61.923710
 21
28.665627
  0
POLYLINE
  8
1
  6
CONTINUOUS
 66
     1
  0
VERTEX
  8
1
  6
CONTINUOUS
 10
61.723710
 20
28.465627
  0
VERTEX
  8
1
  6
CONTINUOUS
 10
62.123710
 20
28.465627
  0
VERTEX
  8
1
  6
CONTINUOUS
 10
62.123710
 20
28.865627
  0
VERTEX
  8
1
  6
CONTINUOUS
 10
61.723710
 20
28.865627
  0
VERTEX
  8
1
  6
CONTINUOUS
 10
61.723710
 20
28.465627
  0
SEQEND
  8
1
  6
CONTINUOUS
  0
LINE
  8
5
  6
CONTINUOUS
 10
62.123710
 20
28.465627
 11
62.323710
 21
28.265627
  0
LINE
  8
5
  6
CONTINUOUS
 10
62.123710
 20
28.865627
 11
62.323710
 21
29.065627
  0
LINE
  8
5
  6
CONTINUOUS
 10
61.723710
 20
28.865627
 11
61.523710
 21
29.065627
  0
LINE
  8
5
  6
CONTINUOUS
 10
61.723710
 20
28.465627
 11
61.523710
 21
28.265627
  0
LINE
  8
1
  6
CONTINUOUS
 10
75.223710
 20
28.665627
 11
75.223710
 21
28.665627
  0
POLYLINE
  8
1
  6
CONTINUOUS
 66
     1
  0
VERTEX
  8
1
  6
CONTINUOUS
 10
75.023710
 20
28.465627
  0
VERTEX
  8
1
  6
CONTINUOUS
 10
75.423710
 20
28.465627
  0
VERTEX
  8
1
  6
CONTINUOUS
 10
75.423710
 20
28.865627
  0
VERTEX
  8
1
  6
CONTINUOUS
 10
75.023710
 20
28.865627
  0
VERTEX
  8
1
  6
CONTINUOUS
 10
75.023710
 20
28.465627
  0
SEQEND
  8
1
  6
CONTINUOUS
  0
LINE
  8
5
  6
CONTINUOUS
 10
75.423710
 20
28.465627
 11
75.623710
 21
28.265627
  0
LINE
  8
5
  6
CONTINUOUS
 10
75.423710
 20
28.865627
 11
75.623710
 21
29.065627
  0
LINE
  8
5
  6
CONTINUOUS
 10
75.023710
 20
28.865627
 11
74.823710
 21
29.065627
  0
LINE
  8
5
  6
CONTINUOUS
 10
75.023710
 20
28.465627
 11
74.823710
 21
28.265627
  0
LINE
  8
1
  6
CONTINUOUS
 10
61.923710
 20
35.270793
 11
61.923710
 21
35.270793
  0
POLYLINE
  8
1
  6
CONTINUOUS
 66
     1
  0
VERTEX
  8
1
  6
CONTINUOUS
 10
61.723710
 20
35.070793
  0
VERTEX
  8
1
  6
CONTINUOUS
 10
62.123710
 20
35.070793
  0
VERTEX
  8
1
  6
CONTINUOUS
 10
62.123710
 20
35.470793
  0
VERTEX
  8
1
  6
CONTINUOUS
 10
61.723710
 20
35.470793
  0
VERTEX
  8
1
  6
CONTINUOUS
 10
61.723710
 20
35.070793
  0
SEQEND
  8
1
  6
CONTINUOUS
  0
LINE
  8
5
  6
CONTINUOUS
 10
62.123710
 20
35.070793
 11
62.323710
 21
34.870793
  0
LINE
  8
5
  6
CONTINUOUS
 10
62.123710
 20
35.470793
 11
62.323710
 21
35.670793
  0
LINE
  8
5
  6
CONTINUOUS
 10
61.723710
 20
35.470793
 11
61.523710
 21
35.670793
  0
LINE
  8
5
  6
CONTINUOUS
 10
61.723710
 20
35.070793
 11
61.523710
 21
34.870793
  0
LINE
  8
1
  6
CONTINUOUS
 10
77.861070
 20
41.478080
 11
77.861070
 21
41.478080
  0
POLYLINE
  8
1
  6
CONTINUOUS
 66
     1
  0
VERTEX
  8
1
  6
CONTINUOUS
 10
77.461070
 20
41.278080
  0
VERTEX
  8
1
  6
CONTINUOUS
 10
78.261070
 20
41.278080
  0
VERTEX
  8
1
  6
CONTINUOUS
 10
78.261070
 20
41.678080
  0
VERTEX
  8
1
  6
CONTINUOUS
 10
77.461070
 20
41.678080
  0
VERTEX
  8
1
  6
CONTINUOUS
 10
77.461070
 20
41.278080
  0
SEQEND
  8
1
  6
CONTINUOUS
  0
LINE
  8
1
  6
CONTINUOUS
 10
75.223710
 20
12.085627
 11
75.223710
 21
12.085627
  0
POLYLINE
  8
1
  6
CONTINUOUS
 66
     1
  0
VERTEX
  8
1
  6
CONTINUOUS
 10
75.023710
 20
11.885627
  0
VERTEX
  8
1
  6
CONTINUOUS
 10
75.423710
 20
11.885627
  0
VERTEX
  8
1
  6
CONTINUOUS
 10
75.423710
 20
12.285627
  0
VERTEX
  8
1
  6
CONTINUOUS
 10
75.023710
 20
12.285627
  0
VERTEX
  8
1
  6
CONTINUOUS
 10
75.023710
 20
11.885627
  0
SEQEND
  8
1
  6
CONTINUOUS
  0
LINE
  8
5
  6
CONTINUOUS
 10
75.423710
 20
11.885627
 11
75.623710
 21
11.685627
  0
LINE
  8
5
  6
CONTINUOUS
 10
75.423710
 20
12.285627
 11
75.623710
 21
12.485627
  0
LINE
  8
5
  6
CONTINUOUS
 10
75.023710
 20
12.285627
 11
74.823710
 21
12.485627
  0
LINE
  8
5
  6
CONTINUOUS
 10
75.023710
 20
11.885627
 11
74.823710
 21
11.685627
  0
LINE
  8
1
  6
CONTINUOUS
 10
98.150000
 20
21.785627
 11
98.150000
 21
21.785627
  0
POLYLINE
  8
1
  6
CONTINUOUS
 66
     1
  0
VERTEX
  8
1
  6
CONTINUOUS
 10
97.950000
 20
21.585627
  0
VERTEX
  8
1
  6
CONTINUOUS
 10
98.350000
 20
21.585627
  0
VERTEX
  8
1
  6
CONTINUOUS
 10
98.350000
 20
21.985627
  0
VERTEX
  8
1
  6
CONTINUOUS
 10
97.950000
 20
21.985627
  0
VERTEX
  8
1
  6
CONTINUOUS
 10
97.950000
 20
21.585627
  0
SEQEND
  8
1
  6
CONTINUOUS
  0
LINE
  8
5
  6
CONTINUOUS
 10
98.350000
 20
21.585627
 11
98.550000
 21
21.385627
  0
LINE
  8
5
  6
CONTINUOUS
 10
98.350000
 20
21.985627
 11
98.550000
 21
22.185627
  0
LINE
  8
5
  6
CONTINUOUS
 10
97.950000
 20
21.985627
 11
97.750000
 21
22.185627
  0
LINE
  8
5
  6
CONTINUOUS
 10
97.950000
 20
21.585627
 11
97.750000
 21
21.385627
  0
LINE
  8
1
  6
CONTINUOUS
 10
98.150000
 20
31.678080
 11
98.150000
 21
31.678080
  0
POLYLINE
  8
1
  6
CONTINUOUS
 66
     1
  0
VERTEX
  8
1
  6
CONTINUOUS
 10
97.950000
 20
31.478080
  0
VERTEX
  8
1
  6
CONTINUOUS
 10
98.350000
 20
31.478080
  0
VERTEX
  8
1
  6
CONTINUOUS
 10
98.350000
 20
31.878080
  0
VERTEX
  8
1
  6
CONTINUOUS
 10
97.950000
 20
31.878080
  0
VERTEX
  8
1
  6
CONTINUOUS
 10
97.950000
 20
31.478080
  0
SEQEND
  8
1
  6
CONTINUOUS
  0
LINE
  8
5
  6
CONTINUOUS
 10
98.350000
 20
31.478080
 11
98.550000
 21
31.278080
  0
LINE
  8
5
  6
CONTINUOUS
 10
98.350000
 20
31.878080
 11
98.550000
 21
32.078080
  0
LINE
  8
5
  6
CONTINUOUS
 10
97.950000
 20
31.878080
 11
97.750000
 21
32.078080
  0
LINE
  8
5
  6
CONTINUOUS
 10
97.950000
 20
31.478080
 11
97.750000
 21
31.278080
  0
LINE
  8
1
  6
CONTINUOUS
 10
98.150000
 20
41.478080
 11
98.150000
 21
41.478080
  0
POLYLINE
  8
1
  6
CONTINUOUS
 66
     1
  0
VERTEX
  8
1
  6
CONTINUOUS
 10
97.950000
 20
41.278080
  0
VERTEX
  8
1
  6
CONTINUOUS
 10
98.350000
 20
41.278080
  0
VERTEX
  8
1
  6
CONTINUOUS
 10
98.350000
 20
41.678080
  0
VERTEX
  8
1
  6
CONTINUOUS
 10
97.950000
 20
41.678080
  0
VERTEX
  8
1
  6
CONTINUOUS
 10
97.950000
 20
41.278080
  0
SEQEND
  8
1
  6
CONTINUOUS
  0
LINE
  8
5
  6
CONTINUOUS
 10
98.350000
 20
41.278080
 11
98.550000
 21
41.078080
  0
LINE
  8
5
  6
CONTINUOUS
 10
98.350000
 20
41.678080
 11
98.550000
 21
41.878080
  0
LINE
  8
5
  6
CONTINUOUS
 10
97.950000
 20
41.678080
 11
97.750000
 21
41.878080
  0
LINE
  8
5
  6
CONTINUOUS
 10
97.950000
 20
41.278080
 11
97.750000
 21
41.078080
  0
LINE
  8
1
  6
CONTINUOUS
 10
98.150000
 20
12.085627
 11
98.150000
 21
12.085627
  0
POLYLINE
  8
1
  6
CONTINUOUS
 66
     1
  0
VERTEX
  8
1
  6
CONTINUOUS
 10
97.950000
 20
11.885627
  0
VERTEX
  8
1
  6
CONTINUOUS
 10
98.350000
 20
11.885627
  0
VERTEX
  8
1
  6
CONTINUOUS
 10
98.350000
 20
12.285627
  0
VERTEX
  8
1
  6
CONTINUOUS
 10
97.950000
 20
12.285627
  0
VERTEX
  8
1
  6
CONTINUOUS
 10
97.950000
 20
11.885627
  0
SEQEND
  8
1
  6
CONTINUOUS
  0
LINE
  8
5
  6
CONTINUOUS
 10
98.350000
 20
11.885627
 11
98.550000
 21
11.685627
  0
LINE
  8
5
  6
CONTINUOUS
 10
98.350000
 20
12.285627
 11
98.550000
 21
12.485627
  0
LINE
  8
5
  6
CONTINUOUS
 10
97.950000
 20
12.285627
 11
97.750000
 21
12.485627
  0
LINE
  8
5
  6
CONTINUOUS
 10
97.950000
 20
11.885627
 11
97.750000
 21
11.685627
  0
LINE
  8
1
  6
CONTINUOUS
 10
78.061066
 20
74.757942
 11
78.061066
 21
74.757942
  0
POLYLINE
  8
1
  6
CONTINUOUS
 66
     1
  0
VERTEX
  8
1
  6
CONTINUOUS
 10
77.861066
 20
72.407942
  0
VERTEX
  8
1
  6
CONTINUOUS
 10
78.261066
 20
72.407942
  0
VERTEX
  8
1
  6
CONTINUOUS
 10
78.261066
 20
77.107942
  0
VERTEX
  8
1
  6
CONTINUOUS
 10
77.861066
 20
77.107942
  0
VERTEX
  8
1
  6
CONTINUOUS
 10
77.861066
 20
72.407942
  0
SEQEND
  8
1
  6
CONTINUOUS
  0
LINE
  8
1
  6
CONTINUOUS
 10
86.764183
 20
74.757942
 11
86.764183
 21
74.757942
  0
POLYLINE
  8
1
  6
CONTINUOUS
 66
     1
  0
VERTEX
  8
1
  6
CONTINUOUS
 10
86.564183
 20
72.407942
  0
VERTEX
  8
1
  6
CONTINUOUS
 10
86.964183
 20
72.407942
  0
VERTEX
  8
1
  6
CONTINUOUS
 10
86.964183
 20
77.107942
  0
VERTEX
  8
1
  6
CONTINUOUS
 10
86.564183
 20
77.107942
  0
VERTEX
  8
1
  6
CONTINUOUS
 10
86.564183
 20
72.407942
  0
SEQEND
  8
1
  6
CONTINUOUS
  0
LINE
  8
1
  6
CONTINUOUS
 10
42.008338
 20
26.539237
 11
42.008338
 21
26.539237
  0
POLYLINE
  8
1
  6
CONTINUOUS
 66
     1
  0
VERTEX
  8
1
  6
CONTINUOUS
 10
41.608338
 20
26.289237
  0
VERTEX
  8
1
  6
CONTINUOUS
 10
42.408338
 20
26.289237
  0
VERTEX
  8
1
  6
CONTINUOUS
 10
42.408338
 20
26.789237
  0
VERTEX
  8
1
  6
CONTINUOUS
 10
41.608338
 20
26.789237
  0
VERTEX
  8
1
  6
CONTINUOUS
 10
41.608338
 20
26.289237
  0
SEQEND
  8
1
  6
CONTINUOUS
  0
LINE
  8
1
  6
CONTINUOUS
 10
85.951070
 20
51.168070
 11
85.951070
 21
51.168070
  0
POLYLINE
  8
1
  6
CONTINUOUS
 66
     1
  0
VERTEX
  8
1
  6
CONTINUOUS
 10
85.751070
 20
50.768070
  0
VERTEX
  8
1
  6
CONTINUOUS
 10
86.151070
 20
50.768070
  0
VERTEX
  8
1
  6
CONTINUOUS
 10
86.151070
 20
51.568070
  0
VERTEX
  8
1
  6
CONTINUOUS
 10
85.751070
 20
51.568070
  0
VERTEX
  8
1
  6
CONTINUOUS
 10
85.751070
 20
50.768070
  0
SEQEND
  8
1
  6
CONTINUOUS
  0
LINE
  8
1
  6
CONTINUOUS
 10
85.951070
 20
62.308070
 11
85.951070
 21
62.308070
  0
POLYLINE
  8
1
  6
CONTINUOUS
 66
     1
  0
VERTEX
  8
1
  6
CONTINUOUS
 10
85.751070
 20
61.908070
  0
VERTEX
  8
1
  6
CONTINUOUS
 10
86.151070
 20
61.908070
  0
VERTEX
  8
1
  6
CONTINUOUS
 10
86.151070
 20
62.708070
  0
VERTEX
  8
1
  6
CONTINUOUS
 10
85.751070
 20
62.708070
  0
VERTEX
  8
1
  6
CONTINUOUS
 10
85.751070
 20
61.908070
  0
SEQEND
  8
1
  6
CONTINUOUS
  0
LINE
  8
1
  6
CONTINUOUS
 10
82.161066
 20
62.508075
 11
82.161066
 21
62.508075
  0
POLYLINE
  8
1
  6
CONTINUOUS
 66
     1
  0
VERTEX
  8
1
  6
CONTINUOUS
 10
81.761066
 20
62.308075
  0
VERTEX
  8
1
  6
CONTINUOUS
 10
82.561066
 20
62.308075
  0
VERTEX
  8
1
  6
CONTINUOUS
 10
82.561066
 20
62.708075
  0
VERTEX
  8
1
  6
CONTINUOUS
 10
81.761066
 20
62.708075
  0
VERTEX
  8
1
  6
CONTINUOUS
 10
81.761066
 20
62.308075
  0
SEQEND
  8
1
  6
CONTINUOUS
  0
LINE
  8
1
  6
CONTINUOUS
 10
82.161066
 20
58.308075
 11
82.161066
 21
58.308075
  0
POLYLINE
  8
1
  6
CONTINUOUS
 66
     1
  0
VERTEX
  8
1
  6
CONTINUOUS
 10
81.761066
 20
58.108075
  0
VERTEX
  8
1
  6
CONTINUOUS
 10
82.561066
 20
58.108075
  0
VERTEX
  8
1
  6
CONTINUOUS
 10
82.561066
 20
58.508075
  0
VERTEX
  8
1
  6
CONTINUOUS
 10
81.761066
 20
58.508075
  0
VERTEX
  8
1
  6
CONTINUOUS
 10
81.761066
 20
58.108075
  0
SEQEND
  8
1
  6
CONTINUOUS
  0
LINE
  8
1
  6
CONTINUOUS
 10
85.951070
 20
56.738070
 11
85.951070
 21
56.738070
  0
POLYLINE
  8
1
  6
CONTINUOUS
 66
     1
  0
VERTEX
  8
1
  6
CONTINUOUS
 10
85.751070
 20
56.338070
  0
VERTEX
  8
1
  6
CONTINUOUS
 10
86.151070
 20
56.338070
  0
VERTEX
  8
1
  6
CONTINUOUS
 10
86.151070
 20
57.138070
  0
VERTEX
  8
1
  6
CONTINUOUS
 10
85.751070
 20
57.138070
  0
VERTEX
  8
1
  6
CONTINUOUS
 10
85.751070
 20
56.338070
  0
SEQEND
  8
1
  6
CONTINUOUS
  0
LINE
  8
1
  6
CONTINUOUS
 10
78.061066
 20
60.408070
 11
78.061066
 21
60.408070
  0
POLYLINE
  8
1
  6
CONTINUOUS
 66
     1
  0
VERTEX
  8
1
  6
CONTINUOUS
 10
77.861066
 20
58.108070
  0
VERTEX
  8
1
  6
CONTINUOUS
 10
78.261066
 20
58.108070
  0
VERTEX
  8
1
  6
CONTINUOUS
 10
78.261066
 20
62.708070
  0
VERTEX
  8
1
  6
CONTINUOUS
 10
77.861066
 20
62.708070
  0
VERTEX
  8
1
  6
CONTINUOUS
 10
77.861066
 20
58.108070
  0
SEQEND
  8
1
  6
CONTINUOUS
  0
LINE
  8
1
  6
CONTINUOUS
 10
91.659488
 20
5.658944
 11
91.659488
 21
5.658944
  0
POLYLINE
  8
1
  6
CONTINUOUS
 66
     1
  0
VERTEX
  8
1
  6
CONTINUOUS
 10
91.933117
 20
5.334711
  0
VERTEX
  8
1
  6
CONTINUOUS
 10
91.983720
 20
5.932573
  0
VERTEX
  8
1
  6
CONTINUOUS
 10
91.385858
 20
5.983177
  0
VERTEX
  8
1
  6
CONTINUOUS
 10
91.335255
 20
5.385314
  0
VERTEX
  8
1
  6
CONTINUOUS
 10
91.933117
 20
5.334711
  0
SEQEND
  8
1
  6
CONTINUOUS
  0
LINE
  8
1
  6
CONTINUOUS
 10
92.678208
 20
17.696030
 11
92.678208
 21
17.696030
  0
POLYLINE
  8
1
  6
CONTINUOUS
 66
     1
  0
VERTEX
  8
1
  6
CONTINUOUS
 10
92.934970
 20
17.172510
  0
VERTEX
  8
1
  6
CONTINUOUS
 10
93.019308
 20
18.168947
  0
VERTEX
  8
1
  6
CONTINUOUS
 10
92.421446
 20
18.219550
  0
VERTEX
  8
1
  6
CONTINUOUS
 10
92.337107
 20
17.223113
  0
VERTEX
  8
1
  6
CONTINUOUS
 10
92.934970
 20
17.172510
  0
SEQEND
  8
1
  6
CONTINUOUS
  0
LINE
  8
1
  6
CONTINUOUS
 10
93.718011
 20
29.981849
 11
93.718011
 21
29.981849
  0
POLYLINE
  8
1
  6
CONTINUOUS
 66
     1
  0
VERTEX
  8
1
  6
CONTINUOUS
 10
93.974772
 20
29.458329
  0
VERTEX
  8
1
  6
CONTINUOUS
 10
94.059111
 20
30.454766
  0
VERTEX
  8
1
  6
CONTINUOUS
 10
93.461249
 20
30.505369
  0
VERTEX
  8
1
  6
CONTINUOUS
 10
93.376910
 20
29.508932
  0
VERTEX
  8
1
  6
CONTINUOUS
 10
93.974772
 20
29.458329
  0
SEQEND
  8
1
  6
CONTINUOUS
  0
LINE
  8
1
  6
CONTINUOUS
 10
36.629452
 20
35.270793
 11
36.629452
 21
35.270793
  0
POLYLINE
  8
1
  6
CONTINUOUS
 66
     1
  0
VERTEX
  8
1
  6
CONTINUOUS
 10
36.429452
 20
35.070793
  0
VERTEX
  8
1
  6
CONTINUOUS
 10
36.829452
 20
35.070793
  0
VERTEX
  8
1
  6
CONTINUOUS
 10
36.829452
 20
35.470793
  0
VERTEX
  8
1
  6
CONTINUOUS
 10
36.429452
 20
35.470793
  0
VERTEX
  8
1
  6
CONTINUOUS
 10
36.429452
 20
35.070793
  0
SEQEND
  8
1
  6
CONTINUOUS
  0
LINE
  8
5
  6
CONTINUOUS
 10
36.829452
 20
35.070793
 11
37.029452
 21
34.870793
  0
LINE
  8
5
  6
CONTINUOUS
 10
36.829452
 20
35.470793
 11
37.029452
 21
35.670793
  0
LINE
  8
5
  6
CONTINUOUS
 10
36.429452
 20
35.470793
 11
36.229452
 21
35.670793
  0
LINE
  8
5
  6
CONTINUOUS
 10
36.429452
 20
35.070793
 11
36.229452
 21
34.870793
  0
LINE
  8
1
  6
CONTINUOUS
 10
96.404145
 20
61.718391
 11
96.404145
 21
61.718391
  0
POLYLINE
  8
1
  6
CONTINUOUS
 66
     1
  0
VERTEX
  8
1
  6
CONTINUOUS
 10
96.677775
 20
61.394158
  0
VERTEX
  8
1
  6
CONTINUOUS
 10
96.728378
 20
61.992020
  0
VERTEX
  8
1
  6
CONTINUOUS
 10
96.130516
 20
62.042624
  0
VERTEX
  8
1
  6
CONTINUOUS
 10
96.079912
 20
61.444761
  0
VERTEX
  8
1
  6
CONTINUOUS
 10
96.677775
 20
61.394158
  0
SEQEND
  8
1
  6
CONTINUOUS
  0
LINE
  8
1
  6
CONTINUOUS
 10
95.640905
 20
52.700632
 11
95.640905
 21
52.700632
  0
POLYLINE
  8
1
  6
CONTINUOUS
 66
     1
  0
VERTEX
  8
1
  6
CONTINUOUS
 10
95.914535
 20
52.376399
  0
VERTEX
  8
1
  6
CONTINUOUS
 10
95.965138
 20
52.974262
  0
VERTEX
  8
1
  6
CONTINUOUS
 10
95.367276
 20
53.024865
  0
VERTEX
  8
1
  6
CONTINUOUS
 10
95.316672
 20
52.427003
  0
VERTEX
  8
1
  6
CONTINUOUS
 10
95.914535
 20
52.376399
  0
SEQEND
  8
1
  6
CONTINUOUS
  0
LINE
  8
1
  6
CONTINUOUS
 10
89.361065
 20
51.412265
 11
89.361065
 21
51.412265
  0
POLYLINE
  8
1
  6
CONTINUOUS
 66
     1
  0
VERTEX
  8
1
  6
CONTINUOUS
 10
89.161065
 20
51.212265
  0
VERTEX
  8
1
  6
CONTINUOUS
 10
89.561065
 20
51.212265
  0
VERTEX
  8
1
  6
CONTINUOUS
 10
89.561065
 20
51.612265
  0
VERTEX
  8
1
  6
CONTINUOUS
 10
89.161065
 20
51.612265
  0
VERTEX
  8
1
  6
CONTINUOUS
 10
89.161065
 20
51.212265
  0
SEQEND
  8
1
  6
CONTINUOUS
  0
LINE
  8
1
  6
CONTINUOUS
 10
89.361065
 20
59.712203
 11
89.361065
 21
59.712203
  0
POLYLINE
  8
1
  6
CONTINUOUS
 66
     1
  0
VERTEX
  8
1
  6
CONTINUOUS
 10
89.161065
 20
59.512203
  0
VERTEX
  8
1
  6
CONTINUOUS
 10
89.561065
 20
59.512203
  0
VERTEX
  8
1
  6
CONTINUOUS
 10
89.561065
 20
59.912203
  0
VERTEX
  8
1
  6
CONTINUOUS
 10
89.161065
 20
59.912203
  0
VERTEX
  8
1
  6
CONTINUOUS
 10
89.161065
 20
59.512203
  0
SEQEND
  8
1
  6
CONTINUOUS
  0
LINE
  8
1
  6
CONTINUOUS
 10
10.819069
 20
5.674210
 11
10.819069
 21
5.674210
  0
POLYLINE
  8
1
  6
CONTINUOUS
 66
     1
  0
VERTEX
  8
1
  6
CONTINUOUS
 10
10.419069
 20
5.474210
  0
VERTEX
  8
1
  6
CONTINUOUS
 10
11.219069
 20
5.474210
  0
VERTEX
  8
1
  6
CONTINUOUS
 10
11.219069
 20
5.874210
  0
VERTEX
  8
1
  6
CONTINUOUS
 10
10.419069
 20
5.874210
  0
VERTEX
  8
1
  6
CONTINUOUS
 10
10.419069
 20
5.474210
  0
SEQEND
  8
1
  6
CONTINUOUS
  0
LINE
  8
1
  6
CONTINUOUS
 10
42.619069
 20
5.674210
 11
42.619069
 21
5.674210
  0
POLYLINE
  8
1
  6
CONTINUOUS
 66
     1
  0
VERTEX
  8
1
  6
CONTINUOUS
 10
42.219069
 20
5.474210
  0
VERTEX
  8
1
  6
CONTINUOUS
 10
43.019069
 20
5.474210
  0
VERTEX
  8
1
  6
CONTINUOUS
 10
43.019069
 20
5.874210
  0
VERTEX
  8
1
  6
CONTINUOUS
 10
42.219069
 20
5.874210
  0
VERTEX
  8
1
  6
CONTINUOUS
 10
42.219069
 20
5.474210
  0
SEQEND
  8
1
  6
CONTINUOUS
  0
LINE
  8
1
  6
CONTINUOUS
 10
58.619069
 20
5.674210
 11
58.619069
 21
5.674210
  0
POLYLINE
  8
1
  6
CONTINUOUS
 66
     1
  0
VERTEX
  8
1
  6
CONTINUOUS
 10
58.219069
 20
5.474210
  0
VERTEX
  8
1
  6
CONTINUOUS
 10
59.019069
 20
5.474210
  0
VERTEX
  8
1
  6
CONTINUOUS
 10
59.019069
 20
5.874210
  0
VERTEX
  8
1
  6
CONTINUOUS
 10
58.219069
 20
5.874210
  0
VERTEX
  8
1
  6
CONTINUOUS
 10
58.219069
 20
5.474210
  0
SEQEND
  8
1
  6
CONTINUOUS
  0
LINE
  8
1
  6
CONTINUOUS
 10
74.619069
 20
5.674210
 11
74.619069
 21
5.674210
  0
POLYLINE
  8
1
  6
CONTINUOUS
 66
     1
  0
VERTEX
  8
1
  6
CONTINUOUS
 10
74.219069
 20
5.474210
  0
VERTEX
  8
1
  6
CONTINUOUS
 10
75.019069
 20
5.474210
  0
VERTEX
  8
1
  6
CONTINUOUS
 10
75.019069
 20
5.874210
  0
VERTEX
  8
1
  6
CONTINUOUS
 10
74.219069
 20
5.874210
  0
VERTEX
  8
1
  6
CONTINUOUS
 10
74.219069
 20
5.474210
  0
SEQEND
  8
1
  6
CONTINUOUS
  0
LINE
  8
1
  6
CONTINUOUS
 10
10.619069
 20
21.278080
 11
10.619069
 21
21.278080
  0
POLYLINE
  8
1
  6
CONTINUOUS
 66
     1
  0
VERTEX
  8
1
  6
CONTINUOUS
 10
10.419069
 20
20.878080
  0
VERTEX
  8
1
  6
CONTINUOUS
 10
10.819069
 20
20.878080
  0
VERTEX
  8
1
  6
CONTINUOUS
 10
10.819069
 20
21.678080
  0
VERTEX
  8
1
  6
CONTINUOUS
 10
10.419069
 20
21.678080
  0
VERTEX
  8
1
  6
CONTINUOUS
 10
10.419069
 20
20.878080
  0
SEQEND
  8
1
  6
CONTINUOUS
  0
LINE
  8
1
  6
CONTINUOUS
 10
20.619069
 20
21.478080
 11
20.619069
 21
21.478080
  0
POLYLINE
  8
1
  6
CONTINUOUS
 66
     1
  0
VERTEX
  8
1
  6
CONTINUOUS
 10
20.219069
 20
21.278080
  0
VERTEX
  8
1
  6
CONTINUOUS
 10
21.019069
 20
21.278080
  0
VERTEX
  8
1
  6
CONTINUOUS
 10
21.019069
 20
21.678080
  0
VERTEX
  8
1
  6
CONTINUOUS
 10
20.219069
 20
21.678080
  0
VERTEX
  8
1
  6
CONTINUOUS
 10
20.219069
 20
21.278080
  0
SEQEND
  8
1
  6
CONTINUOUS
  0
LINE
  8
1
  6
CONTINUOUS
 10
32.929069
 20
17.679313
 11
32.929069
 21
17.679313
  0
POLYLINE
  8
1
  6
CONTINUOUS
 66
     1
  0
VERTEX
  8
1
  6
CONTINUOUS
 10
32.729069
 20
17.279313
  0
VERTEX
  8
1
  6
CONTINUOUS
 10
33.129069
 20
17.279313
  0
VERTEX
  8
1
  6
CONTINUOUS
 10
33.129069
 20
18.079313
  0
VERTEX
  8
1
  6
CONTINUOUS
 10
32.729069
 20
18.079313
  0
VERTEX
  8
1
  6
CONTINUOUS
 10
32.729069
 20
17.279313
  0
SEQEND
  8
1
  6
CONTINUOUS
  0
LINE
  8
1
  6
CONTINUOUS
 10
45.418333
 20
17.679313
 11
45.418333
 21
17.679313
  0
POLYLINE
  8
1
  6
CONTINUOUS
 66
     1
  0
VERTEX
  8
1
  6
CONTINUOUS
 10
45.218333
 20
17.279313
  0
VERTEX
  8
1
  6
CONTINUOUS
 10
45.618333
 20
17.279313
  0
VERTEX
  8
1
  6
CONTINUOUS
 10
45.618333
 20
18.079313
  0
VERTEX
  8
1
  6
CONTINUOUS
 10
45.218333
 20
18.079313
  0
VERTEX
  8
1
  6
CONTINUOUS
 10
45.218333
 20
17.279313
  0
SEQEND
  8
1
  6
CONTINUOUS
  0
LINE
  8
1
  6
CONTINUOUS
 10
54.298333
 20
13.988080
 11
54.298333
 21
13.988080
  0
POLYLINE
  8
1
  6
CONTINUOUS
 66
     1
  0
VERTEX
  8
1
  6
CONTINUOUS
 10
53.898333
 20
13.788080
  0
VERTEX
  8
1
  6
CONTINUOUS
 10
54.698333
 20
13.788080
  0
VERTEX
  8
1
  6
CONTINUOUS
 10
54.698333
 20
14.188080
  0
VERTEX
  8
1
  6
CONTINUOUS
 10
53.898333
 20
14.188080
  0
VERTEX
  8
1
  6
CONTINUOUS
 10
53.898333
 20
13.788080
  0
SEQEND
  8
1
  6
CONTINUOUS
  0
LINE
  8
1
  6
CONTINUOUS
 10
71.984382
 20
17.688080
 11
71.984382
 21
17.688080
  0
POLYLINE
  8
1
  6
CONTINUOUS
 66
     1
  0
VERTEX
  8
1
  6
CONTINUOUS
 10
71.784382
 20
17.288080
  0
VERTEX
  8
1
  6
CONTINUOUS
 10
72.184382
 20
17.288080
  0
VERTEX
  8
1
  6
CONTINUOUS
 10
72.184382
 20
18.088080
  0
VERTEX
  8
1
  6
CONTINUOUS
 10
71.784382
 20
18.088080
  0
VERTEX
  8
1
  6
CONTINUOUS
 10
71.784382
 20
17.288080
  0
SEQEND
  8
1
  6
CONTINUOUS
  0
LINE
  8
1
  6
CONTINUOUS
 10
80.639695
 20
17.488080
 11
80.639695
 21
17.488080
  0
POLYLINE
  8
1
  6
CONTINUOUS
 66
     1
  0
VERTEX
  8
1
  6
CONTINUOUS
 10
80.439695
 20
17.088080
  0
VERTEX
  8
1
  6
CONTINUOUS
 10
80.839695
 20
17.088080
  0
VERTEX
  8
1
  6
CONTINUOUS
 10
80.839695
 20
17.888080
  0
VERTEX
  8
1
  6
CONTINUOUS
 10
80.439695
 20
17.888080
  0
VERTEX
  8
1
  6
CONTINUOUS
 10
80.439695
 20
17.088080
  0
SEQEND
  8
1
  6
CONTINUOUS
  0
LINE
  8
1
  6
CONTINUOUS
 10
10.819069
 20
41.478080
 11
10.819069
 21
41.478080
  0
POLYLINE
  8
1
  6
CONTINUOUS
 66
     1
  0
VERTEX
  8
1
  6
CONTINUOUS
 10
10.419069
 20
41.278080
  0
VERTEX
  8
1
  6
CONTINUOUS
 10
11.219069
 20
41.278080
  0
VERTEX
  8
1
  6
CONTINUOUS
 10
11.219069
 20
41.678080
  0
VERTEX
  8
1
  6
CONTINUOUS
 10
10.419069
 20
41.678080
  0
VERTEX
  8
1
  6
CONTINUOUS
 10
10.419069
 20
41.278080
  0
SEQEND
  8
1
  6
CONTINUOUS
  0
LINE
  8
1
  6
CONTINUOUS
 10
26.619069
 20
41.478080
 11
26.619069
 21
41.478080
  0
POLYLINE
  8
1
  6
CONTINUOUS
 66
     1
  0
VERTEX
  8
1
  6
CONTINUOUS
 10
26.219069
 20
41.278080
  0
VERTEX
  8
1
  6
CONTINUOUS
 10
27.019069
 20
41.278080
  0
VERTEX
  8
1
  6
CONTINUOUS
 10
27.019069
 20
41.678080
  0
VERTEX
  8
1
  6
CONTINUOUS
 10
26.219069
 20
41.678080
  0
VERTEX
  8
1
  6
CONTINUOUS
 10
26.219069
 20
41.278080
  0
SEQEND
  8
1
  6
CONTINUOUS
  0
LINE
  8
1
  6
CONTINUOUS
 10
42.619069
 20
41.478080
 11
42.619069
 21
41.478080
  0
POLYLINE
  8
1
  6
CONTINUOUS
 66
     1
  0
VERTEX
  8
1
  6
CONTINUOUS
 10
42.219069
 20
41.278080
  0
VERTEX
  8
1
  6
CONTINUOUS
 10
43.019069
 20
41.278080
  0
VERTEX
  8
1
  6
CONTINUOUS
 10
43.019069
 20
41.678080
  0
VERTEX
  8
1
  6
CONTINUOUS
 10
42.219069
 20
41.678080
  0
VERTEX
  8
1
  6
CONTINUOUS
 10
42.219069
 20
41.278080
  0
SEQEND
  8
1
  6
CONTINUOUS
  0
LINE
  8
1
  6
CONTINUOUS
 10
58.619069
 20
41.478080
 11
58.619069
 21
41.478080
  0
POLYLINE
  8
1
  6
CONTINUOUS
 66
     1
  0
VERTEX
  8
1
  6
CONTINUOUS
 10
58.219069
 20
41.278080
  0
VERTEX
  8
1
  6
CONTINUOUS
 10
59.019069
 20
41.278080
  0
VERTEX
  8
1
  6
CONTINUOUS
 10
59.019069
 20
41.678080
  0
VERTEX
  8
1
  6
CONTINUOUS
 10
58.219069
 20
41.678080
  0
VERTEX
  8
1
  6
CONTINUOUS
 10
58.219069
 20
41.278080
  0
SEQEND
  8
1
  6
CONTINUOUS
  0
LINE
  8
1
  6
CONTINUOUS
 10
71.984382
 20
27.668080
 11
71.984382
 21
27.668080
  0
POLYLINE
  8
1
  6
CONTINUOUS
 66
     1
  0
VERTEX
  8
1
  6
CONTINUOUS
 10
71.784382
 20
27.268080
  0
VERTEX
  8
1
  6
CONTINUOUS
 10
72.184382
 20
27.268080
  0
VERTEX
  8
1
  6
CONTINUOUS
 10
72.184382
 20
28.068080
  0
VERTEX
  8
1
  6
CONTINUOUS
 10
71.784382
 20
28.068080
  0
VERTEX
  8
1
  6
CONTINUOUS
 10
71.784382
 20
27.268080
  0
SEQEND
  8
1
  6
CONTINUOUS
  0
LINE
  8
1
  6
CONTINUOUS
 10
80.639695
 20
30.099313
 11
80.639695
 21
30.099313
  0
POLYLINE
  8
1
  6
CONTINUOUS
 66
     1
  0
VERTEX
  8
1
  6
CONTINUOUS
 10
80.439695
 20
29.699313
  0
VERTEX
  8
1
  6
CONTINUOUS
 10
80.839695
 20
29.699313
  0
VERTEX
  8
1
  6
CONTINUOUS
 10
80.839695
 20
30.499313
  0
VERTEX
  8
1
  6
CONTINUOUS
 10
80.439695
 20
30.499313
  0
VERTEX
  8
1
  6
CONTINUOUS
 10
80.439695
 20
29.699313
  0
SEQEND
  8
1
  6
CONTINUOUS
  0
LINE
  8
1
  6
CONTINUOUS
 10
45.418333
 20
30.099313
 11
45.418333
 21
30.099313
  0
POLYLINE
  8
1
  6
CONTINUOUS
 66
     1
  0
VERTEX
  8
1
  6
CONTINUOUS
 10
45.018333
 20
29.899313
  0
VERTEX
  8
1
  6
CONTINUOUS
 10
45.818333
 20
29.899313
  0
VERTEX
  8
1
  6
CONTINUOUS
 10
45.818333
 20
30.299313
  0
VERTEX
  8
1
  6
CONTINUOUS
 10
45.018333
 20
30.299313
  0
VERTEX
  8
1
  6
CONTINUOUS
 10
45.018333
 20
29.899313
  0
SEQEND
  8
1
  6
CONTINUOUS
  0
LINE
  8
1
  6
CONTINUOUS
 10
54.298333
 20
26.479313
 11
54.298333
 21
26.479313
  0
POLYLINE
  8
1
  6
CONTINUOUS
 66
     1
  0
VERTEX
  8
1
  6
CONTINUOUS
 10
53.898333
 20
26.279313
  0
VERTEX
  8
1
  6
CONTINUOUS
 10
54.698333
 20
26.279313
  0
VERTEX
  8
1
  6
CONTINUOUS
 10
54.698333
 20
26.679313
  0
VERTEX
  8
1
  6
CONTINUOUS
 10
53.898333
 20
26.679313
  0
VERTEX
  8
1
  6
CONTINUOUS
 10
53.898333
 20
26.279313
  0
SEQEND
  8
1
  6
CONTINUOUS
  0
LINE
  8
1
  6
CONTINUOUS
 10
10.619069
 20
26.078080
 11
10.619069
 21
26.078080
  0
POLYLINE
  8
1
  6
CONTINUOUS
 66
     1
  0
VERTEX
  8
1
  6
CONTINUOUS
 10
10.419069
 20
25.678080
  0
VERTEX
  8
1
  6
CONTINUOUS
 10
10.819069
 20
25.678080
  0
VERTEX
  8
1
  6
CONTINUOUS
 10
10.819069
 20
26.478080
  0
VERTEX
  8
1
  6
CONTINUOUS
 10
10.419069
 20
26.478080
  0
VERTEX
  8
1
  6
CONTINUOUS
 10
10.419069
 20
25.678080
  0
SEQEND
  8
1
  6
CONTINUOUS
  0
LINE
  8
1
  6
CONTINUOUS
 10
20.619069
 20
25.878080
 11
20.619069
 21
25.878080
  0
POLYLINE
  8
1
  6
CONTINUOUS
 66
     1
  0
VERTEX
  8
1
  6
CONTINUOUS
 10
20.219069
 20
25.678080
  0
VERTEX
  8
1
  6
CONTINUOUS
 10
21.019069
 20
25.678080
  0
VERTEX
  8
1
  6
CONTINUOUS
 10
21.019069
 20
26.078080
  0
VERTEX
  8
1
  6
CONTINUOUS
 10
20.219069
 20
26.078080
  0
VERTEX
  8
1
  6
CONTINUOUS
 10
20.219069
 20
25.678080
  0
SEQEND
  8
1
  6
CONTINUOUS
  0
LINE
  8
1
  6
CONTINUOUS
 10
32.919069
 20
29.789313
 11
32.919069
 21
29.789313
  0
POLYLINE
  8
1
  6
CONTINUOUS
 66
     1
  0
VERTEX
  8
1
  6
CONTINUOUS
 10
32.719069
 20
29.389313
  0
VERTEX
  8
1
  6
CONTINUOUS
 10
33.119069
 20
29.389313
  0
VERTEX
  8
1
  6
CONTINUOUS
 10
33.119069
 20
30.189313
  0
VERTEX
  8
1
  6
CONTINUOUS
 10
32.719069
 20
30.189313
  0
VERTEX
  8
1
  6
CONTINUOUS
 10
32.719069
 20
29.389313
  0
SEQEND
  8
1
  6
CONTINUOUS
  0
LINE
  8
1
  6
CONTINUOUS
 10
90.104615
 20
67.207109
 11
90.104615
 21
67.207109
  0
POLYLINE
  8
1
  6
CONTINUOUS
 66
     1
  0
VERTEX
  8
1
  6
CONTINUOUS
 10
89.674615
 20
67.007109
  0
VERTEX
  8
1
  6
CONTINUOUS
 10
90.534615
 20
67.007109
  0
VERTEX
  8
1
  6
CONTINUOUS
 10
90.534615
 20
67.407109
  0
VERTEX
  8
1
  6
CONTINUOUS
 10
89.674615
 20
67.407109
  0
VERTEX
  8
1
  6
CONTINUOUS
 10
89.674615
 20
67.007109
  0
SEQEND
  8
1
  6
CONTINUOUS
  0
LINE
  8
1
  6
CONTINUOUS
 10
89.561065
 20
41.478080
 11
89.561065
 21
41.478080
  0
POLYLINE
  8
1
  6
CONTINUOUS
 66
     1
  0
VERTEX
  8
1
  6
CONTINUOUS
 10
89.161065
 20
41.278080
  0
VERTEX
  8
1
  6
CONTINUOUS
 10
89.961065
 20
41.278080
  0
VERTEX
  8
1
  6
CONTINUOUS
 10
89.961065
 20
41.678080
  0
VERTEX
  8
1
  6
CONTINUOUS
 10
89.161065
 20
41.678080
  0
VERTEX
  8
1
  6
CONTINUOUS
 10
89.161065
 20
41.278080
  0
SEQEND
  8
1
  6
CONTINUOUS
  0
LINE
  8
1
  6
CONTINUOUS
 10
75.213327
 20
35.270793
 11
75.213327
 21
35.270793
  0
POLYLINE
  8
1
  6
CONTINUOUS
 66
     1
  0
VERTEX
  8
1
  6
CONTINUOUS
 10
75.013327
 20
35.070793
  0
VERTEX
  8
1
  6
CONTINUOUS
 10
75.413327
 20
35.070793
  0
VERTEX
  8
1
  6
CONTINUOUS
 10
75.413327
 20
35.470793
  0
VERTEX
  8
1
  6
CONTINUOUS
 10
75.013327
 20
35.470793
  0
VERTEX
  8
1
  6
CONTINUOUS
 10
75.013327
 20
35.070793
  0
SEQEND
  8
1
  6
CONTINUOUS
  0
LINE
  8
5
  6
CONTINUOUS
 10
75.413327
 20
35.070793
 11
75.613327
 21
34.870793
  0
LINE
  8
5
  6
CONTINUOUS
 10
75.413327
 20
35.470793
 11
75.613327
 21
35.670793
  0
LINE
  8
5
  6
CONTINUOUS
 10
75.013327
 20
35.470793
 11
74.813327
 21
35.670793
  0
LINE
  8
5
  6
CONTINUOUS
 10
75.013327
 20
35.070793
 11
74.813327
 21
34.870793
  0
LINE
  8
1
  6
CONTINUOUS
 10
85.961065
 20
35.270793
 11
85.961065
 21
35.270793
  0
POLYLINE
  8
1
  6
CONTINUOUS
 66
     1
  0
VERTEX
  8
1
  6
CONTINUOUS
 10
85.761065
 20
35.070793
  0
VERTEX
  8
1
  6
CONTINUOUS
 10
86.161065
 20
35.070793
  0
VERTEX
  8
1
  6
CONTINUOUS
 10
86.161065
 20
35.470793
  0
VERTEX
  8
1
  6
CONTINUOUS
 10
85.761065
 20
35.470793
  0
VERTEX
  8
1
  6
CONTINUOUS
 10
85.761065
 20
35.070793
  0
SEQEND
  8
1
  6
CONTINUOUS
  0
LINE
  8
5
  6
CONTINUOUS
 10
86.161065
 20
35.070793
 11
86.361065
 21
34.870793
  0
LINE
  8
5
  6
CONTINUOUS
 10
86.161065
 20
35.470793
 11
86.361065
 21
35.670793
  0
LINE
  8
5
  6
CONTINUOUS
 10
85.761065
 20
35.470793
 11
85.561065
 21
35.670793
  0
LINE
  8
5
  6
CONTINUOUS
 10
85.761065
 20
35.070793
 11
85.561065
 21
34.870793
  0
LINE
  8
1
  6
CONTINUOUS
 10
47.885263
 20
16.785627
 11
47.885263
 21
16.785627
  0
POLYLINE
  8
1
  6
CONTINUOUS
 66
     1
  0
VERTEX
  8
1
  6
CONTINUOUS
 10
47.685263
 20
16.585627
  0
VERTEX
  8
1
  6
CONTINUOUS
 10
48.085263
 20
16.585627
  0
VERTEX
  8
1
  6
CONTINUOUS
 10
48.085263
 20
16.985627
  0
VERTEX
  8
1
  6
CONTINUOUS
 10
47.685263
 20
16.985627
  0
VERTEX
  8
1
  6
CONTINUOUS
 10
47.685263
 20
16.585627
  0
SEQEND
  8
1
  6
CONTINUOUS
  0
LINE
  8
5
  6
CONTINUOUS
 10
48.085263
 20
16.585627
 11
48.285263
 21
16.385627
  0
LINE
  8
5
  6
CONTINUOUS
 10
48.085263
 20
16.985627
 11
48.285263
 21
17.185627
  0
LINE
  8
5
  6
CONTINUOUS
 10
47.685263
 20
16.985627
 11
47.485263
 21
17.185627
  0
LINE
  8
5
  6
CONTINUOUS
 10
47.685263
 20
16.585627
 11
47.485263
 21
16.385627
  0
LINE
  8
1
  6
CONTINUOUS
 10
49.229452
 20
35.270793
 11
49.229452
 21
35.270793
  0
POLYLINE
  8
1
  6
CONTINUOUS
 66
     1
  0
VERTEX
  8
1
  6
CONTINUOUS
 10
49.029452
 20
35.070793
  0
VERTEX
  8
1
  6
CONTINUOUS
 10
49.429452
 20
35.070793
  0
VERTEX
  8
1
  6
CONTINUOUS
 10
49.429452
 20
35.470793
  0
VERTEX
  8
1
  6
CONTINUOUS
 10
49.029452
 20
35.470793
  0
VERTEX
  8
1
  6
CONTINUOUS
 10
49.029452
 20
35.070793
  0
SEQEND
  8
1
  6
CONTINUOUS
  0
LINE
  8
5
  6
CONTINUOUS
 10
49.429452
 20
35.070793
 11
49.629452
 21
34.870793
  0
LINE
  8
5
  6
CONTINUOUS
 10
49.429452
 20
35.470793
 11
49.629452
 21
35.670793
  0
LINE
  8
5
  6
CONTINUOUS
 10
49.029452
 20
35.470793
 11
48.829452
 21
35.670793
  0
LINE
  8
5
  6
CONTINUOUS
 10
49.029452
 20
35.070793
 11
48.829452
 21
34.870793
  0
LINE
  8
1
  6
CONTINUOUS
 10
36.629452
 20
26.028210
 11
36.629452
 21
26.028210
  0
POLYLINE
  8
1
  6
CONTINUOUS
 66
     1
  0
VERTEX
  8
1
  6
CONTINUOUS
 10
36.429452
 20
25.828210
  0
VERTEX
  8
1
  6
CONTINUOUS
 10
36.829452
 20
25.828210
  0
VERTEX
  8
1
  6
CONTINUOUS
 10
36.829452
 20
26.228210
  0
VERTEX
  8
1
  6
CONTINUOUS
 10
36.429452
 20
26.228210
  0
VERTEX
  8
1
  6
CONTINUOUS
 10
36.429452
 20
25.828210
  0
SEQEND
  8
1
  6
CONTINUOUS
  0
LINE
  8
5
  6
CONTINUOUS
 10
36.829452
 20
25.828210
 11
37.029452
 21
25.628210
  0
LINE
  8
5
  6
CONTINUOUS
 10
36.829452
 20
26.228210
 11
37.029452
 21
26.428210
  0
LINE
  8
5
  6
CONTINUOUS
 10
36.429452
 20
26.228210
 11
36.229452
 21
26.428210
  0
LINE
  8
5
  6
CONTINUOUS
 10
36.429452
 20
25.828210
 11
36.229452
 21
25.628210
  0
LINE
  8
1
  6
CONTINUOUS
 10
49.271581
 20
26.028210
 11
49.271581
 21
26.028210
  0
POLYLINE
  8
1
  6
CONTINUOUS
 66
     1
  0
VERTEX
  8
1
  6
CONTINUOUS
 10
49.071581
 20
25.828210
  0
VERTEX
  8
1
  6
CONTINUOUS
 10
49.471581
 20
25.828210
  0
VERTEX
  8
1
  6
CONTINUOUS
 10
49.471581
 20
26.228210
  0
VERTEX
  8
1
  6
CONTINUOUS
 10
49.071581
 20
26.228210
  0
VERTEX
  8
1
  6
CONTINUOUS
 10
49.071581
 20
25.828210
  0
SEQEND
  8
1
  6
CONTINUOUS
  0
LINE
  8
5
  6
CONTINUOUS
 10
49.471581
 20
25.828210
 11
49.671581
 21
25.628210
  0
LINE
  8
5
  6
CONTINUOUS
 10
49.471581
 20
26.228210
 11
49.671581
 21
26.428210
  0
LINE
  8
5
  6
CONTINUOUS
 10
49.071581
 20
26.228210
 11
48.871581
 21
26.428210
  0
LINE
  8
5
  6
CONTINUOUS
 10
49.071581
 20
25.828210
 11
48.871581
 21
25.628210
  0
LINE
  8
1
  6
CONTINUOUS
 10
86.686835
 20
23.678210
 11
86.686835
 21
23.678210
  0
POLYLINE
  8
1
  6
CONTINUOUS
 66
     1
  0
VERTEX
  8
1
  6
CONTINUOUS
 10
86.486835
 20
23.478210
  0
VERTEX
  8
1
  6
CONTINUOUS
 10
86.886835
 20
23.478210
  0
VERTEX
  8
1
  6
CONTINUOUS
 10
86.886835
 20
23.878210
  0
VERTEX
  8
1
  6
CONTINUOUS
 10
86.486835
 20
23.878210
  0
VERTEX
  8
1
  6
CONTINUOUS
 10
86.486835
 20
23.478210
  0
SEQEND
  8
1
  6
CONTINUOUS
  0
LINE
  8
5
  6
CONTINUOUS
 10
86.886835
 20
23.478210
 11
87.086835
 21
23.278210
  0
LINE
  8
5
  6
CONTINUOUS
 10
86.886835
 20
23.878210
 11
87.086835
 21
24.078210
  0
LINE
  8
5
  6
CONTINUOUS
 10
86.486835
 20
23.878210
 11
86.286835
 21
24.078210
  0
LINE
  8
5
  6
CONTINUOUS
 10
86.486835
 20
23.478210
 11
86.286835
 21
23.278210
  0
LINE
  8
1
  6
CONTINUOUS
 10
86.686855
 20
12.085627
 11
86.686855
 21
12.085627
  0
POLYLINE
  8
1
  6
CONTINUOUS
 66
     1
  0
VERTEX
  8
1
  6
CONTINUOUS
 10
86.486855
 20
11.885627
  0
VERTEX
  8
1
  6
CONTINUOUS
 10
86.886855
 20
11.885627
  0
VERTEX
  8
1
  6
CONTINUOUS
 10
86.886855
 20
12.285627
  0
VERTEX
  8
1
  6
CONTINUOUS
 10
86.486855
 20
12.285627
  0
VERTEX
  8
1
  6
CONTINUOUS
 10
86.486855
 20
11.885627
  0
SEQEND
  8
1
  6
CONTINUOUS
  0
LINE
  8
5
  6
CONTINUOUS
 10
86.886855
 20
11.885627
 11
87.086855
 21
11.685627
  0
LINE
  8
5
  6
CONTINUOUS
 10
86.886855
 20
12.285627
 11
87.086855
 21
12.485627
  0
LINE
  8
5
  6
CONTINUOUS
 10
86.486855
 20
12.285627
 11
86.286855
 21
12.485627
  0
LINE
  8
5
  6
CONTINUOUS
 10
86.486855
 20
11.885627
 11
86.286855
 21
11.685627
  0
LINE
  8
1
  6
CONTINUOUS
 10
96.859504
 20
67.081192
 11
96.859504
 21
67.081192
  0
POLYLINE
  8
1
  6
CONTINUOUS
 66
     1
  0
VERTEX
  8
1
  6
CONTINUOUS
 10
97.133134
 20
66.756959
  0
VERTEX
  8
1
  6
CONTINUOUS
 10
97.183737
 20
67.354821
  0
VERTEX
  8
1
  6
CONTINUOUS
 10
96.585875
 20
67.405424
  0
VERTEX
  8
1
  6
CONTINUOUS
 10
96.535271
 20
66.807562
  0
VERTEX
  8
1
  6
CONTINUOUS
 10
97.133134
 20
66.756959
  0
SEQEND
  8
1
  6
CONTINUOUS
  0
LINE
  8
1
  6
CONTINUOUS
 10
39.055000
 20
23.385979
 11
39.055000
 21
23.385979
  0
LINE
  8
1
  6
CONTINUOUS
 10
37.958333
 20
22.239313
 11
37.958333
 21
22.239313
  0
POLYLINE
  8
1
  6
CONTINUOUS
 66
     1
  0
VERTEX
  8
1
  6
CONTINUOUS
 10
37.708333
 20
21.989313
  0
VERTEX
  8
1
  6
CONTINUOUS
 10
42.408333
 20
21.989313
  0
VERTEX
  8
1
  6
CONTINUOUS
 10
42.408333
 20
22.489313
  0
VERTEX
  8
1
  6
CONTINUOUS
 10
38.208333
 20
22.489313
  0
VERTEX
  8
1
  6
CONTINUOUS
 10
38.208333
 20
26.789313
  0
VERTEX
  8
1
  6
CONTINUOUS
 10
37.708333
 20
26.789313
  0
VERTEX
  8
1
  6
CONTINUOUS
 10
37.708333
 20
21.989313
  0
SEQEND
  8
1
  6
CONTINUOUS
  0
LINE
  8
1
  6
CONTINUOUS
 10
63.378333
 20
27.868080
 11
63.378333
 21
27.868080
  0
POLYLINE
  8
1
  6
CONTINUOUS
 66
     1
  0
VERTEX
  8
1
  6
CONTINUOUS
 10
62.778333
 20
27.668080
  0
VERTEX
  8
1
  6
CONTINUOUS
 10
63.978333
 20
27.668080
  0
VERTEX
  8
1
  6
CONTINUOUS
 10
63.978333
 20
28.068080
  0
VERTEX
  8
1
  6
CONTINUOUS
 10
62.778333
 20
28.068080
  0
VERTEX
  8
1
  6
CONTINUOUS
 10
62.778333
 20
27.668080
  0
SEQEND
  8
1
  6
CONTINUOUS
  0
LINE
  8
1
  6
CONTINUOUS
 10
63.378333
 20
17.488080
 11
63.378333
 21
17.488080
  0
POLYLINE
  8
1
  6
CONTINUOUS
 66
     1
  0
VERTEX
  8
1
  6
CONTINUOUS
 10
62.978333
 20
17.288080
  0
VERTEX
  8
1
  6
CONTINUOUS
 10
63.778333
 20
17.288080
  0
VERTEX
  8
1
  6
CONTINUOUS
 10
63.778333
 20
17.688080
  0
VERTEX
  8
1
  6
CONTINUOUS
 10
62.978333
 20
17.688080
  0
VERTEX
  8
1
  6
CONTINUOUS
 10
62.978333
 20
17.288080
  0
SEQEND
  8
1
  6
CONTINUOUS
  0
LINE
  8
1
  6
CONTINUOUS
 10
26.619069
 20
5.674210
 11
26.619069
 21
5.674210
  0
POLYLINE
  8
1
  6
CONTINUOUS
 66
     1
  0
VERTEX
  8
1
  6
CONTINUOUS
 10
26.219069
 20
5.474210
  0
VERTEX
  8
1
  6
CONTINUOUS
 10
27.019069
 20
5.474210
  0
VERTEX
  8
1
  6
CONTINUOUS
 10
27.019069
 20
5.874210
  0
VERTEX
  8
1
  6
CONTINUOUS
 10
26.219069
 20
5.874210
  0
VERTEX
  8
1
  6
CONTINUOUS
 10
26.219069
 20
5.474210
  0
SEQEND
  8
1
  6
CONTINUOUS
  0
LINE
  8
1
  6
CONTINUOUS
 10
94.696677
 20
41.502693
 11
94.696677
 21
41.502693
  0
POLYLINE
  8
1
  6
CONTINUOUS
 66
     1
  0
VERTEX
  8
1
  6
CONTINUOUS
 10
94.970306
 20
41.178460
  0
VERTEX
  8
1
  6
CONTINUOUS
 10
95.020910
 20
41.776322
  0
VERTEX
  8
1
  6
CONTINUOUS
 10
94.423047
 20
41.826925
  0
VERTEX
  8
1
  6
CONTINUOUS
 10
94.372444
 20
41.229063
  0
VERTEX
  8
1
  6
CONTINUOUS
 10
94.970306
 20
41.178460
  0
SEQEND
  8
1
  6
CONTINUOUS
  0
LINE
  8
1
  6
CONTINUOUS
 10
89.561065
 20
59.912207
 11
90.254615
 21
67.007109
  0
LINE
  8
1
  6
CONTINUOUS
 10
89.561065
 20
67.007109
 11
90.254615
 21
59.912207
  0
LINE
  8
1
  6
CONTINUOUS
 10
78.261066
 20
58.508070
 11
82.161459
 21
62.308075
  0
LINE
  8
1
  6
CONTINUOUS
 10
78.261071
 20
62.308070
 11
82.161454
 21
58.508075
  0
LINE
  8
1
  6
CONTINUOUS
 10
82.554186
 20
72.807943
 11
86.564183
 21
76.707942
  0
LINE
  8
1
  6
CONTINUOUS
 10
82.554186
 20
76.707942
 11
86.564183
 21
72.807943
  0
LINE
  8
1
  6
CONTINUOUS
 10
78.261066
 20
72.807943
 11
82.274186
 21
76.707942
  0
LINE
  8
1
  6
CONTINUOUS
 10
78.261066
 20
76.707942
 11
82.274186
 21
72.807943
  0
LINE
  8
1
  6
CONTINUOUS
 10
78.261066
 20
51.168070
 11
80.743344
 21
53.468071
  0
LINE
  8
1
  6
CONTINUOUS
 10
78.261070
 20
58.108066
 11
80.851269
 21
55.708070
  0
LINE
  8
1
  6
CONTINUOUS
 10
83.268792
 20
53.468071
 11
85.751070
 21
51.168070
  0
LINE
  8
1
  6
CONTINUOUS
 10
89.561065
 20
41.678080
 11
95.917668
 21
59.512207
  0
LINE
  8
1
  6
CONTINUOUS
 10
89.561067
 20
59.512203
 11
94.697610
 21
45.101084
  0
LINE
  8
4
  6
CONTINUOUS
 10
5.959069
 20
5.674210
 11
5.959069
 21
4.774210
  0
LINE
  8
4
  6
CONTINUOUS
 10
5.891569
 20
4.774210
 11
6.026569
 21
4.774210
  0
LINE
  8
4
  6
CONTINUOUS
 10
5.891569
 20
4.774210
 11
5.959069
 21
3.874210
  0
LINE
  8
4
  6
CONTINUOUS
 10
6.026569
 20
4.774210
 11
5.959069
 21
3.874210
  0
LINE
  8
4
  6
CONTINUOUS
 10
5.824069
 20
5.044210
 11
6.094069
 21
5.044210
  0
LINE
  8
4
  6
CONTINUOUS
 10
5.959069
 20
40.178080
 11
5.959069
 21
41.378080
  0
LINE
  8
4
  6
CONTINUOUS
 10
6.079069
 20
41.378080
 11
5.839069
 21
41.378080
  0
LINE
  8
4
  6
CONTINUOUS
 10
6.079069
 20
41.354080
 11
5.839069
 21
41.354080
  0
LINE
  8
4
  6
CONTINUOUS
 10
6.079069
 20
41.330080
 11
5.839069
 21
41.330080
  0
POLYLINE
  8
4
  6
CONTINUOUS
 66
     1
  0
VERTEX
  8
4
  6
CONTINUOUS
 10
5.959069
 20
40.178080
  0
VERTEX
  8
4
  6
CONTINUOUS
 10
5.959069
 20
5.674210
  0
SEQEND
  8
4
  6
CONTINUOUS
  0
LINE
  8
4
  6
CONTINUOUS
 10
6.939069
 20
5.674210
 11
6.939069
 21
4.774210
  0
LINE
  8
4
  6
CONTINUOUS
 10
6.871569
 20
4.774210
 11
7.006569
 21
4.774210
  0
LINE
  8
4
  6
CONTINUOUS
 10
6.871569
 20
4.774210
 11
6.939069
 21
3.874210
  0
LINE
  8
4
  6
CONTINUOUS
 10
7.006569
 20
4.774210
 11
6.939069
 21
3.874210
  0
LINE
  8
4
  6
CONTINUOUS
 10
6.804069
 20
5.044210
 11
7.074069
 21
5.044210
  0
LINE
  8
4
  6
CONTINUOUS
 10
6.939069
 20
40.178080
 11
6.939069
 21
41.378080
  0
LINE
  8
4
  6
CONTINUOUS
 10
7.059069
 20
41.378080
 11
6.819069
 21
41.378080
  0
LINE
  8
4
  6
CONTINUOUS
 10
7.059069
 20
41.354080
 11
6.819069
 21
41.354080
  0
LINE
  8
4
  6
CONTINUOUS
 10
7.059069
 20
41.330080
 11
6.819069
 21
41.330080
  0
POLYLINE
  8
4
  6
CONTINUOUS
 66
     1
  0
VERTEX
  8
4
  6
CONTINUOUS
 10
6.939069
 20
40.178080
  0
VERTEX
  8
4
  6
CONTINUOUS
 10
6.939069
 20
5.674210
  0
SEQEND
  8
4
  6
CONTINUOUS
  0
LINE
  8
4
  6
CONTINUOUS
 10
7.919069
 20
5.674210
 11
7.919069
 21
4.774210
  0
LINE
  8
4
  6
CONTINUOUS
 10
7.851569
 20
4.774210
 11
7.986569
 21
4.774210
  0
LINE
  8
4
  6
CONTINUOUS
 10
7.851569
 20
4.774210
 11
7.919069
 21
3.874210
  0
LINE
  8
4
  6
CONTINUOUS
 10
7.986569
 20
4.774210
 11
7.919069
 21
3.874210
  0
LINE
  8
4
  6
CONTINUOUS
 10
7.784069
 20
5.044210
 11
8.054069
 21
5.044210
  0
LINE
  8
4
  6
CONTINUOUS
 10
7.919069
 20
40.178080
 11
7.919069
 21
41.378080
  0
LINE
  8
4
  6
CONTINUOUS
 10
8.039069
 20
41.378080
 11
7.799069
 21
41.378080
  0
LINE
  8
4
  6
CONTINUOUS
 10
8.039069
 20
41.354080
 11
7.799069
 21
41.354080
  0
LINE
  8
4
  6
CONTINUOUS
 10
8.039069
 20
41.330080
 11
7.799069
 21
41.330080
  0
POLYLINE
  8
4
  6
CONTINUOUS
 66
     1
  0
VERTEX
  8
4
  6
CONTINUOUS
 10
7.919069
 20
40.178080
  0
VERTEX
  8
4
  6
CONTINUOUS
 10
7.919069
 20
5.674210
  0
SEQEND
  8
4
  6
CONTINUOUS
  0
LINE
  8
4
  6
CONTINUOUS
 10
8.899069
 20
5.674210
 11
8.899069
 21
4.774210
  0
LINE
  8
4
  6
CONTINUOUS
 10
8.831569
 20
4.774210
 11
8.966569
 21
4.774210
  0
LINE
  8
4
  6
CONTINUOUS
 10
8.831569
 20
4.774210
 11
8.899069
 21
3.874210
  0
LINE
  8
4
  6
CONTINUOUS
 10
8.966569
 20
4.774210
 11
8.899069
 21
3.874210
  0
LINE
  8
4
  6
CONTINUOUS
 10
8.764069
 20
5.044210
 11
9.034069
 21
5.044210
  0
LINE
  8
4
  6
CONTINUOUS
 10
8.899069
 20
40.178080
 11
8.899069
 21
41.378080
  0
LINE
  8
4
  6
CONTINUOUS
 10
9.019069
 20
41.378080
 11
8.779069
 21
41.378080
  0
LINE
  8
4
  6
CONTINUOUS
 10
9.019069
 20
41.354080
 11
8.779069
 21
41.354080
  0
LINE
  8
4
  6
CONTINUOUS
 10
9.019069
 20
41.330080
 11
8.779069
 21
41.330080
  0
POLYLINE
  8
4
  6
CONTINUOUS
 66
     1
  0
VERTEX
  8
4
  6
CONTINUOUS
 10
8.899069
 20
40.178080
  0
VERTEX
  8
4
  6
CONTINUOUS
 10
8.899069
 20
5.674210
  0
SEQEND
  8
4
  6
CONTINUOUS
  0
LINE
  8
4
  6
CONTINUOUS
 10
9.879069
 20
5.674210
 11
9.879069
 21
4.774210
  0
LINE
  8
4
  6
CONTINUOUS
 10
9.811569
 20
4.774210
 11
9.946569
 21
4.774210
  0
LINE
  8
4
  6
CONTINUOUS
 10
9.811569
 20
4.774210
 11
9.879069
 21
3.874210
  0
LINE
  8
4
  6
CONTINUOUS
 10
9.946569
 20
4.774210
 11
9.879069
 21
3.874210
  0
LINE
  8
4
  6
CONTINUOUS
 10
9.744069
 20
5.044210
 11
10.014069
 21
5.044210
  0
LINE
  8
4
  6
CONTINUOUS
 10
9.879069
 20
40.178080
 11
9.879069
 21
41.378080
  0
LINE
  8
4
  6
CONTINUOUS
 10
9.999069
 20
41.378080
 11
9.759069
 21
41.378080
  0
LINE
  8
4
  6
CONTINUOUS
 10
9.999069
 20
41.354080
 11
9.759069
 21
41.354080
  0
LINE
  8
4
  6
CONTINUOUS
 10
9.999069
 20
41.330080
 11
9.759069
 21
41.330080
  0
POLYLINE
  8
4
  6
CONTINUOUS
 66
     1
  0
VERTEX
  8
4
  6
CONTINUOUS
 10
9.879069
 20
40.178080
  0
VERTEX
  8
4
  6
CONTINUOUS
 10
9.879069
 20
5.674210
  0
SEQEND
  8
4
  6
CONTINUOUS
  0
LINE
  8
4
  6
CONTINUOUS
 10
19.969069
 20
5.674210
 11
19.969069
 21
4.774210
  0
LINE
  8
4
  6
CONTINUOUS
 10
19.834069
 20
5.224210
 11
20.104069
 21
5.224210
  0
LINE
  8
4
  6
CONTINUOUS
 10
19.834069
 20
5.134210
 11
20.104069
 21
5.134210
  0
LINE
  8
4
  6
CONTINUOUS
 10
19.834069
 20
5.044210
 11
20.104069
 21
5.044210
  0
LINE
  8
4
  6
CONTINUOUS
 10
19.834069
 20
4.954210
 11
20.104069
 21
4.954210
  0
LINE
  8
4
  6
CONTINUOUS
 10
19.901569
 20
4.774210
 11
20.036569
 21
4.774210
  0
LINE
  8
4
  6
CONTINUOUS
 10
19.901569
 20
4.774210
 11
19.969069
 21
3.874210
  0
LINE
  8
4
  6
CONTINUOUS
 10
20.036569
 20
4.774210
 11
19.969069
 21
3.874210
  0
LINE
  8
4
  6
CONTINUOUS
 10
19.969069
 20
40.178080
 11
19.969069
 21
41.378080
  0
LINE
  8
4
  6
CONTINUOUS
 10
20.089069
 20
41.378080
 11
19.849069
 21
41.378080
  0
LINE
  8
4
  6
CONTINUOUS
 10
20.089069
 20
41.354080
 11
19.849069
 21
41.354080
  0
LINE
  8
4
  6
CONTINUOUS
 10
20.089069
 20
41.330080
 11
19.849069
 21
41.330080
  0
POLYLINE
  8
4
  6
CONTINUOUS
 66
     1
  0
VERTEX
  8
4
  6
CONTINUOUS
 10
19.969069
 20
40.178080
  0
VERTEX
  8
4
  6
CONTINUOUS
 10
19.969069
 20
5.674210
  0
SEQEND
  8
4
  6
CONTINUOUS
  0
LINE
  8
4
  6
CONTINUOUS
 10
20.229069
 20
5.674210
 11
20.229069
 21
4.774210
  0
LINE
  8
4
  6
CONTINUOUS
 10
20.094069
 20
5.224210
 11
20.364069
 21
5.224210
  0
LINE
  8
4
  6
CONTINUOUS
 10
20.094069
 20
5.134210
 11
20.364069
 21
5.134210
  0
LINE
  8
4
  6
CONTINUOUS
 10
20.094069
 20
5.044210
 11
20.364069
 21
5.044210
  0
LINE
  8
4
  6
CONTINUOUS
 10
20.094069
 20
4.954210
 11
20.364069
 21
4.954210
  0
LINE
  8
4
  6
CONTINUOUS
 10
20.161569
 20
4.774210
 11
20.296569
 21
4.774210
  0
LINE
  8
4
  6
CONTINUOUS
 10
20.161569
 20
4.774210
 11
20.229069
 21
3.874210
  0
LINE
  8
4
  6
CONTINUOUS
 10
20.296569
 20
4.774210
 11
20.229069
 21
3.874210
  0
LINE
  8
4
  6
CONTINUOUS
 10
20.229069
 20
40.178080
 11
20.229069
 21
41.378080
  0
LINE
  8
4
  6
CONTINUOUS
 10
20.349069
 20
41.378080
 11
20.109069
 21
41.378080
  0
LINE
  8
4
  6
CONTINUOUS
 10
20.349069
 20
41.354080
 11
20.109069
 21
41.354080
  0
LINE
  8
4
  6
CONTINUOUS
 10
20.349069
 20
41.330080
 11
20.109069
 21
41.330080
  0
POLYLINE
  8
4
  6
CONTINUOUS
 66
     1
  0
VERTEX
  8
4
  6
CONTINUOUS
 10
20.229069
 20
40.178080
  0
VERTEX
  8
4
  6
CONTINUOUS
 10
20.229069
 20
5.674210
  0
SEQEND
  8
4
  6
CONTINUOUS
  0
LINE
  8
4
  6
CONTINUOUS
 10
20.489069
 20
5.674210
 11
20.489069
 21
4.774210
  0
LINE
  8
4
  6
CONTINUOUS
 10
20.354069
 20
5.224210
 11
20.624069
 21
5.224210
  0
LINE
  8
4
  6
CONTINUOUS
 10
20.354069
 20
5.134210
 11
20.624069
 21
5.134210
  0
LINE
  8
4
  6
CONTINUOUS
 10
20.354069
 20
5.044210
 11
20.624069
 21
5.044210
  0
LINE
  8
4
  6
CONTINUOUS
 10
20.354069
 20
4.954210
 11
20.624069
 21
4.954210
  0
LINE
  8
4
  6
CONTINUOUS
 10
20.421569
 20
4.774210
 11
20.556569
 21
4.774210
  0
LINE
  8
4
  6
CONTINUOUS
 10
20.421569
 20
4.774210
 11
20.489069
 21
3.874210
  0
LINE
  8
4
  6
CONTINUOUS
 10
20.556569
 20
4.774210
 11
20.489069
 21
3.874210
  0
LINE
  8
4
  6
CONTINUOUS
 10
20.489069
 20
40.178080
 11
20.489069
 21
41.378080
  0
LINE
  8
4
  6
CONTINUOUS
 10
20.609069
 20
41.378080
 11
20.369069
 21
41.378080
  0
LINE
  8
4
  6
CONTINUOUS
 10
20.609069
 20
41.354080
 11
20.369069
 21
41.354080
  0
LINE
  8
4
  6
CONTINUOUS
 10
20.609069
 20
41.330080
 11
20.369069
 21
41.330080
  0
POLYLINE
  8
4
  6
CONTINUOUS
 66
     1
  0
VERTEX
  8
4
  6
CONTINUOUS
 10
20.489069
 20
40.178080
  0
VERTEX
  8
4
  6
CONTINUOUS
 10
20.489069
 20
5.674210
  0
SEQEND
  8
4
  6
CONTINUOUS
  0
LINE
  8
4
  6
CONTINUOUS
 10
20.749069
 20
5.674210
 11
20.749069
 21
4.774210
  0
LINE
  8
4
  6
CONTINUOUS
 10
20.614069
 20
5.224210
 11
20.884069
 21
5.224210
  0
LINE
  8
4
  6
CONTINUOUS
 10
20.614069
 20
5.134210
 11
20.884069
 21
5.134210
  0
LINE
  8
4
  6
CONTINUOUS
 10
20.614069
 20
5.044210
 11
20.884069
 21
5.044210
  0
LINE
  8
4
  6
CONTINUOUS
 10
20.614069
 20
4.954210
 11
20.884069
 21
4.954210
  0
LINE
  8
4
  6
CONTINUOUS
 10
20.681569
 20
4.774210
 11
20.816569
 21
4.774210
  0
LINE
  8
4
  6
CONTINUOUS
 10
20.681569
 20
4.774210
 11
20.749069
 21
3.874210
  0
LINE
  8
4
  6
CONTINUOUS
 10
20.816569
 20
4.774210
 11
20.749069
 21
3.874210
  0
LINE
  8
4
  6
CONTINUOUS
 10
20.749069
 20
40.178080
 11
20.749069
 21
41.378080
  0
LINE
  8
4
  6
CONTINUOUS
 10
20.869069
 20
41.378080
 11
20.629069
 21
41.378080
  0
LINE
  8
4
  6
CONTINUOUS
 10
20.869069
 20
41.354080
 11
20.629069
 21
41.354080
  0
LINE
  8
4
  6
CONTINUOUS
 10
20.869069
 20
41.330080
 11
20.629069
 21
41.330080
  0
POLYLINE
  8
4
  6
CONTINUOUS
 66
     1
  0
VERTEX
  8
4
  6
CONTINUOUS
 10
20.749069
 20
40.178080
  0
VERTEX
  8
4
  6
CONTINUOUS
 10
20.749069
 20
5.674210
  0
SEQEND
  8
4
  6
CONTINUOUS
  0
LINE
  8
4
  6
CONTINUOUS
 10
21.009069
 20
5.674210
 11
21.009069
 21
4.774210
  0
LINE
  8
4
  6
CONTINUOUS
 10
20.874069
 20
5.224210
 11
21.144069
 21
5.224210
  0
LINE
  8
4
  6
CONTINUOUS
 10
20.874069
 20
5.134210
 11
21.144069
 21
5.134210
  0
LINE
  8
4
  6
CONTINUOUS
 10
20.874069
 20
5.044210
 11
21.144069
 21
5.044210
  0
LINE
  8
4
  6
CONTINUOUS
 10
20.874069
 20
4.954210
 11
21.144069
 21
4.954210
  0
LINE
  8
4
  6
CONTINUOUS
 10
20.941569
 20
4.774210
 11
21.076569
 21
4.774210
  0
LINE
  8
4
  6
CONTINUOUS
 10
20.941569
 20
4.774210
 11
21.009069
 21
3.874210
  0
LINE
  8
4
  6
CONTINUOUS
 10
21.076569
 20
4.774210
 11
21.009069
 21
3.874210
  0
LINE
  8
4
  6
CONTINUOUS
 10
21.009069
 20
40.178080
 11
21.009069
 21
41.378080
  0
LINE
  8
4
  6
CONTINUOUS
 10
21.129069
 20
41.378080
 11
20.889069
 21
41.378080
  0
LINE
  8
4
  6
CONTINUOUS
 10
21.129069
 20
41.354080
 11
20.889069
 21
41.354080
  0
LINE
  8
4
  6
CONTINUOUS
 10
21.129069
 20
41.330080
 11
20.889069
 21
41.330080
  0
POLYLINE
  8
4
  6
CONTINUOUS
 66
     1
  0
VERTEX
  8
4
  6
CONTINUOUS
 10
21.009069
 20
40.178080
  0
VERTEX
  8
4
  6
CONTINUOUS
 10
21.009069
 20
5.674210
  0
SEQEND
  8
4
  6
CONTINUOUS
  0
LINE
  8
4
  6
CONTINUOUS
 10
21.269069
 20
5.674210
 11
21.269069
 21
4.774210
  0
LINE
  8
4
  6
CONTINUOUS
 10
21.134069
 20
5.224210
 11
21.404069
 21
5.224210
  0
LINE
  8
4
  6
CONTINUOUS
 10
21.134069
 20
5.134210
 11
21.404069
 21
5.134210
  0
LINE
  8
4
  6
CONTINUOUS
 10
21.134069
 20
5.044210
 11
21.404069
 21
5.044210
  0
LINE
  8
4
  6
CONTINUOUS
 10
21.134069
 20
4.954210
 11
21.404069
 21
4.954210
  0
LINE
  8
4
  6
CONTINUOUS
 10
21.201569
 20
4.774210
 11
21.336569
 21
4.774210
  0
LINE
  8
4
  6
CONTINUOUS
 10
21.201569
 20
4.774210
 11
21.269069
 21
3.874210
  0
LINE
  8
4
  6
CONTINUOUS
 10
21.336569
 20
4.774210
 11
21.269069
 21
3.874210
  0
LINE
  8
4
  6
CONTINUOUS
 10
21.269069
 20
40.178080
 11
21.269069
 21
41.378080
  0
LINE
  8
4
  6
CONTINUOUS
 10
21.389069
 20
41.378080
 11
21.149069
 21
41.378080
  0
LINE
  8
4
  6
CONTINUOUS
 10
21.389069
 20
41.354080
 11
21.149069
 21
41.354080
  0
LINE
  8
4
  6
CONTINUOUS
 10
21.389069
 20
41.330080
 11
21.149069
 21
41.330080
  0
POLYLINE
  8
4
  6
CONTINUOUS
 66
     1
  0
VERTEX
  8
4
  6
CONTINUOUS
 10
21.269069
 20
40.178080
  0
VERTEX
  8
4
  6
CONTINUOUS
 10
21.269069
 20
5.674210
  0
SEQEND
  8
4
  6
CONTINUOUS
  0
LINE
  8
4
  6
CONTINUOUS
 10
32.279069
 20
5.674210
 11
32.279069
 21
4.774210
  0
LINE
  8
4
  6
CONTINUOUS
 10
32.144069
 20
5.224210
 11
32.414069
 21
5.224210
  0
LINE
  8
4
  6
CONTINUOUS
 10
32.144069
 20
5.134210
 11
32.414069
 21
5.134210
  0
LINE
  8
4
  6
CONTINUOUS
 10
32.144069
 20
5.044210
 11
32.414069
 21
5.044210
  0
LINE
  8
4
  6
CONTINUOUS
 10
32.144069
 20
4.954210
 11
32.414069
 21
4.954210
  0
LINE
  8
4
  6
CONTINUOUS
 10
32.211569
 20
4.774210
 11
32.346569
 21
4.774210
  0
LINE
  8
4
  6
CONTINUOUS
 10
32.211569
 20
4.774210
 11
32.279069
 21
3.874210
  0
LINE
  8
4
  6
CONTINUOUS
 10
32.346569
 20
4.774210
 11
32.279069
 21
3.874210
  0
LINE
  8
4
  6
CONTINUOUS
 10
32.279069
 20
40.178080
 11
32.279069
 21
41.378080
  0
LINE
  8
4
  6
CONTINUOUS
 10
32.399069
 20
41.378080
 11
32.159069
 21
41.378080
  0
LINE
  8
4
  6
CONTINUOUS
 10
32.399069
 20
41.354080
 11
32.159069
 21
41.354080
  0
LINE
  8
4
  6
CONTINUOUS
 10
32.399069
 20
41.330080
 11
32.159069
 21
41.330080
  0
POLYLINE
  8
4
  6
CONTINUOUS
 66
     1
  0
VERTEX
  8
4
  6
CONTINUOUS
 10
32.279069
 20
40.178080
  0
VERTEX
  8
4
  6
CONTINUOUS
 10
32.279069
 20
5.674210
  0
SEQEND
  8
4
  6
CONTINUOUS
  0
LINE
  8
4
  6
CONTINUOUS
 10
32.539069
 20
5.674210
 11
32.539069
 21
4.774210
  0
LINE
  8
4
  6
CONTINUOUS
 10
32.404069
 20
5.224210
 11
32.674069
 21
5.224210
  0
LINE
  8
4
  6
CONTINUOUS
 10
32.404069
 20
5.134210
 11
32.674069
 21
5.134210
  0
LINE
  8
4
  6
CONTINUOUS
 10
32.404069
 20
5.044210
 11
32.674069
 21
5.044210
  0
LINE
  8
4
  6
CONTINUOUS
 10
32.404069
 20
4.954210
 11
32.674069
 21
4.954210
  0
LINE
  8
4
  6
CONTINUOUS
 10
32.471569
 20
4.774210
 11
32.606569
 21
4.774210
  0
LINE
  8
4
  6
CONTINUOUS
 10
32.471569
 20
4.774210
 11
32.539069
 21
3.874210
  0
LINE
  8
4
  6
CONTINUOUS
 10
32.606569
 20
4.774210
 11
32.539069
 21
3.874210
  0
LINE
  8
4
  6
CONTINUOUS
 10
32.539069
 20
40.178080
 11
32.539069
 21
41.378080
  0
LINE
  8
4
  6
CONTINUOUS
 10
32.659069
 20
41.378080
 11
32.419069
 21
41.378080
  0
LINE
  8
4
  6
CONTINUOUS
 10
32.659069
 20
41.354080
 11
32.419069
 21
41.354080
  0
LINE
  8
4
  6
CONTINUOUS
 10
32.659069
 20
41.330080
 11
32.419069
 21
41.330080
  0
POLYLINE
  8
4
  6
CONTINUOUS
 66
     1
  0
VERTEX
  8
4
  6
CONTINUOUS
 10
32.539069
 20
40.178080
  0
VERTEX
  8
4
  6
CONTINUOUS
 10
32.539069
 20
5.674210
  0
SEQEND
  8
4
  6
CONTINUOUS
  0
LINE
  8
4
  6
CONTINUOUS
 10
32.799069
 20
5.674210
 11
32.799069
 21
4.774210
  0
LINE
  8
4
  6
CONTINUOUS
 10
32.664069
 20
5.224210
 11
32.934069
 21
5.224210
  0
LINE
  8
4
  6
CONTINUOUS
 10
32.664069
 20
5.134210
 11
32.934069
 21
5.134210
  0
LINE
  8
4
  6
CONTINUOUS
 10
32.664069
 20
5.044210
 11
32.934069
 21
5.044210
  0
LINE
  8
4
  6
CONTINUOUS
 10
32.664069
 20
4.954210
 11
32.934069
 21
4.954210
  0
LINE
  8
4
  6
CONTINUOUS
 10
32.731569
 20
4.774210
 11
32.866569
 21
4.774210
  0
LINE
  8
4
  6
CONTINUOUS
 10
32.731569
 20
4.774210
 11
32.799069
 21
3.874210
  0
LINE
  8
4
  6
CONTINUOUS
 10
32.866569
 20
4.774210
 11
32.799069
 21
3.874210
  0
LINE
  8
4
  6
CONTINUOUS
 10
32.799069
 20
40.178080
 11
32.799069
 21
41.378080
  0
LINE
  8
4
  6
CONTINUOUS
 10
32.919069
 20
41.378080
 11
32.679069
 21
41.378080
  0
LINE
  8
4
  6
CONTINUOUS
 10
32.919069
 20
41.354080
 11
32.679069
 21
41.354080
  0
LINE
  8
4
  6
CONTINUOUS
 10
32.919069
 20
41.330080
 11
32.679069
 21
41.330080
  0
POLYLINE
  8
4
  6
CONTINUOUS
 66
     1
  0
VERTEX
  8
4
  6
CONTINUOUS
 10
32.799069
 20
40.178080
  0
VERTEX
  8
4
  6
CONTINUOUS
 10
32.799069
 20
5.674210
  0
SEQEND
  8
4
  6
CONTINUOUS
  0
LINE
  8
4
  6
CONTINUOUS
 10
33.059069
 20
5.674210
 11
33.059069
 21
4.774210
  0
LINE
  8
4
  6
CONTINUOUS
 10
32.924069
 20
5.224210
 11
33.194069
 21
5.224210
  0
LINE
  8
4
  6
CONTINUOUS
 10
32.924069
 20
5.134210
 11
33.194069
 21
5.134210
  0
LINE
  8
4
  6
CONTINUOUS
 10
32.924069
 20
5.044210
 11
33.194069
 21
5.044210
  0
LINE
  8
4
  6
CONTINUOUS
 10
32.924069
 20
4.954210
 11
33.194069
 21
4.954210
  0
LINE
  8
4
  6
CONTINUOUS
 10
32.991569
 20
4.774210
 11
33.126569
 21
4.774210
  0
LINE
  8
4
  6
CONTINUOUS
 10
32.991569
 20
4.774210
 11
33.059069
 21
3.874210
  0
LINE
  8
4
  6
CONTINUOUS
 10
33.126569
 20
4.774210
 11
33.059069
 21
3.874210
  0
LINE
  8
4
  6
CONTINUOUS
 10
33.059069
 20
40.178080
 11
33.059069
 21
41.378080
  0
LINE
  8
4
  6
CONTINUOUS
 10
33.179069
 20
41.378080
 11
32.939069
 21
41.378080
  0
LINE
  8
4
  6
CONTINUOUS
 10
33.179069
 20
41.354080
 11
32.939069
 21
41.354080
  0
LINE
  8
4
  6
CONTINUOUS
 10
33.179069
 20
41.330080
 11
32.939069
 21
41.330080
  0
POLYLINE
  8
4
  6
CONTINUOUS
 66
     1
  0
VERTEX
  8
4
  6
CONTINUOUS
 10
33.059069
 20
40.178080
  0
VERTEX
  8
4
  6
CONTINUOUS
 10
33.059069
 20
5.674210
  0
SEQEND
  8
4
  6
CONTINUOUS
  0
LINE
  8
4
  6
CONTINUOUS
 10
33.319069
 20
5.674210
 11
33.319069
 21
4.774210
  0
LINE
  8
4
  6
CONTINUOUS
 10
33.184069
 20
5.224210
 11
33.454069
 21
5.224210
  0
LINE
  8
4
  6
CONTINUOUS
 10
33.184069
 20
5.134210
 11
33.454069
 21
5.134210
  0
LINE
  8
4
  6
CONTINUOUS
 10
33.184069
 20
5.044210
 11
33.454069
 21
5.044210
  0
LINE
  8
4
  6
CONTINUOUS
 10
33.184069
 20
4.954210
 11
33.454069
 21
4.954210
  0
LINE
  8
4
  6
CONTINUOUS
 10
33.251569
 20
4.774210
 11
33.386569
 21
4.774210
  0
LINE
  8
4
  6
CONTINUOUS
 10
33.251569
 20
4.774210
 11
33.319069
 21
3.874210
  0
LINE
  8
4
  6
CONTINUOUS
 10
33.386569
 20
4.774210
 11
33.319069
 21
3.874210
  0
LINE
  8
4
  6
CONTINUOUS
 10
33.319069
 20
40.178080
 11
33.319069
 21
41.378080
  0
LINE
  8
4
  6
CONTINUOUS
 10
33.439069
 20
41.378080
 11
33.199069
 21
41.378080
  0
LINE
  8
4
  6
CONTINUOUS
 10
33.439069
 20
41.354080
 11
33.199069
 21
41.354080
  0
LINE
  8
4
  6
CONTINUOUS
 10
33.439069
 20
41.330080
 11
33.199069
 21
41.330080
  0
POLYLINE
  8
4
  6
CONTINUOUS
 66
     1
  0
VERTEX
  8
4
  6
CONTINUOUS
 10
33.319069
 20
40.178080
  0
VERTEX
  8
4
  6
CONTINUOUS
 10
33.319069
 20
5.674210
  0
SEQEND
  8
4
  6
CONTINUOUS
  0
LINE
  8
4
  6
CONTINUOUS
 10
33.579069
 20
5.674210
 11
33.579069
 21
4.774210
  0
LINE
  8
4
  6
CONTINUOUS
 10
33.444069
 20
5.224210
 11
33.714069
 21
5.224210
  0
LINE
  8
4
  6
CONTINUOUS
 10
33.444069
 20
5.134210
 11
33.714069
 21
5.134210
  0
LINE
  8
4
  6
CONTINUOUS
 10
33.444069
 20
5.044210
 11
33.714069
 21
5.044210
  0
LINE
  8
4
  6
CONTINUOUS
 10
33.444069
 20
4.954210
 11
33.714069
 21
4.954210
  0
LINE
  8
4
  6
CONTINUOUS
 10
33.511569
 20
4.774210
 11
33.646569
 21
4.774210
  0
LINE
  8
4
  6
CONTINUOUS
 10
33.511569
 20
4.774210
 11
33.579069
 21
3.874210
  0
LINE
  8
4
  6
CONTINUOUS
 10
33.646569
 20
4.774210
 11
33.579069
 21
3.874210
  0
LINE
  8
4
  6
CONTINUOUS
 10
33.579069
 20
40.178080
 11
33.579069
 21
41.378080
  0
LINE
  8
4
  6
CONTINUOUS
 10
33.699069
 20
41.378080
 11
33.459069
 21
41.378080
  0
LINE
  8
4
  6
CONTINUOUS
 10
33.699069
 20
41.354080
 11
33.459069
 21
41.354080
  0
LINE
  8
4
  6
CONTINUOUS
 10
33.699069
 20
41.330080
 11
33.459069
 21
41.330080
  0
POLYLINE
  8
4
  6
CONTINUOUS
 66
     1
  0
VERTEX
  8
4
  6
CONTINUOUS
 10
33.579069
 20
40.178080
  0
VERTEX
  8
4
  6
CONTINUOUS
 10
33.579069
 20
5.674210
  0
SEQEND
  8
4
  6
CONTINUOUS
  0
LINE
  8
4
  6
CONTINUOUS
 10
44.778333
 20
5.674210
 11
44.778333
 21
4.774210
  0
LINE
  8
4
  6
CONTINUOUS
 10
44.643333
 20
5.224210
 11
44.913333
 21
5.224210
  0
LINE
  8
4
  6
CONTINUOUS
 10
44.643333
 20
5.134210
 11
44.913333
 21
5.134210
  0
LINE
  8
4
  6
CONTINUOUS
 10
44.643333
 20
5.044210
 11
44.913333
 21
5.044210
  0
LINE
  8
4
  6
CONTINUOUS
 10
44.643333
 20
4.954210
 11
44.913333
 21
4.954210
  0
LINE
  8
4
  6
CONTINUOUS
 10
44.710833
 20
4.774210
 11
44.845833
 21
4.774210
  0
LINE
  8
4
  6
CONTINUOUS
 10
44.710833
 20
4.774210
 11
44.778333
 21
3.874210
  0
LINE
  8
4
  6
CONTINUOUS
 10
44.845833
 20
4.774210
 11
44.778333
 21
3.874210
  0
LINE
  8
4
  6
CONTINUOUS
 10
44.778333
 20
40.178080
 11
44.778333
 21
41.378080
  0
LINE
  8
4
  6
CONTINUOUS
 10
44.898333
 20
41.378080
 11
44.658333
 21
41.378080
  0
LINE
  8
4
  6
CONTINUOUS
 10
44.898333
 20
41.354080
 11
44.658333
 21
41.354080
  0
LINE
  8
4
  6
CONTINUOUS
 10
44.898333
 20
41.330080
 11
44.658333
 21
41.330080
  0
POLYLINE
  8
4
  6
CONTINUOUS
 66
     1
  0
VERTEX
  8
4
  6
CONTINUOUS
 10
44.778333
 20
40.178080
  0
VERTEX
  8
4
  6
CONTINUOUS
 10
44.778333
 20
5.674210
  0
SEQEND
  8
4
  6
CONTINUOUS
  0
LINE
  8
4
  6
CONTINUOUS
 10
45.098333
 20
5.674210
 11
45.098333
 21
4.774210
  0
LINE
  8
4
  6
CONTINUOUS
 10
44.963333
 20
5.224210
 11
45.233333
 21
5.224210
  0
LINE
  8
4
  6
CONTINUOUS
 10
44.963333
 20
5.134210
 11
45.233333
 21
5.134210
  0
LINE
  8
4
  6
CONTINUOUS
 10
44.963333
 20
5.044210
 11
45.233333
 21
5.044210
  0
LINE
  8
4
  6
CONTINUOUS
 10
44.963333
 20
4.954210
 11
45.233333
 21
4.954210
  0
LINE
  8
4
  6
CONTINUOUS
 10
45.030833
 20
4.774210
 11
45.165833
 21
4.774210
  0
LINE
  8
4
  6
CONTINUOUS
 10
45.030833
 20
4.774210
 11
45.098333
 21
3.874210
  0
LINE
  8
4
  6
CONTINUOUS
 10
45.165833
 20
4.774210
 11
45.098333
 21
3.874210
  0
LINE
  8
4
  6
CONTINUOUS
 10
45.098333
 20
40.178080
 11
45.098333
 21
41.378080
  0
LINE
  8
4
  6
CONTINUOUS
 10
45.218333
 20
41.378080
 11
44.978333
 21
41.378080
  0
LINE
  8
4
  6
CONTINUOUS
 10
45.218333
 20
41.354080
 11
44.978333
 21
41.354080
  0
LINE
  8
4
  6
CONTINUOUS
 10
45.218333
 20
41.330080
 11
44.978333
 21
41.330080
  0
POLYLINE
  8
4
  6
CONTINUOUS
 66
     1
  0
VERTEX
  8
4
  6
CONTINUOUS
 10
45.098333
 20
40.178080
  0
VERTEX
  8
4
  6
CONTINUOUS
 10
45.098333
 20
5.674210
  0
SEQEND
  8
4
  6
CONTINUOUS
  0
LINE
  8
4
  6
CONTINUOUS
 10
45.418333
 20
5.674210
 11
45.418333
 21
4.774210
  0
LINE
  8
4
  6
CONTINUOUS
 10
45.283333
 20
5.224210
 11
45.553333
 21
5.224210
  0
LINE
  8
4
  6
CONTINUOUS
 10
45.283333
 20
5.134210
 11
45.553333
 21
5.134210
  0
LINE
  8
4
  6
CONTINUOUS
 10
45.283333
 20
5.044210
 11
45.553333
 21
5.044210
  0
LINE
  8
4
  6
CONTINUOUS
 10
45.283333
 20
4.954210
 11
45.553333
 21
4.954210
  0
LINE
  8
4
  6
CONTINUOUS
 10
45.350833
 20
4.774210
 11
45.485833
 21
4.774210
  0
LINE
  8
4
  6
CONTINUOUS
 10
45.350833
 20
4.774210
 11
45.418333
 21
3.874210
  0
LINE
  8
4
  6
CONTINUOUS
 10
45.485833
 20
4.774210
 11
45.418333
 21
3.874210
  0
LINE
  8
4
  6
CONTINUOUS
 10
45.418333
 20
40.178080
 11
45.418333
 21
41.378080
  0
LINE
  8
4
  6
CONTINUOUS
 10
45.538333
 20
41.378080
 11
45.298333
 21
41.378080
  0
LINE
  8
4
  6
CONTINUOUS
 10
45.538333
 20
41.354080
 11
45.298333
 21
41.354080
  0
LINE
  8
4
  6
CONTINUOUS
 10
45.538333
 20
41.330080
 11
45.298333
 21
41.330080
  0
POLYLINE
  8
4
  6
CONTINUOUS
 66
     1
  0
VERTEX
  8
4
  6
CONTINUOUS
 10
45.418333
 20
40.178080
  0
VERTEX
  8
4
  6
CONTINUOUS
 10
45.418333
 20
5.674210
  0
SEQEND
  8
4
  6
CONTINUOUS
  0
LINE
  8
4
  6
CONTINUOUS
 10
45.738333
 20
5.674210
 11
45.738333
 21
4.774210
  0
LINE
  8
4
  6
CONTINUOUS
 10
45.603333
 20
5.224210
 11
45.873333
 21
5.224210
  0
LINE
  8
4
  6
CONTINUOUS
 10
45.603333
 20
5.134210
 11
45.873333
 21
5.134210
  0
LINE
  8
4
  6
CONTINUOUS
 10
45.603333
 20
5.044210
 11
45.873333
 21
5.044210
  0
LINE
  8
4
  6
CONTINUOUS
 10
45.603333
 20
4.954210
 11
45.873333
 21
4.954210
  0
LINE
  8
4
  6
CONTINUOUS
 10
45.670833
 20
4.774210
 11
45.805833
 21
4.774210
  0
LINE
  8
4
  6
CONTINUOUS
 10
45.670833
 20
4.774210
 11
45.738333
 21
3.874210
  0
LINE
  8
4
  6
CONTINUOUS
 10
45.805833
 20
4.774210
 11
45.738333
 21
3.874210
  0
LINE
  8
4
  6
CONTINUOUS
 10
45.738333
 20
40.178080
 11
45.738333
 21
41.378080
  0
LINE
  8
4
  6
CONTINUOUS
 10
45.858333
 20
41.378080
 11
45.618333
 21
41.378080
  0
LINE
  8
4
  6
CONTINUOUS
 10
45.858333
 20
41.354080
 11
45.618333
 21
41.354080
  0
LINE
  8
4
  6
CONTINUOUS
 10
45.858333
 20
41.330080
 11
45.618333
 21
41.330080
  0
POLYLINE
  8
4
  6
CONTINUOUS
 66
     1
  0
VERTEX
  8
4
  6
CONTINUOUS
 10
45.738333
 20
40.178080
  0
VERTEX
  8
4
  6
CONTINUOUS
 10
45.738333
 20
5.674210
  0
SEQEND
  8
4
  6
CONTINUOUS
  0
LINE
  8
4
  6
CONTINUOUS
 10
46.058333
 20
5.674210
 11
46.058333
 21
4.774210
  0
LINE
  8
4
  6
CONTINUOUS
 10
45.923333
 20
5.224210
 11
46.193333
 21
5.224210
  0
LINE
  8
4
  6
CONTINUOUS
 10
45.923333
 20
5.134210
 11
46.193333
 21
5.134210
  0
LINE
  8
4
  6
CONTINUOUS
 10
45.923333
 20
5.044210
 11
46.193333
 21
5.044210
  0
LINE
  8
4
  6
CONTINUOUS
 10
45.923333
 20
4.954210
 11
46.193333
 21
4.954210
  0
LINE
  8
4
  6
CONTINUOUS
 10
45.990833
 20
4.774210
 11
46.125833
 21
4.774210
  0
LINE
  8
4
  6
CONTINUOUS
 10
45.990833
 20
4.774210
 11
46.058333
 21
3.874210
  0
LINE
  8
4
  6
CONTINUOUS
 10
46.125833
 20
4.774210
 11
46.058333
 21
3.874210
  0
LINE
  8
4
  6
CONTINUOUS
 10
46.058333
 20
40.178080
 11
46.058333
 21
41.378080
  0
LINE
  8
4
  6
CONTINUOUS
 10
46.178333
 20
41.378080
 11
45.938333
 21
41.378080
  0
LINE
  8
4
  6
CONTINUOUS
 10
46.178333
 20
41.354080
 11
45.938333
 21
41.354080
  0
LINE
  8
4
  6
CONTINUOUS
 10
46.178333
 20
41.330080
 11
45.938333
 21
41.330080
  0
POLYLINE
  8
4
  6
CONTINUOUS
 66
     1
  0
VERTEX
  8
4
  6
CONTINUOUS
 10
46.058333
 20
40.178080
  0
VERTEX
  8
4
  6
CONTINUOUS
 10
46.058333
 20
5.674210
  0
SEQEND
  8
4
  6
CONTINUOUS
  0
LINE
  8
4
  6
CONTINUOUS
 10
62.738333
 20
5.674210
 11
62.738333
 21
4.774210
  0
LINE
  8
4
  6
CONTINUOUS
 10
62.603333
 20
5.224210
 11
62.873333
 21
5.224210
  0
LINE
  8
4
  6
CONTINUOUS
 10
62.603333
 20
5.134210
 11
62.873333
 21
5.134210
  0
LINE
  8
4
  6
CONTINUOUS
 10
62.603333
 20
5.044210
 11
62.873333
 21
5.044210
  0
LINE
  8
4
  6
CONTINUOUS
 10
62.603333
 20
4.954210
 11
62.873333
 21
4.954210
  0
LINE
  8
4
  6
CONTINUOUS
 10
62.670833
 20
4.774210
 11
62.805833
 21
4.774210
  0
LINE
  8
4
  6
CONTINUOUS
 10
62.670833
 20
4.774210
 11
62.738333
 21
3.874210
  0
LINE
  8
4
  6
CONTINUOUS
 10
62.805833
 20
4.774210
 11
62.738333
 21
3.874210
  0
LINE
  8
4
  6
CONTINUOUS
 10
62.738333
 20
40.178080
 11
62.738333
 21
41.378080
  0
LINE
  8
4
  6
CONTINUOUS
 10
62.858333
 20
41.378080
 11
62.618333
 21
41.378080
  0
LINE
  8
4
  6
CONTINUOUS
 10
62.858333
 20
41.354080
 11
62.618333
 21
41.354080
  0
LINE
  8
4
  6
CONTINUOUS
 10
62.858333
 20
41.330080
 11
62.618333
 21
41.330080
  0
POLYLINE
  8
4
  6
CONTINUOUS
 66
     1
  0
VERTEX
  8
4
  6
CONTINUOUS
 10
62.738333
 20
40.178080
  0
VERTEX
  8
4
  6
CONTINUOUS
 10
62.738333
 20
5.674210
  0
SEQEND
  8
4
  6
CONTINUOUS
  0
LINE
  8
4
  6
CONTINUOUS
 10
63.058333
 20
5.674210
 11
63.058333
 21
4.774210
  0
LINE
  8
4
  6
CONTINUOUS
 10
62.923333
 20
5.224210
 11
63.193333
 21
5.224210
  0
LINE
  8
4
  6
CONTINUOUS
 10
62.923333
 20
5.134210
 11
63.193333
 21
5.134210
  0
LINE
  8
4
  6
CONTINUOUS
 10
62.923333
 20
5.044210
 11
63.193333
 21
5.044210
  0
LINE
  8
4
  6
CONTINUOUS
 10
62.923333
 20
4.954210
 11
63.193333
 21
4.954210
  0
LINE
  8
4
  6
CONTINUOUS
 10
62.990833
 20
4.774210
 11
63.125833
 21
4.774210
  0
LINE
  8
4
  6
CONTINUOUS
 10
62.990833
 20
4.774210
 11
63.058333
 21
3.874210
  0
LINE
  8
4
  6
CONTINUOUS
 10
63.125833
 20
4.774210
 11
63.058333
 21
3.874210
  0
LINE
  8
4
  6
CONTINUOUS
 10
63.058333
 20
40.178080
 11
63.058333
 21
41.378080
  0
LINE
  8
4
  6
CONTINUOUS
 10
63.178333
 20
41.378080
 11
62.938333
 21
41.378080
  0
LINE
  8
4
  6
CONTINUOUS
 10
63.178333
 20
41.354080
 11
62.938333
 21
41.354080
  0
LINE
  8
4
  6
CONTINUOUS
 10
63.178333
 20
41.330080
 11
62.938333
 21
41.330080
  0
POLYLINE
  8
4
  6
CONTINUOUS
 66
     1
  0
VERTEX
  8
4
  6
CONTINUOUS
 10
63.058333
 20
40.178080
  0
VERTEX
  8
4
  6
CONTINUOUS
 10
63.058333
 20
5.674210
  0
SEQEND
  8
4
  6
CONTINUOUS
  0
LINE
  8
4
  6
CONTINUOUS
 10
63.378333
 20
5.674210
 11
63.378333
 21
4.774210
  0
LINE
  8
4
  6
CONTINUOUS
 10
63.243333
 20
5.224210
 11
63.513333
 21
5.224210
  0
LINE
  8
4
  6
CONTINUOUS
 10
63.243333
 20
5.134210
 11
63.513333
 21
5.134210
  0
LINE
  8
4
  6
CONTINUOUS
 10
63.243333
 20
5.044210
 11
63.513333
 21
5.044210
  0
LINE
  8
4
  6
CONTINUOUS
 10
63.243333
 20
4.954210
 11
63.513333
 21
4.954210
  0
LINE
  8
4
  6
CONTINUOUS
 10
63.310833
 20
4.774210
 11
63.445833
 21
4.774210
  0
LINE
  8
4
  6
CONTINUOUS
 10
63.310833
 20
4.774210
 11
63.378333
 21
3.874210
  0
LINE
  8
4
  6
CONTINUOUS
 10
63.445833
 20
4.774210
 11
63.378333
 21
3.874210
  0
LINE
  8
4
  6
CONTINUOUS
 10
63.378333
 20
40.178080
 11
63.378333
 21
41.378080
  0
LINE
  8
4
  6
CONTINUOUS
 10
63.498333
 20
41.378080
 11
63.258333
 21
41.378080
  0
LINE
  8
4
  6
CONTINUOUS
 10
63.498333
 20
41.354080
 11
63.258333
 21
41.354080
  0
LINE
  8
4
  6
CONTINUOUS
 10
63.498333
 20
41.330080
 11
63.258333
 21
41.330080
  0
POLYLINE
  8
4
  6
CONTINUOUS
 66
     1
  0
VERTEX
  8
4
  6
CONTINUOUS
 10
63.378333
 20
40.178080
  0
VERTEX
  8
4
  6
CONTINUOUS
 10
63.378333
 20
5.674210
  0
SEQEND
  8
4
  6
CONTINUOUS
  0
LINE
  8
4
  6
CONTINUOUS
 10
63.698333
 20
5.674210
 11
63.698333
 21
4.774210
  0
LINE
  8
4
  6
CONTINUOUS
 10
63.563333
 20
5.224210
 11
63.833333
 21
5.224210
  0
LINE
  8
4
  6
CONTINUOUS
 10
63.563333
 20
5.134210
 11
63.833333
 21
5.134210
  0
LINE
  8
4
  6
CONTINUOUS
 10
63.563333
 20
5.044210
 11
63.833333
 21
5.044210
  0
LINE
  8
4
  6
CONTINUOUS
 10
63.563333
 20
4.954210
 11
63.833333
 21
4.954210
  0
LINE
  8
4
  6
CONTINUOUS
 10
63.630833
 20
4.774210
 11
63.765833
 21
4.774210
  0
LINE
  8
4
  6
CONTINUOUS
 10
63.630833
 20
4.774210
 11
63.698333
 21
3.874210
  0
LINE
  8
4
  6
CONTINUOUS
 10
63.765833
 20
4.774210
 11
63.698333
 21
3.874210
  0
LINE
  8
4
  6
CONTINUOUS
 10
63.698333
 20
40.178080
 11
63.698333
 21
41.378080
  0
LINE
  8
4
  6
CONTINUOUS
 10
63.818333
 20
41.378080
 11
63.578333
 21
41.378080
  0
LINE
  8
4
  6
CONTINUOUS
 10
63.818333
 20
41.354080
 11
63.578333
 21
41.354080
  0
LINE
  8
4
  6
CONTINUOUS
 10
63.818333
 20
41.330080
 11
63.578333
 21
41.330080
  0
POLYLINE
  8
4
  6
CONTINUOUS
 66
     1
  0
VERTEX
  8
4
  6
CONTINUOUS
 10
63.698333
 20
40.178080
  0
VERTEX
  8
4
  6
CONTINUOUS
 10
63.698333
 20
5.674210
  0
SEQEND
  8
4
  6
CONTINUOUS
  0
LINE
  8
4
  6
CONTINUOUS
 10
64.018333
 20
5.674210
 11
64.018333
 21
4.774210
  0
LINE
  8
4
  6
CONTINUOUS
 10
63.883333
 20
5.224210
 11
64.153333
 21
5.224210
  0
LINE
  8
4
  6
CONTINUOUS
 10
63.883333
 20
5.134210
 11
64.153333
 21
5.134210
  0
LINE
  8
4
  6
CONTINUOUS
 10
63.883333
 20
5.044210
 11
64.153333
 21
5.044210
  0
LINE
  8
4
  6
CONTINUOUS
 10
63.883333
 20
4.954210
 11
64.153333
 21
4.954210
  0
LINE
  8
4
  6
CONTINUOUS
 10
63.950833
 20
4.774210
 11
64.085833
 21
4.774210
  0
LINE
  8
4
  6
CONTINUOUS
 10
63.950833
 20
4.774210
 11
64.018333
 21
3.874210
  0
LINE
  8
4
  6
CONTINUOUS
 10
64.085833
 20
4.774210
 11
64.018333
 21
3.874210
  0
LINE
  8
4
  6
CONTINUOUS
 10
64.018333
 20
40.178080
 11
64.018333
 21
41.378080
  0
LINE
  8
4
  6
CONTINUOUS
 10
64.138333
 20
41.378080
 11
63.898333
 21
41.378080
  0
LINE
  8
4
  6
CONTINUOUS
 10
64.138333
 20
41.354080
 11
63.898333
 21
41.354080
  0
LINE
  8
4
  6
CONTINUOUS
 10
64.138333
 20
41.330080
 11
63.898333
 21
41.330080
  0
POLYLINE
  8
4
  6
CONTINUOUS
 66
     1
  0
VERTEX
  8
4
  6
CONTINUOUS
 10
64.018333
 20
40.178080
  0
VERTEX
  8
4
  6
CONTINUOUS
 10
64.018333
 20
5.674210
  0
SEQEND
  8
4
  6
CONTINUOUS
  0
LINE
  8
4
  6
CONTINUOUS
 10
71.344382
 20
5.674210
 11
71.344382
 21
4.774210
  0
LINE
  8
4
  6
CONTINUOUS
 10
71.209382
 20
5.224210
 11
71.479382
 21
5.224210
  0
LINE
  8
4
  6
CONTINUOUS
 10
71.209382
 20
5.134210
 11
71.479382
 21
5.134210
  0
LINE
  8
4
  6
CONTINUOUS
 10
71.209382
 20
5.044210
 11
71.479382
 21
5.044210
  0
LINE
  8
4
  6
CONTINUOUS
 10
71.209382
 20
4.954210
 11
71.479382
 21
4.954210
  0
LINE
  8
4
  6
CONTINUOUS
 10
71.276882
 20
4.774210
 11
71.411882
 21
4.774210
  0
LINE
  8
4
  6
CONTINUOUS
 10
71.276882
 20
4.774210
 11
71.344382
 21
3.874210
  0
LINE
  8
4
  6
CONTINUOUS
 10
71.411882
 20
4.774210
 11
71.344382
 21
3.874210
  0
LINE
  8
4
  6
CONTINUOUS
 10
71.344382
 20
40.178080
 11
71.344382
 21
41.378080
  0
LINE
  8
4
  6
CONTINUOUS
 10
71.464382
 20
41.378080
 11
71.224382
 21
41.378080
  0
LINE
  8
4
  6
CONTINUOUS
 10
71.464382
 20
41.354080
 11
71.224382
 21
41.354080
  0
LINE
  8
4
  6
CONTINUOUS
 10
71.464382
 20
41.330080
 11
71.224382
 21
41.330080
  0
POLYLINE
  8
4
  6
CONTINUOUS
 66
     1
  0
VERTEX
  8
4
  6
CONTINUOUS
 10
71.344382
 20
40.178080
  0
VERTEX
  8
4
  6
CONTINUOUS
 10
71.344382
 20
5.674210
  0
SEQEND
  8
4
  6
CONTINUOUS
  0
LINE
  8
4
  6
CONTINUOUS
 10
71.664382
 20
5.674210
 11
71.664382
 21
4.774210
  0
LINE
  8
4
  6
CONTINUOUS
 10
71.529382
 20
5.224210
 11
71.799382
 21
5.224210
  0
LINE
  8
4
  6
CONTINUOUS
 10
71.529382
 20
5.134210
 11
71.799382
 21
5.134210
  0
LINE
  8
4
  6
CONTINUOUS
 10
71.529382
 20
5.044210
 11
71.799382
 21
5.044210
  0
LINE
  8
4
  6
CONTINUOUS
 10
71.529382
 20
4.954210
 11
71.799382
 21
4.954210
  0
LINE
  8
4
  6
CONTINUOUS
 10
71.596882
 20
4.774210
 11
71.731882
 21
4.774210
  0
LINE
  8
4
  6
CONTINUOUS
 10
71.596882
 20
4.774210
 11
71.664382
 21
3.874210
  0
LINE
  8
4
  6
CONTINUOUS
 10
71.731882
 20
4.774210
 11
71.664382
 21
3.874210
  0
LINE
  8
4
  6
CONTINUOUS
 10
71.664382
 20
40.178080
 11
71.664382
 21
41.378080
  0
LINE
  8
4
  6
CONTINUOUS
 10
71.784382
 20
41.378080
 11
71.544382
 21
41.378080
  0
LINE
  8
4
  6
CONTINUOUS
 10
71.784382
 20
41.354080
 11
71.544382
 21
41.354080
  0
LINE
  8
4
  6
CONTINUOUS
 10
71.784382
 20
41.330080
 11
71.544382
 21
41.330080
  0
POLYLINE
  8
4
  6
CONTINUOUS
 66
     1
  0
VERTEX
  8
4
  6
CONTINUOUS
 10
71.664382
 20
40.178080
  0
VERTEX
  8
4
  6
CONTINUOUS
 10
71.664382
 20
5.674210
  0
SEQEND
  8
4
  6
CONTINUOUS
  0
LINE
  8
4
  6
CONTINUOUS
 10
71.984382
 20
5.674210
 11
71.984382
 21
4.774210
  0
LINE
  8
4
  6
CONTINUOUS
 10
71.849382
 20
5.224210
 11
72.119382
 21
5.224210
  0
LINE
  8
4
  6
CONTINUOUS
 10
71.849382
 20
5.134210
 11
72.119382
 21
5.134210
  0
LINE
  8
4
  6
CONTINUOUS
 10
71.849382
 20
5.044210
 11
72.119382
 21
5.044210
  0
LINE
  8
4
  6
CONTINUOUS
 10
71.849382
 20
4.954210
 11
72.119382
 21
4.954210
  0
LINE
  8
4
  6
CONTINUOUS
 10
71.916882
 20
4.774210
 11
72.051882
 21
4.774210
  0
LINE
  8
4
  6
CONTINUOUS
 10
71.916882
 20
4.774210
 11
71.984382
 21
3.874210
  0
LINE
  8
4
  6
CONTINUOUS
 10
72.051882
 20
4.774210
 11
71.984382
 21
3.874210
  0
LINE
  8
4
  6
CONTINUOUS
 10
71.984382
 20
40.178080
 11
71.984382
 21
41.378080
  0
LINE
  8
4
  6
CONTINUOUS
 10
72.104382
 20
41.378080
 11
71.864382
 21
41.378080
  0
LINE
  8
4
  6
CONTINUOUS
 10
72.104382
 20
41.354080
 11
71.864382
 21
41.354080
  0
LINE
  8
4
  6
CONTINUOUS
 10
72.104382
 20
41.330080
 11
71.864382
 21
41.330080
  0
POLYLINE
  8
4
  6
CONTINUOUS
 66
     1
  0
VERTEX
  8
4
  6
CONTINUOUS
 10
71.984382
 20
40.178080
  0
VERTEX
  8
4
  6
CONTINUOUS
 10
71.984382
 20
5.674210
  0
SEQEND
  8
4
  6
CONTINUOUS
  0
LINE
  8
4
  6
CONTINUOUS
 10
72.304382
 20
5.674210
 11
72.304382
 21
4.774210
  0
LINE
  8
4
  6
CONTINUOUS
 10
72.169382
 20
5.224210
 11
72.439382
 21
5.224210
  0
LINE
  8
4
  6
CONTINUOUS
 10
72.169382
 20
5.134210
 11
72.439382
 21
5.134210
  0
LINE
  8
4
  6
CONTINUOUS
 10
72.169382
 20
5.044210
 11
72.439382
 21
5.044210
  0
LINE
  8
4
  6
CONTINUOUS
 10
72.169382
 20
4.954210
 11
72.439382
 21
4.954210
  0
LINE
  8
4
  6
CONTINUOUS
 10
72.236882
 20
4.774210
 11
72.371882
 21
4.774210
  0
LINE
  8
4
  6
CONTINUOUS
 10
72.236882
 20
4.774210
 11
72.304382
 21
3.874210
  0
LINE
  8
4
  6
CONTINUOUS
 10
72.371882
 20
4.774210
 11
72.304382
 21
3.874210
  0
LINE
  8
4
  6
CONTINUOUS
 10
72.304382
 20
40.178080
 11
72.304382
 21
41.378080
  0
LINE
  8
4
  6
CONTINUOUS
 10
72.424382
 20
41.378080
 11
72.184382
 21
41.378080
  0
LINE
  8
4
  6
CONTINUOUS
 10
72.424382
 20
41.354080
 11
72.184382
 21
41.354080
  0
LINE
  8
4
  6
CONTINUOUS
 10
72.424382
 20
41.330080
 11
72.184382
 21
41.330080
  0
POLYLINE
  8
4
  6
CONTINUOUS
 66
     1
  0
VERTEX
  8
4
  6
CONTINUOUS
 10
72.304382
 20
40.178080
  0
VERTEX
  8
4
  6
CONTINUOUS
 10
72.304382
 20
5.674210
  0
SEQEND
  8
4
  6
CONTINUOUS
  0
LINE
  8
4
  6
CONTINUOUS
 10
72.624382
 20
5.674210
 11
72.624382
 21
4.774210
  0
LINE
  8
4
  6
CONTINUOUS
 10
72.489382
 20
5.224210
 11
72.759382
 21
5.224210
  0
LINE
  8
4
  6
CONTINUOUS
 10
72.489382
 20
5.134210
 11
72.759382
 21
5.134210
  0
LINE
  8
4
  6
CONTINUOUS
 10
72.489382
 20
5.044210
 11
72.759382
 21
5.044210
  0
LINE
  8
4
  6
CONTINUOUS
 10
72.489382
 20
4.954210
 11
72.759382
 21
4.954210
  0
LINE
  8
4
  6
CONTINUOUS
 10
72.556882
 20
4.774210
 11
72.691882
 21
4.774210
  0
LINE
  8
4
  6
CONTINUOUS
 10
72.556882
 20
4.774210
 11
72.624382
 21
3.874210
  0
LINE
  8
4
  6
CONTINUOUS
 10
72.691882
 20
4.774210
 11
72.624382
 21
3.874210
  0
LINE
  8
4
  6
CONTINUOUS
 10
72.624382
 20
40.178080
 11
72.624382
 21
41.378080
  0
LINE
  8
4
  6
CONTINUOUS
 10
72.744382
 20
41.378080
 11
72.504382
 21
41.378080
  0
LINE
  8
4
  6
CONTINUOUS
 10
72.744382
 20
41.354080
 11
72.504382
 21
41.354080
  0
LINE
  8
4
  6
CONTINUOUS
 10
72.744382
 20
41.330080
 11
72.504382
 21
41.330080
  0
POLYLINE
  8
4
  6
CONTINUOUS
 66
     1
  0
VERTEX
  8
4
  6
CONTINUOUS
 10
72.624382
 20
40.178080
  0
VERTEX
  8
4
  6
CONTINUOUS
 10
72.624382
 20
5.674210
  0
SEQEND
  8
4
  6
CONTINUOUS
  0
LINE
  8
4
  6
CONTINUOUS
 10
79.999695
 20
5.674210
 11
79.999695
 21
4.774210
  0
LINE
  8
4
  6
CONTINUOUS
 10
79.864695
 20
5.224210
 11
80.134695
 21
5.224210
  0
LINE
  8
4
  6
CONTINUOUS
 10
79.864695
 20
5.134210
 11
80.134695
 21
5.134210
  0
LINE
  8
4
  6
CONTINUOUS
 10
79.864695
 20
5.044210
 11
80.134695
 21
5.044210
  0
LINE
  8
4
  6
CONTINUOUS
 10
79.864695
 20
4.954210
 11
80.134695
 21
4.954210
  0
LINE
  8
4
  6
CONTINUOUS
 10
79.932195
 20
4.774210
 11
80.067195
 21
4.774210
  0
LINE
  8
4
  6
CONTINUOUS
 10
79.932195
 20
4.774210
 11
79.999695
 21
3.874210
  0
LINE
  8
4
  6
CONTINUOUS
 10
80.067195
 20
4.774210
 11
79.999695
 21
3.874210
  0
LINE
  8
4
  6
CONTINUOUS
 10
79.999695
 20
40.178080
 11
79.999695
 21
41.378080
  0
LINE
  8
4
  6
CONTINUOUS
 10
80.119695
 20
41.378080
 11
79.879695
 21
41.378080
  0
LINE
  8
4
  6
CONTINUOUS
 10
80.119695
 20
41.354080
 11
79.879695
 21
41.354080
  0
LINE
  8
4
  6
CONTINUOUS
 10
80.119695
 20
41.330080
 11
79.879695
 21
41.330080
  0
POLYLINE
  8
4
  6
CONTINUOUS
 66
     1
  0
VERTEX
  8
4
  6
CONTINUOUS
 10
79.999695
 20
40.178080
  0
VERTEX
  8
4
  6
CONTINUOUS
 10
79.999695
 20
5.674210
  0
SEQEND
  8
4
  6
CONTINUOUS
  0
LINE
  8
4
  6
CONTINUOUS
 10
80.319695
 20
5.674210
 11
80.319695
 21
4.774210
  0
LINE
  8
4
  6
CONTINUOUS
 10
80.184695
 20
5.224210
 11
80.454695
 21
5.224210
  0
LINE
  8
4
  6
CONTINUOUS
 10
80.184695
 20
5.134210
 11
80.454695
 21
5.134210
  0
LINE
  8
4
  6
CONTINUOUS
 10
80.184695
 20
5.044210
 11
80.454695
 21
5.044210
  0
LINE
  8
4
  6
CONTINUOUS
 10
80.184695
 20
4.954210
 11
80.454695
 21
4.954210
  0
LINE
  8
4
  6
CONTINUOUS
 10
80.252195
 20
4.774210
 11
80.387195
 21
4.774210
  0
LINE
  8
4
  6
CONTINUOUS
 10
80.252195
 20
4.774210
 11
80.319695
 21
3.874210
  0
LINE
  8
4
  6
CONTINUOUS
 10
80.387195
 20
4.774210
 11
80.319695
 21
3.874210
  0
LINE
  8
4
  6
CONTINUOUS
 10
80.319695
 20
40.178080
 11
80.319695
 21
41.378080
  0
LINE
  8
4
  6
CONTINUOUS
 10
80.439695
 20
41.378080
 11
80.199695
 21
41.378080
  0
LINE
  8
4
  6
CONTINUOUS
 10
80.439695
 20
41.354080
 11
80.199695
 21
41.354080
  0
LINE
  8
4
  6
CONTINUOUS
 10
80.439695
 20
41.330080
 11
80.199695
 21
41.330080
  0
POLYLINE
  8
4
  6
CONTINUOUS
 66
     1
  0
VERTEX
  8
4
  6
CONTINUOUS
 10
80.319695
 20
40.178080
  0
VERTEX
  8
4
  6
CONTINUOUS
 10
80.319695
 20
5.674210
  0
SEQEND
  8
4
  6
CONTINUOUS
  0
LINE
  8
4
  6
CONTINUOUS
 10
80.639695
 20
5.674210
 11
80.639695
 21
4.774210
  0
LINE
  8
4
  6
CONTINUOUS
 10
80.504695
 20
5.224210
 11
80.774695
 21
5.224210
  0
LINE
  8
4
  6
CONTINUOUS
 10
80.504695
 20
5.134210
 11
80.774695
 21
5.134210
  0
LINE
  8
4
  6
CONTINUOUS
 10
80.504695
 20
5.044210
 11
80.774695
 21
5.044210
  0
LINE
  8
4
  6
CONTINUOUS
 10
80.504695
 20
4.954210
 11
80.774695
 21
4.954210
  0
LINE
  8
4
  6
CONTINUOUS
 10
80.572195
 20
4.774210
 11
80.707195
 21
4.774210
  0
LINE
  8
4
  6
CONTINUOUS
 10
80.572195
 20
4.774210
 11
80.639695
 21
3.874210
  0
LINE
  8
4
  6
CONTINUOUS
 10
80.707195
 20
4.774210
 11
80.639695
 21
3.874210
  0
LINE
  8
4
  6
CONTINUOUS
 10
80.639695
 20
40.178080
 11
80.639695
 21
41.378080
  0
LINE
  8
4
  6
CONTINUOUS
 10
80.759695
 20
41.378080
 11
80.519695
 21
41.378080
  0
LINE
  8
4
  6
CONTINUOUS
 10
80.759695
 20
41.354080
 11
80.519695
 21
41.354080
  0
LINE
  8
4
  6
CONTINUOUS
 10
80.759695
 20
41.330080
 11
80.519695
 21
41.330080
  0
POLYLINE
  8
4
  6
CONTINUOUS
 66
     1
  0
VERTEX
  8
4
  6
CONTINUOUS
 10
80.639695
 20
40.178080
  0
VERTEX
  8
4
  6
CONTINUOUS
 10
80.639695
 20
5.674210
  0
SEQEND
  8
4
  6
CONTINUOUS
  0
LINE
  8
4
  6
CONTINUOUS
 10
80.959695
 20
5.674210
 11
80.959695
 21
4.774210
  0
LINE
  8
4
  6
CONTINUOUS
 10
80.824695
 20
5.224210
 11
81.094695
 21
5.224210
  0
LINE
  8
4
  6
CONTINUOUS
 10
80.824695
 20
5.134210
 11
81.094695
 21
5.134210
  0
LINE
  8
4
  6
CONTINUOUS
 10
80.824695
 20
5.044210
 11
81.094695
 21
5.044210
  0
LINE
  8
4
  6
CONTINUOUS
 10
80.824695
 20
4.954210
 11
81.094695
 21
4.954210
  0
LINE
  8
4
  6
CONTINUOUS
 10
80.892195
 20
4.774210
 11
81.027195
 21
4.774210
  0
LINE
  8
4
  6
CONTINUOUS
 10
80.892195
 20
4.774210
 11
80.959695
 21
3.874210
  0
LINE
  8
4
  6
CONTINUOUS
 10
81.027195
 20
4.774210
 11
80.959695
 21
3.874210
  0
LINE
  8
4
  6
CONTINUOUS
 10
80.959695
 20
40.178080
 11
80.959695
 21
41.378080
  0
LINE
  8
4
  6
CONTINUOUS
 10
81.079695
 20
41.378080
 11
80.839695
 21
41.378080
  0
LINE
  8
4
  6
CONTINUOUS
 10
81.079695
 20
41.354080
 11
80.839695
 21
41.354080
  0
LINE
  8
4
  6
CONTINUOUS
 10
81.079695
 20
41.330080
 11
80.839695
 21
41.330080
  0
POLYLINE
  8
4
  6
CONTINUOUS
 66
     1
  0
VERTEX
  8
4
  6
CONTINUOUS
 10
80.959695
 20
40.178080
  0
VERTEX
  8
4
  6
CONTINUOUS
 10
80.959695
 20
5.674210
  0
SEQEND
  8
4
  6
CONTINUOUS
  0
LINE
  8
4
  6
CONTINUOUS
 10
81.279695
 20
5.674210
 11
81.279695
 21
4.774210
  0
LINE
  8
4
  6
CONTINUOUS
 10
81.144695
 20
5.224210
 11
81.414695
 21
5.224210
  0
LINE
  8
4
  6
CONTINUOUS
 10
81.144695
 20
5.134210
 11
81.414695
 21
5.134210
  0
LINE
  8
4
  6
CONTINUOUS
 10
81.144695
 20
5.044210
 11
81.414695
 21
5.044210
  0
LINE
  8
4
  6
CONTINUOUS
 10
81.144695
 20
4.954210
 11
81.414695
 21
4.954210
  0
LINE
  8
4
  6
CONTINUOUS
 10
81.212195
 20
4.774210
 11
81.347195
 21
4.774210
  0
LINE
  8
4
  6
CONTINUOUS
 10
81.212195
 20
4.774210
 11
81.279695
 21
3.874210
  0
LINE
  8
4
  6
CONTINUOUS
 10
81.347195
 20
4.774210
 11
81.279695
 21
3.874210
  0
LINE
  8
4
  6
CONTINUOUS
 10
81.279695
 20
40.178080
 11
81.279695
 21
41.378080
  0
LINE
  8
4
  6
CONTINUOUS
 10
81.399695
 20
41.378080
 11
81.159695
 21
41.378080
  0
LINE
  8
4
  6
CONTINUOUS
 10
81.399695
 20
41.354080
 11
81.159695
 21
41.354080
  0
LINE
  8
4
  6
CONTINUOUS
 10
81.399695
 20
41.330080
 11
81.159695
 21
41.330080
  0
POLYLINE
  8
4
  6
CONTINUOUS
 66
     1
  0
VERTEX
  8
4
  6
CONTINUOUS
 10
81.279695
 20
40.178080
  0
VERTEX
  8
4
  6
CONTINUOUS
 10
81.279695
 20
5.674210
  0
SEQEND
  8
4
  6
CONTINUOUS
  0
LINE
  8
4
  6
CONTINUOUS
 10
11.219069
 20
5.674210
 11
11.219069
 21
4.774210
  0
LINE
  8
4
  6
CONTINUOUS
 10
11.151569
 20
4.774210
 11
11.286569
 21
4.774210
  0
LINE
  8
4
  6
CONTINUOUS
 10
11.151569
 20
4.774210
 11
11.219069
 21
3.874210
  0
LINE
  8
4
  6
CONTINUOUS
 10
11.286569
 20
4.774210
 11
11.219069
 21
3.874210
  0
LINE
  8
4
  6
CONTINUOUS
 10
11.084069
 20
4.954210
 11
11.354069
 21
4.954210
  0
LINE
  8
4
  6
CONTINUOUS
 10
11.084069
 20
5.066710
 11
11.354069
 21
5.066710
  0
LINE
  8
4
  6
CONTINUOUS
 10
11.084069
 20
5.179210
 11
11.354069
 21
5.179210
  0
LINE
  8
4
  6
CONTINUOUS
 10
11.219069
 20
40.178080
 11
11.219069
 21
41.378080
  0
LINE
  8
4
  6
CONTINUOUS
 10
11.339069
 20
41.378080
 11
11.099069
 21
41.378080
  0
LINE
  8
4
  6
CONTINUOUS
 10
11.339069
 20
41.354080
 11
11.099069
 21
41.354080
  0
LINE
  8
4
  6
CONTINUOUS
 10
11.339069
 20
41.330080
 11
11.099069
 21
41.330080
  0
POLYLINE
  8
4
  6
CONTINUOUS
 66
     1
  0
VERTEX
  8
4
  6
CONTINUOUS
 10
11.219069
 20
40.178080
  0
VERTEX
  8
4
  6
CONTINUOUS
 10
11.219069
 20
5.674210
  0
SEQEND
  8
4
  6
CONTINUOUS
  0
LINE
  8
4
  6
CONTINUOUS
 10
12.019069
 20
5.674210
 11
12.019069
 21
4.774210
  0
LINE
  8
4
  6
CONTINUOUS
 10
11.951569
 20
4.774210
 11
12.086569
 21
4.774210
  0
LINE
  8
4
  6
CONTINUOUS
 10
11.951569
 20
4.774210
 11
12.019069
 21
3.874210
  0
LINE
  8
4
  6
CONTINUOUS
 10
12.086569
 20
4.774210
 11
12.019069
 21
3.874210
  0
LINE
  8
4
  6
CONTINUOUS
 10
11.884069
 20
4.954210
 11
12.154069
 21
4.954210
  0
LINE
  8
4
  6
CONTINUOUS
 10
11.884069
 20
5.066710
 11
12.154069
 21
5.066710
  0
LINE
  8
4
  6
CONTINUOUS
 10
11.884069
 20
5.179210
 11
12.154069
 21
5.179210
  0
LINE
  8
4
  6
CONTINUOUS
 10
12.019069
 20
40.178080
 11
12.019069
 21
41.378080
  0
LINE
  8
4
  6
CONTINUOUS
 10
12.139069
 20
41.378080
 11
11.899069
 21
41.378080
  0
LINE
  8
4
  6
CONTINUOUS
 10
12.139069
 20
41.354080
 11
11.899069
 21
41.354080
  0
LINE
  8
4
  6
CONTINUOUS
 10
12.139069
 20
41.330080
 11
11.899069
 21
41.330080
  0
POLYLINE
  8
4
  6
CONTINUOUS
 66
     1
  0
VERTEX
  8
4
  6
CONTINUOUS
 10
12.019069
 20
40.178080
  0
VERTEX
  8
4
  6
CONTINUOUS
 10
12.019069
 20
5.674210
  0
SEQEND
  8
4
  6
CONTINUOUS
  0
LINE
  8
4
  6
CONTINUOUS
 10
90.056635
 20
5.674210
 11
90.056635
 21
4.774210
  0
LINE
  8
4
  6
CONTINUOUS
 10
89.921635
 20
5.224210
 11
90.191635
 21
5.224210
  0
LINE
  8
4
  6
CONTINUOUS
 10
89.921635
 20
5.134210
 11
90.191635
 21
5.134210
  0
LINE
  8
4
  6
CONTINUOUS
 10
89.921635
 20
5.044210
 11
90.191635
 21
5.044210
  0
LINE
  8
4
  6
CONTINUOUS
 10
89.921635
 20
4.954210
 11
90.191635
 21
4.954210
  0
LINE
  8
4
  6
CONTINUOUS
 10
89.989135
 20
4.774210
 11
90.124135
 21
4.774210
  0
LINE
  8
4
  6
CONTINUOUS
 10
89.989135
 20
4.774210
 11
90.056635
 21
3.874210
  0
LINE
  8
4
  6
CONTINUOUS
 10
90.124135
 20
4.774210
 11
90.056635
 21
3.874210
  0
LINE
  8
4
  6
CONTINUOUS
 10
90.056635
 20
40.178080
 11
90.056635
 21
41.378080
  0
LINE
  8
4
  6
CONTINUOUS
 10
90.176635
 20
41.378080
 11
89.936635
 21
41.378080
  0
LINE
  8
4
  6
CONTINUOUS
 10
90.176635
 20
41.354080
 11
89.936635
 21
41.354080
  0
LINE
  8
4
  6
CONTINUOUS
 10
90.176635
 20
41.330080
 11
89.936635
 21
41.330080
  0
POLYLINE
  8
4
  6
CONTINUOUS
 66
     1
  0
VERTEX
  8
4
  6
CONTINUOUS
 10
90.056635
 20
40.178080
  0
VERTEX
  8
4
  6
CONTINUOUS
 10
90.056635
 20
5.674210
  0
SEQEND
  8
4
  6
CONTINUOUS
  0
LINE
  8
4
  6
CONTINUOUS
 10
90.576635
 20
5.674210
 11
90.576635
 21
4.774210
  0
LINE
  8
4
  6
CONTINUOUS
 10
90.441635
 20
5.224210
 11
90.711635
 21
5.224210
  0
LINE
  8
4
  6
CONTINUOUS
 10
90.441635
 20
5.134210
 11
90.711635
 21
5.134210
  0
LINE
  8
4
  6
CONTINUOUS
 10
90.441635
 20
5.044210
 11
90.711635
 21
5.044210
  0
LINE
  8
4
  6
CONTINUOUS
 10
90.441635
 20
4.954210
 11
90.711635
 21
4.954210
  0
LINE
  8
4
  6
CONTINUOUS
 10
90.509135
 20
4.774210
 11
90.644135
 21
4.774210
  0
LINE
  8
4
  6
CONTINUOUS
 10
90.509135
 20
4.774210
 11
90.576635
 21
3.874210
  0
LINE
  8
4
  6
CONTINUOUS
 10
90.644135
 20
4.774210
 11
90.576635
 21
3.874210
  0
LINE
  8
4
  6
CONTINUOUS
 10
90.576635
 20
40.178080
 11
90.576635
 21
41.378080
  0
LINE
  8
4
  6
CONTINUOUS
 10
90.696635
 20
41.378080
 11
90.456635
 21
41.378080
  0
LINE
  8
4
  6
CONTINUOUS
 10
90.696635
 20
41.354080
 11
90.456635
 21
41.354080
  0
LINE
  8
4
  6
CONTINUOUS
 10
90.696635
 20
41.330080
 11
90.456635
 21
41.330080
  0
POLYLINE
  8
4
  6
CONTINUOUS
 66
     1
  0
VERTEX
  8
4
  6
CONTINUOUS
 10
90.576635
 20
40.178080
  0
VERTEX
  8
4
  6
CONTINUOUS
 10
90.576635
 20
5.674210
  0
SEQEND
  8
4
  6
CONTINUOUS
  0
LINE
  8
4
  6
CONTINUOUS
 10
91.096635
 20
5.674210
 11
91.096635
 21
4.774210
  0
LINE
  8
4
  6
CONTINUOUS
 10
90.961635
 20
5.224210
 11
91.231635
 21
5.224210
  0
LINE
  8
4
  6
CONTINUOUS
 10
90.961635
 20
5.134210
 11
91.231635
 21
5.134210
  0
LINE
  8
4
  6
CONTINUOUS
 10
90.961635
 20
5.044210
 11
91.231635
 21
5.044210
  0
LINE
  8
4
  6
CONTINUOUS
 10
90.961635
 20
4.954210
 11
91.231635
 21
4.954210
  0
LINE
  8
4
  6
CONTINUOUS
 10
91.029135
 20
4.774210
 11
91.164135
 21
4.774210
  0
LINE
  8
4
  6
CONTINUOUS
 10
91.029135
 20
4.774210
 11
91.096635
 21
3.874210
  0
LINE
  8
4
  6
CONTINUOUS
 10
91.164135
 20
4.774210
 11
91.096635
 21
3.874210
  0
LINE
  8
4
  6
CONTINUOUS
 10
91.096635
 20
40.178080
 11
91.096635
 21
41.378080
  0
LINE
  8
4
  6
CONTINUOUS
 10
91.216635
 20
41.378080
 11
90.976635
 21
41.378080
  0
LINE
  8
4
  6
CONTINUOUS
 10
91.216635
 20
41.354080
 11
90.976635
 21
41.354080
  0
LINE
  8
4
  6
CONTINUOUS
 10
91.216635
 20
41.330080
 11
90.976635
 21
41.330080
  0
POLYLINE
  8
4
  6
CONTINUOUS
 66
     1
  0
VERTEX
  8
4
  6
CONTINUOUS
 10
91.096635
 20
40.178080
  0
VERTEX
  8
4
  6
CONTINUOUS
 10
91.096635
 20
5.674210
  0
SEQEND
  8
4
  6
CONTINUOUS
  0
LINE
  8
4
  6
CONTINUOUS
 10
53.698333
 20
5.674210
 11
53.698333
 21
4.774210
  0
LINE
  8
4
  6
CONTINUOUS
 10
53.563333
 20
5.224210
 11
53.833333
 21
5.224210
  0
LINE
  8
4
  6
CONTINUOUS
 10
53.563333
 20
5.134210
 11
53.833333
 21
5.134210
  0
LINE
  8
4
  6
CONTINUOUS
 10
53.563333
 20
5.044210
 11
53.833333
 21
5.044210
  0
LINE
  8
4
  6
CONTINUOUS
 10
53.563333
 20
4.954210
 11
53.833333
 21
4.954210
  0
LINE
  8
4
  6
CONTINUOUS
 10
53.630833
 20
4.774210
 11
53.765833
 21
4.774210
  0
LINE
  8
4
  6
CONTINUOUS
 10
53.630833
 20
4.774210
 11
53.698333
 21
3.874210
  0
LINE
  8
4
  6
CONTINUOUS
 10
53.765833
 20
4.774210
 11
53.698333
 21
3.874210
  0
LINE
  8
4
  6
CONTINUOUS
 10
53.698333
 20
40.178080
 11
53.698333
 21
41.378080
  0
LINE
  8
4
  6
CONTINUOUS
 10
53.818333
 20
41.378080
 11
53.578333
 21
41.378080
  0
LINE
  8
4
  6
CONTINUOUS
 10
53.818333
 20
41.354080
 11
53.578333
 21
41.354080
  0
LINE
  8
4
  6
CONTINUOUS
 10
53.818333
 20
41.330080
 11
53.578333
 21
41.330080
  0
POLYLINE
  8
4
  6
CONTINUOUS
 66
     1
  0
VERTEX
  8
4
  6
CONTINUOUS
 10
53.698333
 20
40.178080
  0
VERTEX
  8
4
  6
CONTINUOUS
 10
53.698333
 20
5.674210
  0
SEQEND
  8
4
  6
CONTINUOUS
  0
LINE
  8
4
  6
CONTINUOUS
 10
54.098333
 20
5.674210
 11
54.098333
 21
4.774210
  0
LINE
  8
4
  6
CONTINUOUS
 10
53.963333
 20
5.224210
 11
54.233333
 21
5.224210
  0
LINE
  8
4
  6
CONTINUOUS
 10
53.963333
 20
5.134210
 11
54.233333
 21
5.134210
  0
LINE
  8
4
  6
CONTINUOUS
 10
53.963333
 20
5.044210
 11
54.233333
 21
5.044210
  0
LINE
  8
4
  6
CONTINUOUS
 10
53.963333
 20
4.954210
 11
54.233333
 21
4.954210
  0
LINE
  8
4
  6
CONTINUOUS
 10
54.030833
 20
4.774210
 11
54.165833
 21
4.774210
  0
LINE
  8
4
  6
CONTINUOUS
 10
54.030833
 20
4.774210
 11
54.098333
 21
3.874210
  0
LINE
  8
4
  6
CONTINUOUS
 10
54.165833
 20
4.774210
 11
54.098333
 21
3.874210
  0
LINE
  8
4
  6
CONTINUOUS
 10
54.098333
 20
40.178080
 11
54.098333
 21
41.378080
  0
LINE
  8
4
  6
CONTINUOUS
 10
54.218333
 20
41.378080
 11
53.978333
 21
41.378080
  0
LINE
  8
4
  6
CONTINUOUS
 10
54.218333
 20
41.354080
 11
53.978333
 21
41.354080
  0
LINE
  8
4
  6
CONTINUOUS
 10
54.218333
 20
41.330080
 11
53.978333
 21
41.330080
  0
POLYLINE
  8
4
  6
CONTINUOUS
 66
     1
  0
VERTEX
  8
4
  6
CONTINUOUS
 10
54.098333
 20
40.178080
  0
VERTEX
  8
4
  6
CONTINUOUS
 10
54.098333
 20
5.674210
  0
SEQEND
  8
4
  6
CONTINUOUS
  0
LINE
  8
4
  6
CONTINUOUS
 10
54.498333
 20
5.674210
 11
54.498333
 21
4.774210
  0
LINE
  8
4
  6
CONTINUOUS
 10
54.363333
 20
5.224210
 11
54.633333
 21
5.224210
  0
LINE
  8
4
  6
CONTINUOUS
 10
54.363333
 20
5.134210
 11
54.633333
 21
5.134210
  0
LINE
  8
4
  6
CONTINUOUS
 10
54.363333
 20
5.044210
 11
54.633333
 21
5.044210
  0
LINE
  8
4
  6
CONTINUOUS
 10
54.363333
 20
4.954210
 11
54.633333
 21
4.954210
  0
LINE
  8
4
  6
CONTINUOUS
 10
54.430833
 20
4.774210
 11
54.565833
 21
4.774210
  0
LINE
  8
4
  6
CONTINUOUS
 10
54.430833
 20
4.774210
 11
54.498333
 21
3.874210
  0
LINE
  8
4
  6
CONTINUOUS
 10
54.565833
 20
4.774210
 11
54.498333
 21
3.874210
  0
LINE
  8
4
  6
CONTINUOUS
 10
54.498333
 20
40.178080
 11
54.498333
 21
41.378080
  0
LINE
  8
4
  6
CONTINUOUS
 10
54.618333
 20
41.378080
 11
54.378333
 21
41.378080
  0
LINE
  8
4
  6
CONTINUOUS
 10
54.618333
 20
41.354080
 11
54.378333
 21
41.354080
  0
LINE
  8
4
  6
CONTINUOUS
 10
54.618333
 20
41.330080
 11
54.378333
 21
41.330080
  0
POLYLINE
  8
4
  6
CONTINUOUS
 66
     1
  0
VERTEX
  8
4
  6
CONTINUOUS
 10
54.498333
 20
40.178080
  0
VERTEX
  8
4
  6
CONTINUOUS
 10
54.498333
 20
5.674210
  0
SEQEND
  8
4
  6
CONTINUOUS
  0
LINE
  8
4
  6
CONTINUOUS
 10
54.898333
 20
5.674210
 11
54.898333
 21
4.774210
  0
LINE
  8
4
  6
CONTINUOUS
 10
54.763333
 20
5.224210
 11
55.033333
 21
5.224210
  0
LINE
  8
4
  6
CONTINUOUS
 10
54.763333
 20
5.134210
 11
55.033333
 21
5.134210
  0
LINE
  8
4
  6
CONTINUOUS
 10
54.763333
 20
5.044210
 11
55.033333
 21
5.044210
  0
LINE
  8
4
  6
CONTINUOUS
 10
54.763333
 20
4.954210
 11
55.033333
 21
4.954210
  0
LINE
  8
4
  6
CONTINUOUS
 10
54.830833
 20
4.774210
 11
54.965833
 21
4.774210
  0
LINE
  8
4
  6
CONTINUOUS
 10
54.830833
 20
4.774210
 11
54.898333
 21
3.874210
  0
LINE
  8
4
  6
CONTINUOUS
 10
54.965833
 20
4.774210
 11
54.898333
 21
3.874210
  0
LINE
  8
4
  6
CONTINUOUS
 10
54.898333
 20
40.178080
 11
54.898333
 21
41.378080
  0
LINE
  8
4
  6
CONTINUOUS
 10
55.018333
 20
41.378080
 11
54.778333
 21
41.378080
  0
LINE
  8
4
  6
CONTINUOUS
 10
55.018333
 20
41.354080
 11
54.778333
 21
41.354080
  0
LINE
  8
4
  6
CONTINUOUS
 10
55.018333
 20
41.330080
 11
54.778333
 21
41.330080
  0
POLYLINE
  8
4
  6
CONTINUOUS
 66
     1
  0
VERTEX
  8
4
  6
CONTINUOUS
 10
54.898333
 20
40.178080
  0
VERTEX
  8
4
  6
CONTINUOUS
 10
54.898333
 20
5.674210
  0
SEQEND
  8
4
  6
CONTINUOUS
  0
LINE
  8
1
  6
CONTINUOUS
 10
118.000002
 20
29.700001
 11
119.000002
 21
29.700001
  0
LINE
  8
1
  6
CONTINUOUS
 10
118.000002
 20
59.400002
 11
119.000002
 21
59.400002
  0
LINE
  8
1
  6
CONTINUOUS
 10
0.000000
 20
29.700001
 11
2.500000
 21
29.700001
  0
LINE
  8
1
  6
CONTINUOUS
 10
0.000000
 20
59.400002
 11
2.500000
 21
59.400002
  0
LINE
  8
1
  6
CONTINUOUS
 10
100.500002
 20
82.999998
 11
100.500002
 21
83.999998
  0
LINE
  8
1
  6
CONTINUOUS
 10
82.000002
 20
82.999998
 11
82.000002
 21
83.999998
  0
LINE
  8
1
  6
CONTINUOUS
 10
63.500002
 20
82.999998
 11
63.500002
 21
83.999998
  0
LINE
  8
1
  6
CONTINUOUS
 10
45.000002
 20
82.999998
 11
45.000002
 21
83.999998
  0
LINE
  8
1
  6
CONTINUOUS
 10
33.050001
 20
82.999998
 11
33.050001
 21
83.999998
  0
LINE
  8
1
  6
CONTINUOUS
 10
21.100000
 20
82.999998
 11
21.100000
 21
83.999998
  0
LINE
  8
1
  6
CONTINUOUS
 10
100.500002
 20
0.000000
 11
100.500002
 21
1.000000
  0
LINE
  8
1
  6
CONTINUOUS
 10
82.000002
 20
0.000000
 11
82.000002
 21
1.000000
  0
LINE
  8
1
  6
CONTINUOUS
 10
63.500002
 20
0.000000
 11
63.500002
 21
1.000000
  0
LINE
  8
1
  6
CONTINUOUS
 10
45.000002
 20
0.000000
 11
45.000002
 21
1.000000
  0
LINE
  8
1
  6
CONTINUOUS
 10
33.050001
 20
0.000000
 11
33.050001
 21
1.000000
  0
LINE
  8
1
  6
CONTINUOUS
 10
21.100000
 20
0.000000
 11
21.100000
 21
1.000000
  0
LINE
  8
1
  6
CONTINUOUS
 10
0.000000
 20
0.000000
 11
119.000002
 21
0.000000
  0
LINE
  8
1
  6
CONTINUOUS
 10
119.000002
 20
0.000000
 11
119.000002
 21
83.999998
  0
LINE
  8
1
  6
CONTINUOUS
 10
0.000000
 20
0.000000
 11
0.000000
 21
83.999998
  0
LINE
  8
8
  6
CONTINUOUS
 10
2.500000
 20
1.000000
 11
118.000002
 21
1.000000
  0
LINE
  8
8
  6
CONTINUOUS
 10
118.000002
 20
1.000000
 11
118.000002
 21
82.999998
  0
LINE
  8
1
  6
CONTINUOUS
 10
0.000000
 20
83.999998
 11
119.000002
 21
83.999998
  0
LINE
  8
8
  6
CONTINUOUS
 10
2.500000
 20
82.999998
 11
118.000002
 21
82.999998
  0
LINE
  8
8
  6
CONTINUOUS
 10
2.500000
 20
82.999998
 11
2.500000
 21
1.000000
  0
LINE
  8
2
  6
CONTINUOUS
 10
102.650002
 20
17.625000
 11
102.650002
 21
18.125000
  0
LINE
  8
1
  6
CONTINUOUS
 10
101.700002
 20
18.200000
 11
118.000002
 21
18.200000
  0
LINE
  8
1
  6
CONTINUOUS
 10
101.700002
 20
17.700000
 11
118.000002
 21
17.700000
  0
LINE
  8
1
  6
CONTINUOUS
 10
102.200002
 20
17.700000
 11
118.000002
 21
17.700000
  0
LINE
  8
2
  6
CONTINUOUS
 10
102.650002
 20
17.125000
 11
102.650002
 21
17.625000
  0
LINE
  8
1
  6
CONTINUOUS
 10
102.200002
 20
17.700000
 11
118.000002
 21
17.700000
  0
LINE
  8
1
  6
CONTINUOUS
 10
101.700002
 20
17.200000
 11
118.000002
 21
17.200000
  0
LINE
  8
2
  6
CONTINUOUS
 10
102.650002
 20
16.700000
 11
102.650002
 21
17.200000
  0
LINE
  8
1
  6
CONTINUOUS
 10
116.008223
 20
16.000000
 11
116.008223
 21
22.200000
  0
LINE
  8
1
  6
CONTINUOUS
 10
104.850002
 20
16.000000
 11
104.850002
 21
22.200000
  0
LINE
  8
6
  6
CONTINUOUS
 10
101.700002
 20
16.000000
 11
118.000002
 21
16.000000
  0
LINE
  8
1
  6
CONTINUOUS
 10
102.650002
 20
16.000000
 11
102.650002
 21
16.700000
  0
LINE
  8
1
  6
CONTINUOUS
 10
102.200002
 20
17.200000
 11
118.000002
 21
17.200000
  0
LINE
  8
1
  6
CONTINUOUS
 10
101.700002
 20
16.700000
 11
118.000002
 21
16.700000
  0
LINE
  8
2
  6
CONTINUOUS
 10
102.650002
 20
18.625000
 11
102.650002
 21
22.200000
  0
LINE
  8
6
  6
CONTINUOUS
 10
101.700002
 20
22.200000
 11
118.000002
 21
22.200000
  0
LINE
  8
1
  6
CONTINUOUS
 10
101.700002
 20
18.700000
 11
118.000002
 21
18.700000
  0
LINE
  8
1
  6
CONTINUOUS
 10
102.200002
 20
18.700000
 11
118.000002
 21
18.700000
  0
LINE
  8
2
  6
CONTINUOUS
 10
102.650002
 20
18.125000
 11
102.650002
 21
18.625000
  0
LINE
  8
1
  6
CONTINUOUS
 10
102.200002
 20
18.700000
 11
118.000002
 21
18.700000
  0
LINE
  8
1
  6
CONTINUOUS
 10
102.200002
 20
18.200000
 11
118.000002
 21
18.200000
  0
LINE
  8
1
  6
CONTINUOUS
 10
102.200002
 20
18.200000
 11
118.000002
 21
18.200000
  0
LINE
  8
6
  6
CONTINUOUS
 10
101.700002
 20
6.600000
 11
118.000002
 21
6.600000
  0
LINE
  8
6
  6
CONTINUOUS
 10
101.700002
 20
8.500000
 11
118.000002
 21
8.500000
  0
LINE
  8
6
  6
CONTINUOUS
 10
101.700002
 20
1.000000
 11
101.700002
 21
8.500000
  0
LINE
  8
6
  6
CONTINUOUS
 10
101.700002
 20
16.000000
 11
101.700002
 21
22.200000
  0
LINE
  8
6
  6
CONTINUOUS
 10
101.700002
 20
15.900000
 11
118.000002
 21
15.900000
  0
LINE
  8
6
  6
CONTINUOUS
 10
101.700002
 20
11.400000
 11
101.700002
 21
15.900000
  0
LINE
  8
1
  6
CONTINUOUS
 10
101.700002
 20
14.400000
 11
118.000002
 21
14.400000
  0
LINE
  8
6
  6
CONTINUOUS
 10
101.700002
 20
3.000000
 11
118.000002
 21
3.000000
  0
LINE
  8
6
  6
CONTINUOUS
 10
105.024321
 20
3.000000
 11
105.024321
 21
1.000000
  0
LINE
  8
1
  6
CONTINUOUS
 10
101.700002
 20
12.900000
 11
118.000002
 21
12.900000
  0
POLYLINE
  8
1
  6
CONTINUOUS
 66
     1
  0
VERTEX
  8
1
  6
CONTINUOUS
 10
103.635546
 20
9.498246
  0
VERTEX
  8
1
  6
CONTINUOUS
 10
101.971546
 20
9.498246
  0
VERTEX
  8
1
  6
CONTINUOUS
 10
101.971546
 20
11.162246
  0
VERTEX
  8
1
  6
CONTINUOUS
 10
103.635546
 20
11.162246
  0
VERTEX
  8
1
  6
CONTINUOUS
 10
103.635546
 20
9.498246
  0
SEQEND
  8
1
  6
CONTINUOUS
  0
POLYLINE
  8
13
  6
CONTINUOUS
 66
     1
  0
VERTEX
  8
13
  6
CONTINUOUS
 10
102.095046
 20
10.244446
  0
VERTEX
  8
13
  6
CONTINUOUS
 10
102.095046
 20
9.498246
  0
VERTEX
  8
13
  6
CONTINUOUS
 10
101.971546
 20
9.498246
  0
VERTEX
  8
13
  6
CONTINUOUS
 10
101.971546
 20
11.162246
  0
VERTEX
  8
13
  6
CONTINUOUS
 10
102.095046
 20
11.162246
  0
VERTEX
  8
13
  6
CONTINUOUS
 10
102.095046
 20
10.244446
  0
SEQEND
  8
13
  6
CONTINUOUS
  0
POLYLINE
  8
13
  6
CONTINUOUS
 66
     1
  0
VERTEX
  8
13
  6
CONTINUOUS
 10
102.522746
 20
10.230979
  0
VERTEX
  8
13
  6
CONTINUOUS
 10
102.522746
 20
9.498246
  0
VERTEX
  8
13
  6
CONTINUOUS
 10
102.095046
 20
9.498246
  0
VERTEX
  8
13
  6
CONTINUOUS
 10
102.095046
 20
10.244446
  0
VERTEX
  8
13
  6
CONTINUOUS
 10
102.143544
 20
10.248642
  0
VERTEX
  8
13
  6
CONTINUOUS
 10
102.211078
 20
10.252071
  0
VERTEX
  8
13
  6
CONTINUOUS
 10
102.259959
 20
10.252484
  0
VERTEX
  8
13
  6
CONTINUOUS
 10
102.290321
 20
10.252141
  0
VERTEX
  8
13
  6
CONTINUOUS
 10
102.334203
 20
10.250668
  0
VERTEX
  8
13
  6
CONTINUOUS
 10
102.394518
 20
10.246747
  0
VERTEX
  8
13
  6
CONTINUOUS
 10
102.446340
 20
10.241621
  0
VERTEX
  8
13
  6
CONTINUOUS
 10
102.490083
 20
10.235974
  0
VERTEX
  8
13
  6
CONTINUOUS
 10
102.522746
 20
10.230979
  0
SEQEND
  8
13
  6
CONTINUOUS
  0
POLYLINE
  8
13
  6
CONTINUOUS
 66
     1
  0
VERTEX
  8
13
  6
CONTINUOUS
 10
102.594246
 20
10.217654
  0
VERTEX
  8
13
  6
CONTINUOUS
 10
102.594246
 20
9.498246
  0
VERTEX
  8
13
  6
CONTINUOUS
 10
103.021946
 20
9.498246
  0
VERTEX
  8
13
  6
CONTINUOUS
 10
103.021946
 20
10.064184
  0
VERTEX
  8
13
  6
CONTINUOUS
 10
103.003898
 20
10.073542
  0
VERTEX
  8
13
  6
CONTINUOUS
 10
102.981716
 20
10.084501
  0
VERTEX
  8
13
  6
CONTINUOUS
 10
102.953307
 20
10.098271
  0
VERTEX
  8
13
  6
CONTINUOUS
 10
102.912865
 20
10.116383
  0
VERTEX
  8
13
  6
CONTINUOUS
 10
102.885024
 20
10.128001
  0
VERTEX
  8
13
  6
CONTINUOUS
 10
102.844071
 20
10.144755
  0
VERTEX
  8
13
  6
CONTINUOUS
 10
102.813490
 20
10.155923
  0
VERTEX
  8
13
  6
CONTINUOUS
 10
102.778388
 20
10.168156
  0
VERTEX
  8
13
  6
CONTINUOUS
 10
102.744083
 20
10.178793
  0
VERTEX
  8
13
  6
CONTINUOUS
 10
102.703465
 20
10.191172
  0
VERTEX
  8
13
  6
CONTINUOUS
 10
102.665141
 20
10.201162
  0
VERTEX
  8
13
  6
CONTINUOUS
 10
102.624819
 20
10.210970
  0
VERTEX
  8
13
  6
CONTINUOUS
 10
102.594246
 20
10.217654
  0
SEQEND
  8
13
  6
CONTINUOUS
  0
POLYLINE
  8
13
  6
CONTINUOUS
 66
     1
  0
VERTEX
  8
13
  6
CONTINUOUS
 10
103.093446
 20
10.024343
  0
VERTEX
  8
13
  6
CONTINUOUS
 10
103.093446
 20
9.498246
  0
VERTEX
  8
13
  6
CONTINUOUS
 10
103.521146
 20
9.498246
  0
VERTEX
  8
13
  6
CONTINUOUS
 10
103.521146
 20
9.661030
  0
VERTEX
  8
13
  6
CONTINUOUS
 10
103.507797
 20
9.676793
  0
VERTEX
  8
13
  6
CONTINUOUS
 10
103.495964
 20
9.690528
  0
VERTEX
  8
13
  6
CONTINUOUS
 10
103.473877
 20
9.715277
  0
VERTEX
  8
13
  6
CONTINUOUS
 10
103.454164
 20
9.736530
  0
VERTEX
  8
13
  6
CONTINUOUS
 10
103.434048
 20
9.757502
  0
VERTEX
  8
13
  6
CONTINUOUS
 10
103.410015
 20
9.781535
  0
VERTEX
  8
13
  6
CONTINUOUS
 10
103.399294
 20
9.791943
  0
VERTEX
  8
13
  6
CONTINUOUS
 10
103.388429
 20
9.802406
  0
VERTEX
  8
13
  6
CONTINUOUS
 10
103.359952
 20
9.828752
  0
VERTEX
  8
13
  6
CONTINUOUS
 10
103.325139
 20
9.859181
  0
VERTEX
  8
13
  6
CONTINUOUS
 10
103.286846
 20
9.890826
  0
VERTEX
  8
13
  6
CONTINUOUS
 10
103.251036
 20
9.918745
  0
VERTEX
  8
13
  6
CONTINUOUS
 10
103.200839
 20
9.955427
  0
VERTEX
  8
13
  6
CONTINUOUS
 10
103.134352
 20
9.999676
  0
VERTEX
  8
13
  6
CONTINUOUS
 10
103.093446
 20
10.024343
  0
SEQEND
  8
13
  6
CONTINUOUS
  0
POLYLINE
  8
13
  6
CONTINUOUS
 66
     1
  0
VERTEX
  8
13
  6
CONTINUOUS
 10
102.522746
 20
10.635283
  0
VERTEX
  8
13
  6
CONTINUOUS
 10
102.522746
 20
11.162246
  0
VERTEX
  8
13
  6
CONTINUOUS
 10
102.095046
 20
11.162246
  0
VERTEX
  8
13
  6
CONTINUOUS
 10
102.095046
 20
10.995122
  0
VERTEX
  8
13
  6
CONTINUOUS
 10
102.153689
 20
10.929235
  0
VERTEX
  8
13
  6
CONTINUOUS
 10
102.237359
 20
10.846559
  0
VERTEX
  8
13
  6
CONTINUOUS
 10
102.308389
 20
10.784730
  0
VERTEX
  8
13
  6
CONTINUOUS
 10
102.366624
 20
10.739274
  0
VERTEX
  8
13
  6
CONTINUOUS
 10
102.406322
 20
10.710064
  0
VERTEX
  8
13
  6
CONTINUOUS
 10
102.455827
 20
10.676682
  0
VERTEX
  8
13
  6
CONTINUOUS
 10
102.493954
 20
10.652515
  0
VERTEX
  8
13
  6
CONTINUOUS
 10
102.522746
 20
10.635283
  0
SEQEND
  8
13
  6
CONTINUOUS
  0
POLYLINE
  8
13
  6
CONTINUOUS
 66
     1
  0
VERTEX
  8
13
  6
CONTINUOUS
 10
103.021946
 20
10.443678
  0
VERTEX
  8
13
  6
CONTINUOUS
 10
103.021946
 20
11.162246
  0
VERTEX
  8
13
  6
CONTINUOUS
 10
102.594246
 20
11.162246
  0
VERTEX
  8
13
  6
CONTINUOUS
 10
102.594246
 20
10.595859
  0
VERTEX
  8
13
  6
CONTINUOUS
 10
102.663800
 20
10.561766
  0
VERTEX
  8
13
  6
CONTINUOUS
 10
102.744359
 20
10.527375
  0
VERTEX
  8
13
  6
CONTINUOUS
 10
102.812197
 20
10.501464
  0
VERTEX
  8
13
  6
CONTINUOUS
 10
102.889458
 20
10.476967
  0
VERTEX
  8
13
  6
CONTINUOUS
 10
102.950702
 20
10.460007
  0
VERTEX
  8
13
  6
CONTINUOUS
 10
103.021946
 20
10.443678
  0
SEQEND
  8
13
  6
CONTINUOUS
  0
POLYLINE
  8
13
  6
CONTINUOUS
 66
     1
  0
VERTEX
  8
13
  6
CONTINUOUS
 10
103.093446
 20
10.430307
  0
VERTEX
  8
13
  6
CONTINUOUS
 10
103.093446
 20
11.162246
  0
VERTEX
  8
13
  6
CONTINUOUS
 10
103.521146
 20
11.162246
  0
VERTEX
  8
13
  6
CONTINUOUS
 10
103.521146
 20
10.417580
  0
VERTEX
  8
13
  6
CONTINUOUS
 10
103.476372
 20
10.413637
  0
VERTEX
  8
13
  6
CONTINUOUS
 10
103.416577
 20
10.410480
  0
VERTEX
  8
13
  6
CONTINUOUS
 10
103.366788
 20
10.409453
  0
VERTEX
  8
13
  6
CONTINUOUS
 10
103.336830
 20
10.409453
  0
VERTEX
  8
13
  6
CONTINUOUS
 10
103.286182
 20
10.410821
  0
VERTEX
  8
13
  6
CONTINUOUS
 10
103.241261
 20
10.413321
  0
VERTEX
  8
13
  6
CONTINUOUS
 10
103.205545
 20
10.416539
  0
VERTEX
  8
13
  6
CONTINUOUS
 10
103.155349
 20
10.421044
  0
VERTEX
  8
13
  6
CONTINUOUS
 10
103.093446
 20
10.430307
  0
SEQEND
  8
13
  6
CONTINUOUS
  0
POLYLINE
  8
13
  6
CONTINUOUS
 66
     1
  0
VERTEX
  8
13
  6
CONTINUOUS
 10
102.522746
 20
9.498246
  0
VERTEX
  8
13
  6
CONTINUOUS
 10
102.594246
 20
9.498246
  0
VERTEX
  8
13
  6
CONTINUOUS
 10
102.594246
 20
11.162246
  0
VERTEX
  8
13
  6
CONTINUOUS
 10
102.522746
 20
11.162246
  0
VERTEX
  8
13
  6
CONTINUOUS
 10
102.522746
 20
9.498246
  0
VERTEX
  8
13
  6
CONTINUOUS
 10
102.594246
 20
9.498246
  0
SEQEND
  8
13
  6
CONTINUOUS
  0
POLYLINE
  8
13
  6
CONTINUOUS
 66
     1
  0
VERTEX
  8
13
  6
CONTINUOUS
 10
103.021946
 20
11.162246
  0
VERTEX
  8
13
  6
CONTINUOUS
 10
103.093446
 20
11.162246
  0
VERTEX
  8
13
  6
CONTINUOUS
 10
103.093446
 20
9.498246
  0
VERTEX
  8
13
  6
CONTINUOUS
 10
103.021946
 20
9.498246
  0
VERTEX
  8
13
  6
CONTINUOUS
 10
103.021946
 20
11.162246
  0
SEQEND
  8
13
  6
CONTINUOUS
  0
POLYLINE
  8
13
  6
CONTINUOUS
 66
     1
  0
VERTEX
  8
13
  6
CONTINUOUS
 10
103.521146
 20
9.498246
  0
VERTEX
  8
13
  6
CONTINUOUS
 10
103.635546
 20
9.498246
  0
VERTEX
  8
13
  6
CONTINUOUS
 10
103.635546
 20
11.162246
  0
VERTEX
  8
13
  6
CONTINUOUS
 10
103.521146
 20
11.162246
  0
VERTEX
  8
13
  6
CONTINUOUS
 10
103.521146
 20
9.498246
  0
SEQEND
  8
13
  6
CONTINUOUS
  0
LINE
  8
6
  6
CONTINUOUS
 10
107.924321
 20
3.000000
 11
107.924321
 21
2.000000
  0
LINE
  8
6
  6
CONTINUOUS
 10
101.700002
 20
2.000000
 11
114.124321
 21
2.000000
  0
LINE
  8
6
  6
CONTINUOUS
 10
114.124321
 20
3.000000
 11
114.124321
 21
1.000000
  0
LINE
  8
6
  6
CONTINUOUS
 10
101.700002
 20
8.600000
 11
118.000002
 21
8.600000
  0
LINE
  8
6
  6
CONTINUOUS
 10
101.700002
 20
8.600000
 11
101.700002
 21
11.300000
  0
LINE
  8
6
  6
CONTINUOUS
 10
101.700002
 20
11.300000
 11
118.000002
 21
11.300000
  0
LINE
  8
6
  6
CONTINUOUS
 10
101.700002
 20
11.400000
 11
118.000002
 21
11.400000
  0
LINE
  8
1
  6
CONTINUOUS
 10
101.700002
 20
19.200000
 11
118.000002
 21
19.200000
  0
LINE
  8
1
  6
CONTINUOUS
 10
102.200002
 20
19.200000
 11
118.000002
 21
19.200000
  0
LINE
  8
1
  6
CONTINUOUS
 10
102.200002
 20
19.200000
 11
118.000002
 21
19.200000
  0
LINE
  8
1
  6
CONTINUOUS
 10
101.700002
 20
19.700000
 11
118.000002
 21
19.700000
  0
LINE
  8
1
  6
CONTINUOUS
 10
102.200002
 20
19.700000
 11
118.000002
 21
19.700000
  0
LINE
  8
1
  6
CONTINUOUS
 10
102.200002
 20
19.700000
 11
118.000002
 21
19.700000
  0
LINE
  8
1
  6
CONTINUOUS
 10
101.700002
 20
20.200000
 11
118.000002
 21
20.200000
  0
LINE
  8
1
  6
CONTINUOUS
 10
102.200002
 20
20.200000
 11
118.000002
 21
20.200000
  0
LINE
  8
1
  6
CONTINUOUS
 10
102.200002
 20
20.200000
 11
118.000002
 21
20.200000
  0
LINE
  8
1
  6
CONTINUOUS
 10
101.700002
 20
20.700000
 11
118.000002
 21
20.700000
  0
LINE
  8
1
  6
CONTINUOUS
 10
102.200002
 20
20.700000
 11
118.000002
 21
20.700000
  0
LINE
  8
1
  6
CONTINUOUS
 10
102.200002
 20
20.700000
 11
118.000002
 21
20.700000
  0
LINE
  8
1
  6
CONTINUOUS
 10
101.700002
 20
21.200000
 11
118.000002
 21
21.200000
  0
LINE
  8
1
  6
CONTINUOUS
 10
102.200002
 20
21.200000
 11
118.000002
 21
21.200000
  0
LINE
  8
1
  6
CONTINUOUS
 10
102.200002
 20
21.200000
 11
118.000002
 21
21.200000
  0
LINE
  8
1
  6
CONTINUOUS
 10
101.700002
 20
21.700000
 11
118.000002
 21
21.700000
  0
LINE
  8
6
  6
CONTINUOUS
 10
110.708935
 20
11.300000
 11
110.708935
 21
8.600000
  0
TEXT
  8
1
  6
CONTINUOUS
 10
16.365302
 20
67.674670
 40
0.220000
  1
CABO
  7
TQS_CALIBRI
  0
TEXT
  8
1
  6
CONTINUOUS
 10
23.429783
 20
67.964670
 40
0.220000
  1
COMPRIMENTO
  7
TQS_CALIBRI
  0
TEXT
  8
1
  6
CONTINUOUS
 10
26.424089
 20
67.464670
 40
0.220000
  1
TOTAL
  7
TQS_CALIBRI
  0
TEXT
  8
1
  6
CONTINUOUS
 10
29.254443
 20
67.464670
 40
0.220000
  1
A
  7
TQS_CALIBRI
  0
TEXT
  8
1
  6
CONTINUOUS
 10
30.299259
 20
67.464670
 40
0.220000
  1
P
  7
TQS_CALIBRI
  0
TEXT
  8
1
  6
CONTINUOUS
 10
31.344075
 20
67.464670
 40
0.220000
  1
I
  7
TQS_CALIBRI
  0
TEXT
  8
1
  6
CONTINUOUS
 10
29.271756
 20
67.964670
 40
0.220000
  1
ANCORAGENS
  7
TQS_CALIBRI
  0
TEXT
  8
1
  6
CONTINUOUS
 10
20.824263
 20
67.674670
 40
0.220000
  1
Q
  7
TQS_CALIBRI
  0
TEXT
  8
1
  6
CONTINUOUS
 10
17.523924
 20
68.624670
 40
0.400000
  1
PROTENSÃO: AÇO
  7
TQS_CALIBRI
  0
TEXT
  8
1
  6
CONTINUOUS
 10
22.842653
 20
67.464670
 40
0.220000
  1
UNITÁRIO
  7
TQS_CALIBRI
  0
TEXT
  8
1
  6
CONTINUOUS
 10
32.299138
 20
67.464670
 40
0.220000
  1
INI
  7
TQS_CALIBRI
  0
TEXT
  8
1
  6
CONTINUOUS
 10
33.866362
 20
67.464670
 40
0.220000
  1
FIN
  7
TQS_CALIBRI
  0
TEXT
  8
1
  6
CONTINUOUS
 10
18.753514
 20
67.676889
 40
0.220000
  1
%%c
  7
TQS_CALIBRI
  0
TEXT
  8
1
  6
CONTINUOUS
 10
32.392904
 20
67.964670
 40
0.220000
  1
ALONG
  7
TQS_CALIBRI
  0
TEXT
  8
1
  6
CONTINUOUS
 10
23.852154
 20
68.624670
 40
0.400000
  1
CP190 RB 12.7 - 12.7
  7
TQS_CALIBRI
  0
TEXT
  8
1
  6
CONTINUOUS
 10
19.038662
 20
67.676889
 40
0.220000
  1
(mm)
  7
TQS_CALIBRI
  0
TEXT
  8
1
  6
CONTINUOUS
 10
26.089859
 20
67.964670
 40
0.220000
  1
(m)
  7
TQS_CALIBRI
  0
TEXT
  8
1
  6
CONTINUOUS
 10
33.580400
 20
67.964670
 40
0.220000
  1
(mm)
  7
TQS_CALIBRI
  0
TEXT
  8
1
  6
CONTINUOUS
 10
16.010724
 20
66.964670
 40
0.220000
  1
C28 A C32
  7
TQS_CALIBRI
  0
TEXT
  8
1
  6
CONTINUOUS
 10
18.364205
 20
66.964670
 40
0.220000
  1
1 %%c 12.7
  7
TQS_CALIBRI
  0
TEXT
  8
1
  6
CONTINUOUS
 10
20.578602
 20
66.964670
 40
0.220000
  1
5
  7
TQS_CALIBRI
  0
TEXT
  8
1
  6
CONTINUOUS
 10
22.815185
 20
66.964670
 40
0.220000
  1
18.5
  7
TQS_CALIBRI
  0
TEXT
  8
1
  6
CONTINUOUS
 10
26.092018
 20
66.964670
 40
0.220000
  1
92.3
  7
TQS_CALIBRI
  0
TEXT
  8
1
  6
CONTINUOUS
 10
29.069990
 20
66.964670
 40
0.220000
  1
5
  7
TQS_CALIBRI
  0
TEXT
  8
1
  6
CONTINUOUS
 10
30.114806
 20
66.964670
 40
0.220000
  1
5
  7
TQS_CALIBRI
  0
TEXT
  8
1
  6
CONTINUOUS
 10
32.151629
 20
66.964670
 40
0.220000
  1
0
  7
TQS_CALIBRI
  0
TEXT
  8
1
  6
CONTINUOUS
 10
33.718853
 20
66.964670
 40
0.220000
  1
126
  7
TQS_CALIBRI
  0
TEXT
  8
1
  6
CONTINUOUS
 10
16.010724
 20
66.464669
 40
0.220000
  1
C33 A C34
  7
TQS_CALIBRI
  0
TEXT
  8
1
  6
CONTINUOUS
 10
18.364205
 20
66.464669
 40
0.220000
  1
3 %%c 12.7
  7
TQS_CALIBRI
  0
TEXT
  8
1
  6
CONTINUOUS
 10
20.578602
 20
66.464669
 40
0.220000
  1
2
  7
TQS_CALIBRI
  0
TEXT
  8
1
  6
CONTINUOUS
 10
22.815185
 20
66.464669
 40
0.220000
  1
18.5
  7
TQS_CALIBRI
  0
TEXT
  8
1
  6
CONTINUOUS
 10
26.092018
 20
66.464669
 40
0.220000
  1
110.7
  7
TQS_CALIBRI
  0
TEXT
  8
1
  6
CONTINUOUS
 10
29.069990
 20
66.464669
 40
0.220000
  1
6
  7
TQS_CALIBRI
  0
TEXT
  8
1
  6
CONTINUOUS
 10
30.114806
 20
66.464669
 40
0.220000
  1
6
  7
TQS_CALIBRI
  0
TEXT
  8
1
  6
CONTINUOUS
 10
32.151629
 20
66.464669
 40
0.220000
  1
0
  7
TQS_CALIBRI
  0
TEXT
  8
1
  6
CONTINUOUS
 10
33.718853
 20
66.464669
 40
0.220000
  1
124
  7
TQS_CALIBRI
  0
TEXT
  8
1
  6
CONTINUOUS
 10
16.010724
 20
65.964668
 40
0.220000
  1
C35 A C40
  7
TQS_CALIBRI
  0
TEXT
  8
1
  6
CONTINUOUS
 10
18.364205
 20
65.964668
 40
0.220000
  1
4 %%c 12.7
  7
TQS_CALIBRI
  0
TEXT
  8
1
  6
CONTINUOUS
 10
20.578602
 20
65.964668
 40
0.220000
  1
6
  7
TQS_CALIBRI
  0
TEXT
  8
1
  6
CONTINUOUS
 10
22.815185
 20
65.964668
 40
0.220000
  1
18.5
  7
TQS_CALIBRI
  0
TEXT
  8
1
  6
CONTINUOUS
 10
26.092018
 20
65.964668
 40
0.220000
  1
442.8
  7
TQS_CALIBRI
  0
TEXT
  8
1
  6
CONTINUOUS
 10
29.069990
 20
65.964668
 40
0.220000
  1
24
  7
TQS_CALIBRI
  0
TEXT
  8
1
  6
CONTINUOUS
 10
30.114806
 20
65.964668
 40
0.220000
  1
24
  7
TQS_CALIBRI
  0
TEXT
  8
1
  6
CONTINUOUS
 10
32.151629
 20
65.964668
 40
0.220000
  1
0
  7
TQS_CALIBRI
  0
TEXT
  8
1
  6
CONTINUOUS
 10
33.718853
 20
65.964668
 40
0.220000
  1
124
  7
TQS_CALIBRI
  0
TEXT
  8
1
  6
CONTINUOUS
 10
16.010724
 20
65.464667
 40
0.220000
  1
C41 A C46
  7
TQS_CALIBRI
  0
TEXT
  8
1
  6
CONTINUOUS
 10
18.364205
 20
65.464667
 40
0.220000
  1
   "
  7
TQS_CALIBRI
  0
TEXT
  8
1
  6
CONTINUOUS
 10
20.578602
 20
65.464667
 40
0.220000
  1
6
  7
TQS_CALIBRI
  0
TEXT
  8
1
  6
CONTINUOUS
 10
22.815185
 20
65.464667
 40
0.220000
  1
18.5
  7
TQS_CALIBRI
  0
TEXT
  8
1
  6
CONTINUOUS
 10
26.092018
 20
65.464667
 40
0.220000
  1
442.8
  7
TQS_CALIBRI
  0
TEXT
  8
1
  6
CONTINUOUS
 10
29.069990
 20
65.464667
 40
0.220000
  1
24
  7
TQS_CALIBRI
  0
TEXT
  8
1
  6
CONTINUOUS
 10
30.114806
 20
65.464667
 40
0.220000
  1
24
  7
TQS_CALIBRI
  0
TEXT
  8
1
  6
CONTINUOUS
 10
32.151629
 20
65.464667
 40
0.220000
  1
0
  7
TQS_CALIBRI
  0
TEXT
  8
1
  6
CONTINUOUS
 10
33.718853
 20
65.464667
 40
0.220000
  1
122
  7
TQS_CALIBRI
  0
TEXT
  8
1
  6
CONTINUOUS
 10
16.010724
 20
64.964667
 40
0.220000
  1
C47 A C55
  7
TQS_CALIBRI
  0
TEXT
  8
1
  6
CONTINUOUS
 10
18.364205
 20
64.964667
 40
0.220000
  1
   "
  7
TQS_CALIBRI
  0
TEXT
  8
1
  6
CONTINUOUS
 10
20.578602
 20
64.964667
 40
0.220000
  1
9
  7
TQS_CALIBRI
  0
TEXT
  8
1
  6
CONTINUOUS
 10
22.815185
 20
64.964667
 40
0.220000
  1
18.5
  7
TQS_CALIBRI
  0
TEXT
  8
1
  6
CONTINUOUS
 10
26.092018
 20
64.964667
 40
0.220000
  1
664.3
  7
TQS_CALIBRI
  0
TEXT
  8
1
  6
CONTINUOUS
 10
29.069990
 20
64.964667
 40
0.220000
  1
36
  7
TQS_CALIBRI
  0
TEXT
  8
1
  6
CONTINUOUS
 10
30.114806
 20
64.964667
 40
0.220000
  1
36
  7
TQS_CALIBRI
  0
TEXT
  8
1
  6
CONTINUOUS
 10
32.151629
 20
64.964667
 40
0.220000
  1
0
  7
TQS_CALIBRI
  0
TEXT
  8
1
  6
CONTINUOUS
 10
33.718853
 20
64.964667
 40
0.220000
  1
122
  7
TQS_CALIBRI
  0
TEXT
  8
1
  6
CONTINUOUS
 10
16.010724
 20
64.464666
 40
0.220000
  1
C56 A C60
  7
TQS_CALIBRI
  0
TEXT
  8
1
  6
CONTINUOUS
 10
18.364205
 20
64.464666
 40
0.220000
  1
   "
  7
TQS_CALIBRI
  0
TEXT
  8
1
  6
CONTINUOUS
 10
20.578602
 20
64.464666
 40
0.220000
  1
5
  7
TQS_CALIBRI
  0
TEXT
  8
1
  6
CONTINUOUS
 10
22.815185
 20
64.464666
 40
0.220000
  1
18.5
  7
TQS_CALIBRI
  0
TEXT
  8
1
  6
CONTINUOUS
 10
26.092018
 20
64.464666
 40
0.220000
  1
369
  7
TQS_CALIBRI
  0
TEXT
  8
1
  6
CONTINUOUS
 10
29.069990
 20
64.464666
 40
0.220000
  1
20
  7
TQS_CALIBRI
  0
TEXT
  8
1
  6
CONTINUOUS
 10
30.114806
 20
64.464666
 40
0.220000
  1
20
  7
TQS_CALIBRI
  0
TEXT
  8
1
  6
CONTINUOUS
 10
32.151629
 20
64.464666
 40
0.220000
  1
0
  7
TQS_CALIBRI
  0
TEXT
  8
1
  6
CONTINUOUS
 10
33.718853
 20
64.464666
 40
0.220000
  1
124
  7
TQS_CALIBRI
  0
TEXT
  8
1
  6
CONTINUOUS
 10
16.010724
 20
63.964665
 40
0.220000
  1
C61 A C65
  7
TQS_CALIBRI
  0
TEXT
  8
1
  6
CONTINUOUS
 10
18.364205
 20
63.964665
 40
0.220000
  1
   "
  7
TQS_CALIBRI
  0
TEXT
  8
1
  6
CONTINUOUS
 10
20.578602
 20
63.964665
 40
0.220000
  1
5
  7
TQS_CALIBRI
  0
TEXT
  8
1
  6
CONTINUOUS
 10
22.815185
 20
63.964665
 40
0.220000
  1
18.5
  7
TQS_CALIBRI
  0
TEXT
  8
1
  6
CONTINUOUS
 10
26.092018
 20
63.964665
 40
0.220000
  1
369
  7
TQS_CALIBRI
  0
TEXT
  8
1
  6
CONTINUOUS
 10
29.069990
 20
63.964665
 40
0.220000
  1
20
  7
TQS_CALIBRI
  0
TEXT
  8
1
  6
CONTINUOUS
 10
30.114806
 20
63.964665
 40
0.220000
  1
20
  7
TQS_CALIBRI
  0
TEXT
  8
1
  6
CONTINUOUS
 10
32.151629
 20
63.964665
 40
0.220000
  1
0
  7
TQS_CALIBRI
  0
TEXT
  8
1
  6
CONTINUOUS
 10
33.718853
 20
63.964665
 40
0.220000
  1
122
  7
TQS_CALIBRI
  0
TEXT
  8
1
  6
CONTINUOUS
 10
16.010724
 20
63.464665
 40
0.220000
  1
C66 A C70
  7
TQS_CALIBRI
  0
TEXT
  8
1
  6
CONTINUOUS
 10
18.364205
 20
63.464665
 40
0.220000
  1
   "
  7
TQS_CALIBRI
  0
TEXT
  8
1
  6
CONTINUOUS
 10
20.578602
 20
63.464665
 40
0.220000
  1
5
  7
TQS_CALIBRI
  0
TEXT
  8
1
  6
CONTINUOUS
 10
22.815185
 20
63.464665
 40
0.220000
  1
18.5
  7
TQS_CALIBRI
  0
TEXT
  8
1
  6
CONTINUOUS
 10
26.092018
 20
63.464665
 40
0.220000
  1
369
  7
TQS_CALIBRI
  0
TEXT
  8
1
  6
CONTINUOUS
 10
29.069990
 20
63.464665
 40
0.220000
  1
20
  7
TQS_CALIBRI
  0
TEXT
  8
1
  6
CONTINUOUS
 10
30.114806
 20
63.464665
 40
0.220000
  1
20
  7
TQS_CALIBRI
  0
TEXT
  8
1
  6
CONTINUOUS
 10
32.151629
 20
63.464665
 40
0.220000
  1
0
  7
TQS_CALIBRI
  0
TEXT
  8
1
  6
CONTINUOUS
 10
33.718853
 20
63.464665
 40
0.220000
  1
123
  7
TQS_CALIBRI
  0
TEXT
  8
1
  6
CONTINUOUS
 10
16.010724
 20
62.964664
 40
0.220000
  1
C71 A C73
  7
TQS_CALIBRI
  0
TEXT
  8
1
  6
CONTINUOUS
 10
18.364205
 20
62.964664
 40
0.220000
  1
   "
  7
TQS_CALIBRI
  0
TEXT
  8
1
  6
CONTINUOUS
 10
20.578602
 20
62.964664
 40
0.220000
  1
3
  7
TQS_CALIBRI
  0
TEXT
  8
1
  6
CONTINUOUS
 10
22.815185
 20
62.964664
 40
0.220000
  1
18.5
  7
TQS_CALIBRI
  0
TEXT
  8
1
  6
CONTINUOUS
 10
26.092018
 20
62.964664
 40
0.220000
  1
221.4
  7
TQS_CALIBRI
  0
TEXT
  8
1
  6
CONTINUOUS
 10
29.069990
 20
62.964664
 40
0.220000
  1
12
  7
TQS_CALIBRI
  0
TEXT
  8
1
  6
CONTINUOUS
 10
30.114806
 20
62.964664
 40
0.220000
  1
12
  7
TQS_CALIBRI
  0
TEXT
  8
1
  6
CONTINUOUS
 10
32.151629
 20
62.964664
 40
0.220000
  1
0
  7
TQS_CALIBRI
  0
TEXT
  8
1
  6
CONTINUOUS
 10
33.718853
 20
62.964664
 40
0.220000
  1
123
  7
TQS_CALIBRI
  0
TEXT
  8
1
  6
CONTINUOUS
 10
16.496865
 20
59.964663
 40
0.220000
  1
%%c
  7
TQS_CALIBRI
  0
TEXT
  8
1
  6
CONTINUOUS
 10
20.070403
 20
60.464663
 40
0.220000
  1
CABO
  7
TQS_CALIBRI
  0
TEXT
  8
1
  6
CONTINUOUS
 10
26.254963
 20
59.714664
 40
0.220000
  1
A
  7
TQS_CALIBRI
  0
TEXT
  8
1
  6
CONTINUOUS
 10
27.299778
 20
59.714664
 40
0.220000
  1
P
  7
TQS_CALIBRI
  0
TEXT
  8
1
  6
CONTINUOUS
 10
28.344595
 20
59.714664
 40
0.220000
  1
I
  7
TQS_CALIBRI
  0
TEXT
  8
1
  6
CONTINUOUS
 10
22.566162
 20
59.964663
 40
0.220000
  1
PESO
  7
TQS_CALIBRI
  0
TEXT
  8
1
  6
CONTINUOUS
 10
26.325142
 20
60.464664
 40
0.220000
  1
ANCORAGENS
  7
TQS_CALIBRI
  0
TEXT
  8
1
  6
CONTINUOUS
 10
18.403922
 20
61.547996
 40
0.400000
  1
RESUMO DE PROTENSÃO
  7
TQS_CALIBRI
  0
TEXT
  8
1
  6
CONTINUOUS
 10
17.942059
 20
60.985296
 40
0.300000
  1
Monocordoalhas não aderentes
  7
TQS_CALIBRI
  0
TEXT
  8
1
  6
CONTINUOUS
 10
18.333160
 20
59.964663
 40
0.220000
  1
COMPR
  7
TQS_CALIBRI
  0
TEXT
  8
1
  6
CONTINUOUS
 10
20.182948
 20
59.464664
 40
0.220000
  1
kgf/m
  7
TQS_CALIBRI
  0
TEXT
  8
1
  6
CONTINUOUS
 10
22.334725
 20
59.464664
 40
0.220000
  1
kgf
  7
TQS_CALIBRI
  0
TEXT
  8
1
  6
CONTINUOUS
 10
24.149117
 20
59.464664
 40
0.220000
  1
kgf+4%
  7
TQS_CALIBRI
  0
TEXT
  8
1
  6
CONTINUOUS
 10
18.337706
 20
59.464664
 40
0.220000
  1
m
  7
TQS_CALIBRI
  0
TEXT
  8
1
  6
CONTINUOUS
 10
16.475245
 20
59.464664
 40
0.220000
  1
mm
  7
TQS_CALIBRI
  0
TEXT
  8
1
  6
CONTINUOUS
 10
18.063022
 20
58.964663
 40
0.220000
  1
92
  7
TQS_CALIBRI
  0
TEXT
  8
1
  6
CONTINUOUS
 10
27.108619
 20
58.964663
 40
0.220000
  1
5
  7
TQS_CALIBRI
  0
TEXT
  8
1
  6
CONTINUOUS
 10
26.063802
 20
58.964663
 40
0.220000
  1
5
  7
TQS_CALIBRI
  0
TEXT
  8
1
  6
CONTINUOUS
 10
20.182948
 20
58.964663
 40
0.220000
  1
0.886
  7
TQS_CALIBRI
  0
TEXT
  8
1
  6
CONTINUOUS
 10
21.772277
 20
58.964663
 40
0.220000
  1
82
  7
TQS_CALIBRI
  0
TEXT
  8
1
  6
CONTINUOUS
 10
23.832275
 20
58.964663
 40
0.220000
  1
85
  7
TQS_CALIBRI
  0
TEXT
  8
1
  6
CONTINUOUS
 10
15.875089
 20
58.964663
 40
0.220000
  1
1 %%c 12.7
  7
TQS_CALIBRI
  0
TEXT
  8
1
  6
CONTINUOUS
 10
18.063022
 20
58.464662
 40
0.220000
  1
111
  7
TQS_CALIBRI
  0
TEXT
  8
1
  6
CONTINUOUS
 10
27.108619
 20
58.464662
 40
0.220000
  1
6
  7
TQS_CALIBRI
  0
TEXT
  8
1
  6
CONTINUOUS
 10
26.063802
 20
58.464662
 40
0.220000
  1
6
  7
TQS_CALIBRI
  0
TEXT
  8
1
  6
CONTINUOUS
 10
20.182948
 20
58.464662
 40
0.220000
  1
0.886
  7
TQS_CALIBRI
  0
TEXT
  8
1
  6
CONTINUOUS
 10
21.772277
 20
58.464662
 40
0.220000
  1
98
  7
TQS_CALIBRI
  0
TEXT
  8
1
  6
CONTINUOUS
 10
23.832275
 20
58.464662
 40
0.220000
  1
102
  7
TQS_CALIBRI
  0
TEXT
  8
1
  6
CONTINUOUS
 10
15.875089
 20
58.464662
 40
0.220000
  1
3 %%c 12.7
  7
TQS_CALIBRI
  0
TEXT
  8
1
  6
CONTINUOUS
 10
18.063022
 20
57.964661
 40
0.220000
  1
2879
  7
TQS_CALIBRI
  0
TEXT
  8
1
  6
CONTINUOUS
 10
27.108619
 20
57.964662
 40
0.220000
  1
156
  7
TQS_CALIBRI
  0
TEXT
  8
1
  6
CONTINUOUS
 10
26.063802
 20
57.964662
 40
0.220000
  1
156
  7
TQS_CALIBRI
  0
TEXT
  8
1
  6
CONTINUOUS
 10
20.182948
 20
57.964661
 40
0.220000
  1
0.886
  7
TQS_CALIBRI
  0
TEXT
  8
1
  6
CONTINUOUS
 10
21.772277
 20
57.964661
 40
0.220000
  1
2550
  7
TQS_CALIBRI
  0
TEXT
  8
1
  6
CONTINUOUS
 10
23.832275
 20
57.964661
 40
0.220000
  1
2652
  7
TQS_CALIBRI
  0
TEXT
  8
1
  6
CONTINUOUS
 10
15.875089
 20
57.964661
 40
0.220000
  1
4 %%c 12.7
  7
TQS_CALIBRI
  0
TEXT
  8
1
  6
CONTINUOUS
 10
101.932386
 20
23.396411
 40
0.350000
  1
NOTAS:
  7
TQS_CALIBRI
  0
TEXT
  8
2
  6
CONTINUOUS
 10
101.965840
 20
22.812661
 40
0.240000
  1
1) CONFERIR INFORMAÇÕES DA TABELA ACIMA (TABELA DE FERRERAGEM) NA OBRA
  7
TQS_CALIBRI
  0
TEXT
  8
2
  6
CONTINUOUS
 10
101.965840
 20
22.343353
 40
0.240000
  1
ANTES DA COMPRA DAS ARMADURAS.
  7
TQS_CALIBRI
  0
TEXT
  8
1
  6
CONTINUOUS
 10
20.385201
 20
23.119913
 40
0.300000
  1
L11
  7
TQS_CALIBRI
  0
TEXT
  8
1
  6
CONTINUOUS
 10
7.610575
 20
23.369555
 40
0.300000
  1
L10
  7
TQS_CALIBRI
  0
TEXT
  8
1
  6
CONTINUOUS
 10
82.643633
 20
45.136253
 40
0.300000
  1
L4
  7
TQS_CALIBRI
  0
TEXT
  8
1
  6
CONTINUOUS
 10
93.101161
 20
62.577091
 40
0.300000
  1
L1
  7
TQS_CALIBRI
  0
TEXT
  8
1
  6
CONTINUOUS
 10
40.720243
 20
30.483789
 40
0.300000
  1
L6
  7
TQS_CALIBRI
  0
TEXT
  8
1
  6
CONTINUOUS
 10
55.253885
 20
10.488371
 40
0.300000
  1
L14
  7
TQS_CALIBRI
  0
TEXT
  8
1
  6
CONTINUOUS
 10
80.054751
 20
19.144729
 40
0.300000
  1
L13
  7
TQS_CALIBRI
  0
TEXT
  8
1
  6
CONTINUOUS
 10
89.653315
 20
19.725288
 40
0.300000
  1
L12
  7
TQS_CALIBRI
  0
TEXT
  8
1
  6
CONTINUOUS
 10
55.525558
 20
26.233678
 40
0.300000
  1
L7
  7
TQS_CALIBRI
  0
TEXT
  8
1
  6
CONTINUOUS
 10
68.378232
 20
25.291848
 40
0.300000
  1
L8
  7
TQS_CALIBRI
  0
TEXT
  8
1
  6
CONTINUOUS
 10
63.498559
 20
36.993359
 40
0.300000
  1
L5
  7
TQS_CALIBRI
  0
TEXT
  8
1
  6
CONTINUOUS
 10
83.557763
 20
60.196567
 40
0.300000
  1
L2
  7
TQS_CALIBRI
  0
TEXT
  8
1
  6
CONTINUOUS
 10
83.727785
 20
56.129873
 40
0.300000
  1
L3
  7
TQS_CALIBRI
  0
TEXT
  8
1
  6
CONTINUOUS
 10
39.895791
 20
24.209782
 40
0.300000
  1
L9
  7
TQS_CALIBRI
  0
TEXT
  8
1
  6
CONTINUOUS
 10
45.194619
 20
24.659420
 40
0.300000
  1
L15
  7
TQS_CALIBRI
  0
TEXT
  8
1
  6
CONTINUOUS
 10
78.411066
 20
50.393075
 40
0.300000
  1
P187
  7
TQS_CALIBRI
  0
TEXT
  8
1
  6
CONTINUOUS
 10
36.979452
 20
16.210627
 40
0.300000
  1
P515
  7
TQS_CALIBRI
  0
TEXT
  8
1
  6
CONTINUOUS
 10
62.273710
 20
16.210627
 40
0.300000
  1
P517
  7
TQS_CALIBRI
  0
TEXT
  8
1
  6
CONTINUOUS
 10
75.573710
 20
18.910627
 40
0.300000
  1
P514
  7
TQS_CALIBRI
  0
TEXT
  8
1
  6
CONTINUOUS
 10
62.273710
 20
28.090627
 40
0.300000
  1
P508
  7
TQS_CALIBRI
  0
TEXT
  8
1
  6
CONTINUOUS
 10
75.573710
 20
28.090627
 40
0.300000
  1
P509
  7
TQS_CALIBRI
  0
TEXT
  8
1
  6
CONTINUOUS
 10
62.273710
 20
34.695793
 40
0.300000
  1
P503
  7
TQS_CALIBRI
  0
TEXT
  8
1
  6
CONTINUOUS
 10
78.411070
 20
40.903080
 40
0.300000
  1
P405
  7
TQS_CALIBRI
  0
TEXT
  8
1
  6
CONTINUOUS
 10
75.573710
 20
11.510627
 40
0.300000
  1
P518
  7
TQS_CALIBRI
  0
TEXT
  8
1
  6
CONTINUOUS
 10
98.500000
 20
21.210627
 40
0.300000
  1
P513
  7
TQS_CALIBRI
  0
TEXT
  8
1
  6
CONTINUOUS
 10
98.500000
 20
31.103080
 40
0.300000
  1
P507
  7
TQS_CALIBRI
  0
TEXT
  8
1
  6
CONTINUOUS
 10
98.500000
 20
40.903080
 40
0.300000
  1
P506
  7
TQS_CALIBRI
  0
TEXT
  8
1
  6
CONTINUOUS
 10
98.500000
 20
11.510627
 40
0.300000
  1
P520
  7
TQS_CALIBRI
  0
TEXT
  8
1
  6
CONTINUOUS
 10
78.411066
 20
72.032942
 40
0.300000
  1
PC5
  7
TQS_CALIBRI
  0
TEXT
  8
1
  6
CONTINUOUS
 10
87.114183
 20
72.032942
 40
0.300000
  1
PC6
  7
TQS_CALIBRI
  0
TEXT
  8
1
  6
CONTINUOUS
 10
42.558338
 20
25.914237
 40
0.300000
  1
PC11
  7
TQS_CALIBRI
  0
TEXT
  8
1
  6
CONTINUOUS
 10
86.301070
 20
50.393070
 40
0.300000
  1
P188
  7
TQS_CALIBRI
  0
TEXT
  8
1
  6
CONTINUOUS
 10
86.301070
 20
61.533070
 40
0.300000
  1
P183
  7
TQS_CALIBRI
  0
TEXT
  8
1
  6
CONTINUOUS
 10
82.711066
 20
61.933075
 40
0.300000
  1
PC8
  7
TQS_CALIBRI
  0
TEXT
  8
1
  6
CONTINUOUS
 10
82.711066
 20
57.733075
 40
0.300000
  1
PC9
  7
TQS_CALIBRI
  0
TEXT
  8
1
  6
CONTINUOUS
 10
86.301070
 20
55.963070
 40
0.300000
  1
P185
  7
TQS_CALIBRI
  0
TEXT
  8
1
  6
CONTINUOUS
 10
78.411066
 20
57.733070
 40
0.300000
  1
PC7
  7
TQS_CALIBRI
  0
TEXT
  8
1
  6
CONTINUOUS
 10
92.133720
 20
4.959711
 40
0.300000
  1
P118C
  7
TQS_CALIBRI
  0
TEXT
  8
1
  6
CONTINUOUS
 10
93.169308
 20
16.797510
 40
0.300000
  1
P115C
  7
TQS_CALIBRI
  0
TEXT
  8
1
  6
CONTINUOUS
 10
94.209111
 20
29.083329
 40
0.300000
  1
P110C
  7
TQS_CALIBRI
  0
TEXT
  8
1
  6
CONTINUOUS
 10
36.979452
 20
34.695793
 40
0.300000
  1
P501
  7
TQS_CALIBRI
  0
TEXT
  8
1
  6
CONTINUOUS
 10
96.878378
 20
61.019158
 40
0.300000
  1
P98C
  7
TQS_CALIBRI
  0
TEXT
  8
1
  6
CONTINUOUS
 10
96.115138
 20
52.001399
 40
0.300000
  1
P103C
  7
TQS_CALIBRI
  0
TEXT
  8
1
  6
CONTINUOUS
 10
89.711065
 20
50.837265
 40
0.300000
  1
P311
  7
TQS_CALIBRI
  0
TEXT
  8
1
  6
CONTINUOUS
 10
89.711065
 20
59.137203
 40
0.300000
  1
P310
  7
TQS_CALIBRI
  0
TEXT
  8
1
  6
CONTINUOUS
 10
11.369069
 20
5.099210
 40
0.300000
  1
P423
  7
TQS_CALIBRI
  0
TEXT
  8
1
  6
CONTINUOUS
 10
43.169069
 20
5.099210
 40
0.300000
  1
P425
  7
TQS_CALIBRI
  0
TEXT
  8
1
  6
CONTINUOUS
 10
59.169069
 20
5.099210
 40
0.300000
  1
P426
  7
TQS_CALIBRI
  0
TEXT
  8
1
  6
CONTINUOUS
 10
75.169069
 20
5.099210
 40
0.300000
  1
P427
  7
TQS_CALIBRI
  0
TEXT
  8
1
  6
CONTINUOUS
 10
10.969069
 20
20.503080
 40
0.300000
  1
P415
  7
TQS_CALIBRI
  0
TEXT
  8
1
  6
CONTINUOUS
 10
21.169069
 20
20.903080
 40
0.300000
  1
P416
  7
TQS_CALIBRI
  0
TEXT
  8
1
  6
CONTINUOUS
 10
33.279069
 20
16.904313
 40
0.300000
  1
P417
  7
TQS_CALIBRI
  0
TEXT
  8
1
  6
CONTINUOUS
 10
45.768333
 20
16.904313
 40
0.300000
  1
P418
  7
TQS_CALIBRI
  0
TEXT
  8
1
  6
CONTINUOUS
 10
54.848333
 20
13.413080
 40
0.300000
  1
P422
  7
TQS_CALIBRI
  0
TEXT
  8
1
  6
CONTINUOUS
 10
72.334382
 20
16.913080
 40
0.300000
  1
P420
  7
TQS_CALIBRI
  0
TEXT
  8
1
  6
CONTINUOUS
 10
80.989695
 20
16.713080
 40
0.300000
  1
P421
  7
TQS_CALIBRI
  0
TEXT
  8
1
  6
CONTINUOUS
 10
11.369069
 20
40.903080
 40
0.300000
  1
P401
  7
TQS_CALIBRI
  0
TEXT
  8
1
  6
CONTINUOUS
 10
27.169069
 20
40.903080
 40
0.300000
  1
P402
  7
TQS_CALIBRI
  0
TEXT
  8
1
  6
CONTINUOUS
 10
43.169069
 20
40.903080
 40
0.300000
  1
P403
  7
TQS_CALIBRI
  0
TEXT
  8
1
  6
CONTINUOUS
 10
59.169069
 20
40.903080
 40
0.300000
  1
P404
  7
TQS_CALIBRI
  0
TEXT
  8
1
  6
CONTINUOUS
 10
72.334382
 20
26.893080
 40
0.300000
  1
P411
  7
TQS_CALIBRI
  0
TEXT
  8
1
  6
CONTINUOUS
 10
80.989695
 20
29.324313
 40
0.300000
  1
P409
  7
TQS_CALIBRI
  0
TEXT
  8
1
  6
CONTINUOUS
 10
45.968333
 20
29.524313
 40
0.300000
  1
P408
  7
TQS_CALIBRI
  0
TEXT
  8
1
  6
CONTINUOUS
 10
54.848333
 20
25.904313
 40
0.300000
  1
P414
  7
TQS_CALIBRI
  0
TEXT
  8
1
  6
CONTINUOUS
 10
10.969069
 20
25.303080
 40
0.300000
  1
P412
  7
TQS_CALIBRI
  0
TEXT
  8
1
  6
CONTINUOUS
 10
21.169069
 20
25.303080
 40
0.300000
  1
P413
  7
TQS_CALIBRI
  0
TEXT
  8
1
  6
CONTINUOUS
 10
33.269069
 20
29.014313
 40
0.300000
  1
P407
  7
TQS_CALIBRI
  0
TEXT
  8
1
  6
CONTINUOUS
 10
90.684615
 20
66.632109
 40
0.300000
  1
P308
  7
TQS_CALIBRI
  0
TEXT
  8
1
  6
CONTINUOUS
 10
90.111065
 20
40.903080
 40
0.300000
  1
P406
  7
TQS_CALIBRI
  0
TEXT
  8
1
  6
CONTINUOUS
 10
75.563327
 20
34.695793
 40
0.300000
  1
P504
  7
TQS_CALIBRI
  0
TEXT
  8
1
  6
CONTINUOUS
 10
86.311065
 20
34.695793
 40
0.300000
  1
P505
  7
TQS_CALIBRI
  0
TEXT
  8
1
  6
CONTINUOUS
 10
48.235263
 20
16.210627
 40
0.300000
  1
P516
  7
TQS_CALIBRI
  0
TEXT
  8
1
  6
CONTINUOUS
 10
49.579452
 20
34.695793
 40
0.300000
  1
P502
  7
TQS_CALIBRI
  0
TEXT
  8
1
  6
CONTINUOUS
 10
36.979452
 20
25.453210
 40
0.300000
  1
P510
  7
TQS_CALIBRI
  0
TEXT
  8
1
  6
CONTINUOUS
 10
49.621581
 20
25.453210
 40
0.300000
  1
P511
  7
TQS_CALIBRI
  0
TEXT
  8
1
  6
CONTINUOUS
 10
87.036835
 20
23.103210
 40
0.300000
  1
P512
  7
TQS_CALIBRI
  0
TEXT
  8
1
  6
CONTINUOUS
 10
87.036855
 20
11.510627
 40
0.300000
  1
P519
  7
TQS_CALIBRI
  0
TEXT
  8
1
  6
CONTINUOUS
 10
97.333737
 20
66.381959
 40
0.300000
  1
P309
  7
TQS_CALIBRI
  0
TEXT
  8
1
  6
CONTINUOUS
 10
42.558333
 20
21.614313
 40
0.300000
  1
PC10
  7
TQS_CALIBRI
  0
TEXT
  8
1
  6
CONTINUOUS
 10
64.128333
 20
27.293080
 40
0.300000
  1
P410
  7
TQS_CALIBRI
  0
TEXT
  8
1
  6
CONTINUOUS
 10
63.928333
 20
16.913080
 40
0.300000
  1
P419
  7
TQS_CALIBRI
  0
TEXT
  8
1
  6
CONTINUOUS
 10
27.169069
 20
5.099210
 40
0.300000
  1
P424
  7
TQS_CALIBRI
  0
TEXT
  8
1
  6
CONTINUOUS
 10
95.170910
 20
40.803460
 40
0.300000
  1
P105C
  7
TQS_CALIBRI
  0
TEXT
  8
4
  6
CONTINUOUS
 10
5.884069
 20
23.576145
 40
0.300000
 50
90.000000
  1
C28
  7
TQS_CALIBRI
  0
TEXT
  8
4
  6
CONTINUOUS
 10
6.864069
 20
23.576145
 40
0.300000
 50
90.000000
  1
C29
  7
TQS_CALIBRI
  0
TEXT
  8
4
  6
CONTINUOUS
 10
7.844069
 20
23.576145
 40
0.300000
 50
90.000000
  1
C30
  7
TQS_CALIBRI
  0
TEXT
  8
4
  6
CONTINUOUS
 10
8.824069
 20
23.576145
 40
0.300000
 50
90.000000
  1
C31
  7
TQS_CALIBRI
  0
TEXT
  8
4
  6
CONTINUOUS
 10
9.804069
 20
23.576145
 40
0.300000
 50
90.000000
  1
C32
  7
TQS_CALIBRI
  0
TEXT
  8
4
  6
CONTINUOUS
 10
19.894069
 20
23.576145
 40
0.300000
 50
90.000000
  1
C35
  7
TQS_CALIBRI
  0
TEXT
  8
4
  6
CONTINUOUS
 10
20.154069
 20
23.576145
 40
0.300000
 50
90.000000
  1
C36
  7
TQS_CALIBRI
  0
TEXT
  8
4
  6
CONTINUOUS
 10
20.414069
 20
23.576145
 40
0.300000
 50
90.000000
  1
C37
  7
TQS_CALIBRI
  0
TEXT
  8
4
  6
CONTINUOUS
 10
20.674069
 20
23.576145
 40
0.300000
 50
90.000000
  1
C38
  7
TQS_CALIBRI
  0
TEXT
  8
4
  6
CONTINUOUS
 10
20.934069
 20
23.576145
 40
0.300000
 50
90.000000
  1
C39
  7
TQS_CALIBRI
  0
TEXT
  8
4
  6
CONTINUOUS
 10
21.194069
 20
23.576145
 40
0.300000
 50
90.000000
  1
C40
  7
TQS_CALIBRI
  0
TEXT
  8
4
  6
CONTINUOUS
 10
32.204069
 20
23.576145
 40
0.300000
 50
90.000000
  1
C41
  7
TQS_CALIBRI
  0
TEXT
  8
4
  6
CONTINUOUS
 10
32.464069
 20
23.576145
 40
0.300000
 50
90.000000
  1
C42
  7
TQS_CALIBRI
  0
TEXT
  8
4
  6
CONTINUOUS
 10
32.724069
 20
23.576145
 40
0.300000
 50
90.000000
  1
C43
  7
TQS_CALIBRI
  0
TEXT
  8
4
  6
CONTINUOUS
 10
32.984069
 20
23.576145
 40
0.300000
 50
90.000000
  1
C44
  7
TQS_CALIBRI
  0
TEXT
  8
4
  6
CONTINUOUS
 10
33.244069
 20
23.576145
 40
0.300000
 50
90.000000
  1
C45
  7
TQS_CALIBRI
  0
TEXT
  8
4
  6
CONTINUOUS
 10
33.504069
 20
23.576145
 40
0.300000
 50
90.000000
  1
C46
  7
TQS_CALIBRI
  0
TEXT
  8
4
  6
CONTINUOUS
 10
44.703333
 20
23.576145
 40
0.300000
 50
90.000000
  1
C47
  7
TQS_CALIBRI
  0
TEXT
  8
4
  6
CONTINUOUS
 10
45.023333
 20
23.576145
 40
0.300000
 50
90.000000
  1
C48
  7
TQS_CALIBRI
  0
TEXT
  8
4
  6
CONTINUOUS
 10
45.343333
 20
23.576145
 40
0.300000
 50
90.000000
  1
C49
  7
TQS_CALIBRI
  0
TEXT
  8
4
  6
CONTINUOUS
 10
45.663333
 20
23.576145
 40
0.300000
 50
90.000000
  1
C50
  7
TQS_CALIBRI
  0
TEXT
  8
4
  6
CONTINUOUS
 10
45.983333
 20
23.576145
 40
0.300000
 50
90.000000
  1
C51
  7
TQS_CALIBRI
  0
TEXT
  8
4
  6
CONTINUOUS
 10
62.663333
 20
23.576145
 40
0.300000
 50
90.000000
  1
C56
  7
TQS_CALIBRI
  0
TEXT
  8
4
  6
CONTINUOUS
 10
62.983333
 20
23.576145
 40
0.300000
 50
90.000000
  1
C57
  7
TQS_CALIBRI
  0
TEXT
  8
4
  6
CONTINUOUS
 10
63.303333
 20
23.576145
 40
0.300000
 50
90.000000
  1
C58
  7
TQS_CALIBRI
  0
TEXT
  8
4
  6
CONTINUOUS
 10
63.623333
 20
23.576145
 40
0.300000
 50
90.000000
  1
C59
  7
TQS_CALIBRI
  0
TEXT
  8
4
  6
CONTINUOUS
 10
63.943333
 20
23.576145
 40
0.300000
 50
90.000000
  1
C60
  7
TQS_CALIBRI
  0
TEXT
  8
4
  6
CONTINUOUS
 10
71.269382
 20
23.576145
 40
0.300000
 50
90.000000
  1
C61
  7
TQS_CALIBRI
  0
TEXT
  8
4
  6
CONTINUOUS
 10
71.589382
 20
23.576145
 40
0.300000
 50
90.000000
  1
C62
  7
TQS_CALIBRI
  0
TEXT
  8
4
  6
CONTINUOUS
 10
71.909382
 20
23.576145
 40
0.300000
 50
90.000000
  1
C63
  7
TQS_CALIBRI
  0
TEXT
  8
4
  6
CONTINUOUS
 10
72.229382
 20
23.576145
 40
0.300000
 50
90.000000
  1
C64
  7
TQS_CALIBRI
  0
TEXT
  8
4
  6
CONTINUOUS
 10
72.549382
 20
23.576145
 40
0.300000
 50
90.000000
  1
C65
  7
TQS_CALIBRI
  0
TEXT
  8
4
  6
CONTINUOUS
 10
79.924695
 20
23.576145
 40
0.300000
 50
90.000000
  1
C66
  7
TQS_CALIBRI
  0
TEXT
  8
4
  6
CONTINUOUS
 10
80.244695
 20
23.576145
 40
0.300000
 50
90.000000
  1
C67
  7
TQS_CALIBRI
  0
TEXT
  8
4
  6
CONTINUOUS
 10
80.564695
 20
23.576145
 40
0.300000
 50
90.000000
  1
C68
  7
TQS_CALIBRI
  0
TEXT
  8
4
  6
CONTINUOUS
 10
80.884695
 20
23.576145
 40
0.300000
 50
90.000000
  1
C69
  7
TQS_CALIBRI
  0
TEXT
  8
4
  6
CONTINUOUS
 10
81.204695
 20
23.576145
 40
0.300000
 50
90.000000
  1
C70
  7
TQS_CALIBRI
  0
TEXT
  8
4
  6
CONTINUOUS
 10
11.144069
 20
23.576145
 40
0.300000
 50
90.000000
  1
C33
  7
TQS_CALIBRI
  0
TEXT
  8
4
  6
CONTINUOUS
 10
11.944069
 20
23.576145
 40
0.300000
 50
90.000000
  1
C34
  7
TQS_CALIBRI
  0
TEXT
  8
4
  6
CONTINUOUS
 10
89.981635
 20
23.576145
 40
0.300000
 50
90.000000
  1
C71
  7
TQS_CALIBRI
  0
TEXT
  8
4
  6
CONTINUOUS
 10
90.501635
 20
23.576145
 40
0.300000
 50
90.000000
  1
C72
  7
TQS_CALIBRI
  0
TEXT
  8
4
  6
CONTINUOUS
 10
91.021635
 20
23.576145
 40
0.300000
 50
90.000000
  1
C73
  7
TQS_CALIBRI
  0
TEXT
  8
4
  6
CONTINUOUS
 10
53.623333
 20
23.576145
 40
0.300000
 50
90.000000
  1
C52
  7
TQS_CALIBRI
  0
TEXT
  8
4
  6
CONTINUOUS
 10
54.023333
 20
23.576145
 40
0.300000
 50
90.000000
  1
C53
  7
TQS_CALIBRI
  0
TEXT
  8
4
  6
CONTINUOUS
 10
54.423333
 20
23.576145
 40
0.300000
 50
90.000000
  1
C54
  7
TQS_CALIBRI
  0
TEXT
  8
4
  6
CONTINUOUS
 10
54.823333
 20
23.576145
 40
0.300000
 50
90.000000
  1
C55
  7
TQS_CALIBRI
  0
TEXT
  8
1
  6
CONTINUOUS
 10
102.073109
 20
8.835799
 40
0.455000
  1
ENGENHARIA
  7
TQS_CALIBRI
  0
TEXT
  8
1
  6
CONTINUOUS
 10
101.876737
 20
16.222571
 40
0.250000
  1
REV
  7
TQS_CALIBRI
  0
TEXT
  8
1
  6
CONTINUOUS
 10
103.356169
 20
16.222571
 40
0.250000
  1
DATA
  7
TQS_CALIBRI
  0
TEXT
  8
1
  6
CONTINUOUS
 10
105.030516
 20
16.222571
 40
0.250000
  1
ASSUNTO
  7
TQS_CALIBRI
  0
TEXT
  8
1
  6
CONTINUOUS
 10
101.832253
 20
14.047181
 40
0.250000
  1
PROPRIETÁRIO - 
  7
TQS_CALIBRI
  0
TEXT
  8
1
  6
CONTINUOUS
 10
108.042444
 20
2.579059
 40
0.250000
  1
ENGENHEIRO:
  7
TQS_CALIBRI
  0
TEXT
  8
1
  6
CONTINUOUS
 10
108.046365
 20
2.149652
 40
0.250000
  1
CREA REG.:
  7
TQS_CALIBRI
  0
TEXT
  8
1
  6
CONTINUOUS
 10
110.430567
 20
2.160333
 40
0.250000
  1
020930945-8
  7
TQS_CALIBRI
  0
TEXT
  8
1
  6
CONTINUOUS
 10
103.739739
 20
9.759850
 40
1.000000
  1
VGF
  7
TQS_CALIBRI
  0
TEXT
  8
1
  6
CONTINUOUS
 10
101.832253
 20
12.147181
 40
0.250000
  1
PROJETO              Eng. Civil - CREA:020930945-8
  7
TQS_CALIBRI
  0
TEXT
  8
1
  6
CONTINUOUS
 10
101.800510
 20
2.752624
 40
0.150000
  1
DATA:
  7
TQS_CALIBRI
  0
TEXT
  8
1
  6
CONTINUOUS
 10
101.788178
 20
1.752624
 40
0.150000
  1
FASE:
  7
TQS_CALIBRI
  0
TEXT
  8
1
  6
CONTINUOUS
 10
105.124829
 20
2.752624
 40
0.150000
  1
ESCALA:
  7
TQS_CALIBRI
  0
TEXT
  8
1
  6
CONTINUOUS
 10
105.112497
 20
1.752624
 40
0.150000
  1
PLANTA:
  7
TQS_CALIBRI
  0
TEXT
  8
1
  6
CONTINUOUS
 10
101.800510
 20
6.352624
 40
0.150000
  1
TÍTULO:
  7
TQS_CALIBRI
  0
TEXT
  8
1
  6
CONTINUOUS
 10
101.787482
 20
5.577767
 40
0.150000
  1
ELEMENTOS DA PRANCHA:
  7
TQS_CALIBRI
  0
TEXT
  8
1
  6
CONTINUOUS
 10
101.800510
 20
8.252624
 40
0.150000
  1
EMPREENDIMENTO/LOCAL:
  7
TQS_CALIBRI
  0
TEXT
  8
1
  6
CONTINUOUS
 10
106.761120
 20
11.025301
 40
0.150000
  1
CONTATOS:
  7
TQS_CALIBRI
  0
TEXT
  8
1
  6
CONTINUOUS
 10
114.224829
 20
2.752624
 40
0.150000
  1
PLANTA-REVISÃO:
  7
TQS_CALIBRI
  0
TEXT
  8
1
  6
CONTINUOUS
 10
102.041441
 20
16.843956
 40
0.200000
  1
00
  7
TQS_CALIBRI
  0
TEXT
  8
1
  6
CONTINUOUS
 10
102.041441
 20
17.343956
 40
0.200000
  1
01
  7
TQS_CALIBRI
  0
TEXT
  8
1
  6
CONTINUOUS
 10
102.041441
 20
17.843956
 40
0.200000
  1
02
  7
TQS_CALIBRI
  0
TEXT
  8
1
  6
CONTINUOUS
 10
102.041441
 20
18.343956
 40
0.200000
  1
03
  7
TQS_CALIBRI
  0
TEXT
  8
1
  6
CONTINUOUS
 10
102.041441
 20
18.843956
 40
0.200000
  1
04
  7
TQS_CALIBRI
  0
TEXT
  8
1
  6
CONTINUOUS
 10
102.041441
 20
19.343956
 40
0.200000
  1
05
  7
TQS_CALIBRI
  0
TEXT
  8
1
  6
CONTINUOUS
 10
102.041441
 20
19.843956
 40
0.200000
  1
06
  7
TQS_CALIBRI
  0
TEXT
  8
1
  6
CONTINUOUS
 10
102.041441
 20
20.343956
 40
0.200000
  1
07
  7
TQS_CALIBRI
  0
TEXT
  8
1
  6
CONTINUOUS
 10
102.041441
 20
20.843956
 40
0.200000
  1
08
  7
TQS_CALIBRI
  0
TEXT
  8
1
  6
CONTINUOUS
 10
102.041441
 20
21.343956
 40
0.200000
  1
09
  7
TQS_CALIBRI
  0
TEXT
  8
1
  6
CONTINUOUS
 10
102.041441
 20
21.843956
 40
0.200000
  1
10
  7
TQS_CALIBRI
  0
TEXT
  8
1
  6
CONTINUOUS
 10
116.437973
 20
16.222571
 40
0.250000
  1
AUTOR
  7
TQS_CALIBRI
  0
TEXT
  8
1
  6
CONTINUOUS
 10
106.749019
 20
10.335784
 40
0.195000
  1
Tel: 99928-2128
  7
TQS_CALIBRI
  0
TEXT
  8
1
  6
CONTINUOUS
 10
106.749019
 20
10.012284
 40
0.195000
  1
franciscogonca@hotmail.com 
  7
TQS_CALIBRI
  0
TEXT
  8
1
  6
CONTINUOUS
 10
106.749019
 20
9.680784
 40
0.195000
  1
Tel: 99981-6458
  7
TQS_CALIBRI
  0
TEXT
  8
1
  6
CONTINUOUS
 10
106.749019
 20
9.357284
 40
0.195000
  1
tiago@vgfengenharia.com.br 
  7
TQS_CALIBRI
  0
TEXT
  8
1
  6
CONTINUOUS
 10
106.749019
 20
9.025784
 40
0.195000
  1
Tel: 99912-8379
  7
TQS_CALIBRI
  0
TEXT
  8
1
  6
CONTINUOUS
 10
110.809443
 20
11.052624
 40
0.150000
  1
CLIENTE:
  7
TQS_CALIBRI
  0
TEXT
  8
1
  6
CONTINUOUS
 10
116.009770
 20
1.647683
 40
0.500000
  1
-R
  7
TQS_CALIBRI
  0
TEXT
  8
1
  6
CONTINUOUS
 10
101.832253
 20
12.547181
 40
0.250000
  1
RESPONSÁVEL -  Diego de Vasconcelos Gonçalves Ferreira
  7
TQS_CALIBRI
  0
TEXT
  8
1
  6
CONTINUOUS
 10
110.422141
 20
2.578345
 40
0.250000
  1
Diego Vasconcelos
  7
TQS_CALIBRI
  0
TEXT
  8
1
  6
CONTINUOUS
 10
106.749019
 20
10.667284
 40
0.195000
  1
diego@vgfengenharia.com.br 
  7
TQS_CALIBRI
  0
TEXT
  8
1
  6
CONTINUOUS
 10
104.982892
 20
16.853163
 40
0.200000
  1
Emissão inicial.
  7
TQS_CALIBRI
  0
TEXT
  8
1
  6
CONTINUOUS
 10
101.795719
 20
7.825700
 40
0.250000
  1
Assembléia Legislativa de Alagoas
  7
TQS_CALIBRI
  0
TEXT
  8
1
  6
CONTINUOUS
 10
104.517953
 20
14.045361
 40
0.250000
  1
ALA
  7
TQS_CALIBRI
  0
TEXT
  8
1
  6
CONTINUOUS
 10
101.789281
 20
2.263237
 40
0.250000
  1
27/02/2024
  7
TQS_CALIBRI
  0
TEXT
  8
1
  6
CONTINUOUS
 10
102.992347
 20
16.854551
 40
0.200000
  1
27/02/24
  7
TQS_CALIBRI
  0
TEXT
  8
1
  6
CONTINUOUS
 10
101.787954
 20
7.415393
 40
0.200000
  1
RUA SÁ E ALBUQUERQUE, NÚMERO 807, JARAGUÁ - MACEIÓ-AL
  7
TQS_CALIBRI
  0
TEXT
  8
1
  6
CONTINUOUS
 10
101.789859
 20
1.251887
 40
0.250000
  1
PE
  7
TQS_CALIBRI
  0
TEXT
  8
1
  6
CONTINUOUS
 10
105.114178
 20
1.251887
 40
0.250000
  1
CLA-EEM-EST-PE-0633-ARM-R00
  7
TQS_CALIBRI
  0
TEXT
  8
1
  6
CONTINUOUS
 10
116.547332
 20
16.842370
 40
0.200000
  1
DIEGO
  7
TQS_CALIBRI
  0
TEXT
  8
1
  6
CONTINUOUS
 10
114.396264
 20
1.644018
 40
0.500000
  1
0633
  7
TQS_CALIBRI
  0
TEXT
  8
1
  6
CONTINUOUS
 10
116.689770
 20
1.647683
 40
0.500000
  1
00
  7
TQS_CALIBRI
  0
TEXT
  8
1
  6
CONTINUOUS
 10
110.802729
 20
10.513659
 40
0.400000
  1
ALA
  7
TQS_CALIBRI
  0
TEXT
  8
1
  6
CONTINUOUS
 10
101.762319
 20
5.951739
 40
0.250000
  1
ARM. PROTENSÃO VERTICAL (05-Rooftop) - 01 - I
  7
TQS_CALIBRI
  0
ENDSEC
  0
EOF
