  0
SECTION
  2
HEADER
  9
$ACADVER
  1
AC1002
  9
$USERI1
 70
0
  9
$INSBASE
 10
0.000000
 20
0.000000
  9
$EXTMIN
 10
0.000000
 20
0.000000
  9
$EXTMAX
 10
7.761771
 20
4.436620
  9
$LIMMIN
 10
0.000000
 20
0.000000
  9
$LIMMAX
 10
12.000000
 20
9.000000
  9
$VIEWCTR
 10
78.887138
 20
59.361758
  9
$VIEWSIZE
 40
127.522840
  9
$TEXTSIZE
 40
0.100000
  9
$TRACEWID
 40
0.010000
  9
$LTSCALE
 40
1.000000
  0
ENDSEC
  0
SECTION
  2
TABLES
  0
TABLE
  2
LTYPE
 70
     3
  0
LTYPE
  2
CONTINUOUS
 70
    64
  3
Solid line
 72
    65
 73
     0
 40
0.000000
  0
LTYPE
  2
ESTILO_TQS_0001
 70
    64
  3
-  -  -  -  -  -
 72
    65
 73
     2
 40
1.000000
 49
0.700000
 49
-0.300000
  0
LTYPE
  2
ESTILO_TQS_0002
 70
    64
  3
. . . . . . . .
 72
    65
 73
     2
 40
0.400000
 49
0.100000
 49
-0.300000
  0
LTYPE
  2
ESTILO_TQS_0003
 70
    64
  3
- . - . - . - .
 72
    65
 73
     4
 40
0.910000
 49
0.500000
 49
-0.200000
 49
0.010000
 49
-0.200000
  0
LTYPE
  2
ESTILO_TQS_0004
 70
    64
  3
- .. - .. - ..
 72
    65
 73
     6
 40
1.120000
 49
0.500000
 49
-0.200000
 49
0.010000
 49
-0.200000
 49
0.010000
 49
-0.200000
  0
LTYPE
  2
CONTINUOUS
 70
    64
  3
- - - - - - - -
 72
    65
 73
     2
 40
0.400000
 49
0.300000
 49
-0.100000
  0
ENDTAB
  0
TABLE
  2
LAYER
 70
    89
  0
LAYER
  2
0
 70
     0
 62
     7
  6
CONTINUOUS
  0
LAYER
  2
1
 70
     0
 62
     1
  6
CONTINUOUS
  0
LAYER
  2
2
 70
     0
 62
     2
  6
CONTINUOUS
  0
LAYER
  2
3
 70
     0
 62
     3
  6
CONTINUOUS
  0
LAYER
  2
4
 70
     0
 62
     4
  6
CONTINUOUS
  0
LAYER
  2
5
 70
     0
 62
     5
  6
CONTINUOUS
  0
LAYER
  2
6
 70
     0
 62
     6
  6
CONTINUOUS
  0
LAYER
  2
7
 70
     0
 62
     7
  6
CONTINUOUS
  0
LAYER
  2
8
 70
     0
 62
     8
  6
CONTINUOUS
  0
LAYER
  2
9
 70
     0
 62
     9
  6
CONTINUOUS
  0
LAYER
  2
10
 70
     0
 62
    10
  6
CONTINUOUS
  0
LAYER
  2
11
 70
     0
 62
    11
  6
CONTINUOUS
  0
LAYER
  2
12
 70
     0
 62
    12
  6
CONTINUOUS
  0
LAYER
  2
13
 70
     0
 62
    13
  6
CONTINUOUS
  0
LAYER
  2
14
 70
     0
 62
    14
  6
CONTINUOUS
  0
LAYER
  2
15
 70
     0
 62
    15
  6
CONTINUOUS
  0
LAYER
  2
16
 70
     0
 62
     7
  6
CONTINUOUS
  0
LAYER
  2
17
 70
     0
 62
     2
  6
CONTINUOUS
  0
LAYER
  2
18
 70
     0
 62
     4
  6
CONTINUOUS
  0
LAYER
  2
19
 70
     0
 62
     5
  6
CONTINUOUS
  0
LAYER
  2
20
 70
     0
 62
     4
  6
CONTINUOUS
  0
LAYER
  2
21
 70
     0
 62
     2
  6
CONTINUOUS
  0
LAYER
  2
22
 70
     0
 62
     1
  6
CONTINUOUS
  0
LAYER
  2
23
 70
     0
 62
     7
  6
CONTINUOUS
  0
LAYER
  2
24
 70
     0
 62
     6
  6
CONTINUOUS
  0
LAYER
  2
25
 70
     0
 62
     1
  6
CONTINUOUS
  0
LAYER
  2
26
 70
     0
 62
     3
  6
CONTINUOUS
  0
LAYER
  2
27
 70
     0
 62
     4
  6
CONTINUOUS
  0
LAYER
  2
28
 70
     0
 62
     4
  6
CONTINUOUS
  0
LAYER
  2
30
 70
     0
 62
     4
  6
CONTINUOUS
  0
LAYER
  2
100
 70
     0
 62
     1
  6
CONTINUOUS
  0
LAYER
  2
101
 70
     0
 62
     9
  6
CONTINUOUS
  0
LAYER
  2
102
 70
     0
 62
     7
  6
CONTINUOUS
  0
LAYER
  2
103
 70
     0
 62
     2
  6
CONTINUOUS
  0
LAYER
  2
104
 70
     0
 62
    11
  6
CONTINUOUS
  0
LAYER
  2
105
 70
     0
 62
     3
  6
CONTINUOUS
  0
LAYER
  2
106
 70
     0
 62
     5
  6
CONTINUOUS
  0
LAYER
  2
107
 70
     0
 62
     3
  6
CONTINUOUS
  0
LAYER
  2
108
 70
     0
 62
     5
  6
CONTINUOUS
  0
LAYER
  2
109
 70
     0
 62
     3
  6
CONTINUOUS
  0
LAYER
  2
197
 70
     0
 62
     3
  6
CONTINUOUS
  0
LAYER
  2
198
 70
     0
 62
     2
  6
CONTINUOUS
  0
LAYER
  2
199
 70
     0
 62
     6
  6
CONTINUOUS
  0
LAYER
  2
200
 70
     0
 62
     7
  6
ESTILO_TQS_0002
  0
LAYER
  2
201
 70
     0
 62
     7
  6
ESTILO_TQS_0001
  0
LAYER
  2
202
 70
     0
 62
     7
  6
CONTINUOUS
  0
LAYER
  2
203
 70
     0
 62
     7
  6
ESTILO_TQS_0001
  0
LAYER
  2
204
 70
     0
 62
     7
  6
ESTILO_TQS_0003
  0
LAYER
  2
205
 70
     0
 62
     5
  6
ESTILO_TQS_0004
  0
LAYER
  2
206
 70
     0
 62
    15
  6
CONTINUOUS
  0
LAYER
  2
207
 70
     0
 62
     2
  6
CONTINUOUS
  0
LAYER
  2
208
 70
     0
 62
     5
  6
CONTINUOUS
  0
LAYER
  2
210
 70
     0
 62
    15
  6
ESTILO_TQS_0002
  0
LAYER
  2
211
 70
     0
 62
     7
  6
ESTILO_TQS_0001
  0
LAYER
  2
214
 70
     0
 62
    15
  6
CONTINUOUS
  0
LAYER
  2
215
 70
     0
 62
     2
  6
CONTINUOUS
  0
LAYER
  2
216
 70
     0
 62
     3
  6
CONTINUOUS
  0
LAYER
  2
217
 70
     0
 62
     3
  6
CONTINUOUS
  0
LAYER
  2
218
 70
     0
 62
     2
  6
CONTINUOUS
  0
LAYER
  2
219
 70
     0
 62
    15
  6
CONTINUOUS
  0
LAYER
  2
220
 70
     0
 62
    10
  6
CONTINUOUS
  0
LAYER
  2
221
 70
     0
 62
    11
  6
CONTINUOUS
  0
LAYER
  2
222
 70
     0
 62
    12
  6
CONTINUOUS
  0
LAYER
  2
223
 70
     0
 62
     6
  6
CONTINUOUS
  0
LAYER
  2
224
 70
     0
 62
     1
  6
CONTINUOUS
  0
LAYER
  2
225
 70
     0
 62
    15
  6
CONTINUOUS
  0
LAYER
  2
226
 70
     0
 62
     2
  6
CONTINUOUS
  0
LAYER
  2
227
 70
     0
 62
    10
  6
CONTINUOUS
  0
LAYER
  2
228
 70
     0
 62
    11
  6
CONTINUOUS
  0
LAYER
  2
229
 70
     0
 62
    12
  6
CONTINUOUS
  0
LAYER
  2
230
 70
     0
 62
     6
  6
CONTINUOUS
  0
LAYER
  2
231
 70
     0
 62
     3
  6
CONTINUOUS
  0
LAYER
  2
232
 70
     0
 62
    12
  6
CONTINUOUS
  0
LAYER
  2
233
 70
     0
 62
     4
  6
CONTINUOUS
  0
LAYER
  2
234
 70
     0
 62
    13
  6
CONTINUOUS
  0
LAYER
  2
235
 70
     0
 62
     5
  6
CONTINUOUS
  0
LAYER
  2
236
 70
     0
 62
     2
  6
CONTINUOUS
  0
LAYER
  2
237
 70
     0
 62
     6
  6
CONTINUOUS
  0
LAYER
  2
238
 70
     0
 62
    12
  6
CONTINUOUS
  0
LAYER
  2
239
 70
     0
 62
    11
  6
CONTINUOUS
  0
LAYER
  2
240
 70
     0
 62
    11
  6
CONTINUOUS
  0
LAYER
  2
241
 70
     0
 62
    12
  6
CONTINUOUS
  0
ENDTAB
  0
TABLE
  2
STYLE
 70
     1
  0
STYLE
  2
STANDARD
 70
    64
 40
0.000000
 41
1.000000
 50
0.000000
 71
     0
 42
0.200000
  3
ROMANS.SHX
  4

  0
STYLE
  2
TQS_CALIBRI
 70
     0
 40
0.000000
 41
1.000000
 50
0.000000
 71
     0
 42
0.200000
  3
calibri.ttf
  0
STYLE
  2
TQS_CALIBRI_U
 70
     0
 40
0.000000
 41
1.000000
 50
0.000000
 71
     0
 42
0.200000
  3
calibri.ttf
  0
STYLE
  2
TQS_CALIBRI_I
 70
     0
 40
0.000000
 41
1.000000
 50
0.000000
 71
     0
 42
0.200000
  3
calibri.ttf
  0
STYLE
  2
TQS_CALIBRI_I_U
 70
     0
 40
0.000000
 41
1.000000
 50
0.000000
 71
     0
 42
0.200000
  3
calibri.ttf
  0
STYLE
  2
TQS_CALIBRI_B
 70
     0
 40
0.000000
 41
1.000000
 50
0.000000
 71
     0
 42
0.200000
  3
calibri.ttf
  0
STYLE
  2
TQS_CALIBRI_B_U
 70
     0
 40
0.000000
 41
1.000000
 50
0.000000
 71
     0
 42
0.200000
  3
calibri.ttf
  0
STYLE
  2
TQS_CALIBRI_B_I
 70
     0
 40
0.000000
 41
1.000000
 50
0.000000
 71
     0
 42
0.200000
  3
calibri.ttf
  0
STYLE
  2
TQS_CALIBRI_B_I_U
 70
     0
 40
0.000000
 41
1.000000
 50
0.000000
 71
     0
 42
0.200000
  3
calibri.ttf
  0
ENDTAB
  0
TABLE
  2
VIEW
 70
     0
  0
ENDTAB
  0
ENDSEC
  0
SECTION
  2
BLOCKS
  0
BLOCK
  8
0
  2
_PLWTQS
 70
    64
 10
0.000000
 20
0.000000
  0
TEXT
  8
0
  6
CONTINUOUS
 10
0.000000
 20
0.000000
 40
0.200000
  1
$PLWDWGGlBMVwAAAAAAAChABAAAAM6yCb6hufiVc4Ho9MHTpD2Ai5+czw9cHgb9HO66iKjSzGfXGlnjRx7jHw/dP3bGCTttksz4UCXF6GvS0zGFMWnR07Wyul4Kil6B+OmHlPCcWACK8gaYQi1HOvuxy4DzXbb6pdAU6/EhkgGN59rK23A=
  7
TQS_CALIBRI
  0
TEXT
  8
0
  6
CONTINUOUS
 10
0.000000
 20
-0.250000
 40
0.200000
  1
$PLWDWGC9azLssKJfpmEXQGkUaHTRdHQTUKJdWKexxpi5EzrhCTITfXuaL1+KGLLGByBi/J0jnaAEMjh6HIxis4qsxvEaNoN5BioteT3yIwXsvYjWsS8ka4A4fPuFUWcuH1jsswHuDO5JMPlcO4vM5LSGJNSiL1Aee0WEdRdmrQVEdtUbc=
  7
TQS_CALIBRI
  0
TEXT
  8
0
  6
CONTINUOUS
 10
0.000000
 20
-0.500000
 40
0.200000
  1
$PLWDWGtaubxutIPAQHLJWtx0W8AaKpVQJBpzFVnV6gqCfX7RuE5fnaeb3jVndG6+fmBrxoq8NRHfOtrMdtRlPQy4A9I6yKNHW3a7nJyY9zgPILgzRsqUXQVff4LhYMrjdiJQKD673+AA/GP79AeCFNgLuw5ajONo/Zbg3iHIkALLYgkW0=
  7
TQS_CALIBRI
  0
TEXT
  8
0
  6
CONTINUOUS
 10
0.000000
 20
-0.750000
 40
0.200000
  1
$PLWDWGYbZnnrJEEQWIr7h1z/0+uSlf4vlccsDiZ7qJHY3Fcfu6J1BsqBnn7Ub8pcvBwDIaOdVhniLjNv2mJbbRG2Xckkk42IM/KpxYWD6b6uXP+WEA2h6PCfhR5KnTR8MOUEm4IpkjPsZNkxNfTvlEE5/gqXQB0SXqgv88pqTV3SfZkNg=
  7
TQS_CALIBRI
  0
TEXT
  8
0
  6
CONTINUOUS
 10
0.000000
 20
-1.000000
 40
0.200000
  1
$PLWDWGnKTSIHWakxfw982ER+PIuMC1Vfn0E+PWEmHBbNQj7hNeA42H32SRXLjbVRCbB8lBdkIPnym9bvipJTOCwodeSNqFdT1DQnaN4slk0yloNFRHjtA9+gP4beqmfyD45KptqX/7rSgnSaUOQnYymwa9RAqg5ofiWy3pWw7fn6vPNk0=
  7
TQS_CALIBRI
  0
TEXT
  8
0
  6
CONTINUOUS
 10
0.000000
 20
-1.250000
 40
0.200000
  1
$PLWDWGxA45km+7PEZzbYH476D3lVKJiwor1JGcXHmuIou+3joZBWmImUhRN+Ll7bRaNcDnGhKXj1zkLr1N1NMAHV9TfGU5otmp8siCrZk7LPyr7WZFef04DoZDVXPqf0TGamTq77psZFOhDJJEydmykNTmHz63xVF8WcHYdGQW/aEhEqA=
  7
TQS_CALIBRI
  0
TEXT
  8
0
  6
CONTINUOUS
 10
0.000000
 20
-1.500000
 40
0.200000
  1
$PLWDWGoFkrbNIbUUHl2+X9B6RiDwlykHVvjVkIhiGk39QbNeOz61+Bun/fA0Emk0X5wvuP+zmWkWiiMqGttPt/P//zpUtapINX/qQXTvOE5HRsH2CZyBaeAu22xnbIHhWg9liSGwnbCBIWTIU36w3fIn5+QG5Aue5hnOkq4uFAXxCysEU=
  7
TQS_CALIBRI
  0
TEXT
  8
0
  6
CONTINUOUS
 10
0.000000
 20
-1.750000
 40
0.200000
  1
$PLWDWGiOjqVsGdEXTU5UeNb11LSogAkkwp4hAK+kkp/eRDVGZYzgW6J1MPzeWjJUE9z/zgmsHNUkysCTcAAAAAijrAAQjRXaCN/itEN9kM1JrBzVJMrAk3AAAAAA==
  7
TQS_CALIBRI
  0
ENDBLK
  8
0
  0
ENDSEC
  0
SECTION
  2
ENTITIES
  0
SOLID
  8
13
  6
CONTINUOUS
 10
102.095046
 20
10.244446
 11
102.095046
 21
9.498246
 12
101.971546
 22
9.498246
 13
101.971546
 23
9.498246
  0
SOLID
  8
13
  6
CONTINUOUS
 10
102.095046
 20
10.244446
 11
101.971546
 21
9.498246
 12
101.971546
 22
11.162246
 13
101.971546
 23
11.162246
  0
SOLID
  8
13
  6
CONTINUOUS
 10
102.095046
 20
10.244446
 11
101.971546
 21
11.162246
 12
102.095046
 22
11.162246
 13
102.095046
 23
11.162246
  0
SOLID
  8
13
  6
CONTINUOUS
 10
102.095046
 20
10.244446
 11
102.095046
 21
11.162246
 12
102.095046
 22
10.244446
 13
102.095046
 23
10.244446
  0
SOLID
  8
13
  6
CONTINUOUS
 10
102.522746
 20
10.230979
 11
102.522746
 21
9.498246
 12
102.095046
 22
9.498246
 13
102.095046
 23
9.498246
  0
SOLID
  8
13
  6
CONTINUOUS
 10
102.522746
 20
10.230979
 11
102.095046
 21
9.498246
 12
102.095046
 22
10.244446
 13
102.095046
 23
10.244446
  0
SOLID
  8
13
  6
CONTINUOUS
 10
102.522746
 20
10.230979
 11
102.095046
 21
10.244446
 12
102.143544
 22
10.248642
 13
102.143544
 23
10.248642
  0
SOLID
  8
13
  6
CONTINUOUS
 10
102.522746
 20
10.230979
 11
102.143544
 21
10.248642
 12
102.211078
 22
10.252071
 13
102.211078
 23
10.252071
  0
SOLID
  8
13
  6
CONTINUOUS
 10
102.522746
 20
10.230979
 11
102.211078
 21
10.252071
 12
102.259959
 22
10.252484
 13
102.259959
 23
10.252484
  0
SOLID
  8
13
  6
CONTINUOUS
 10
102.522746
 20
10.230979
 11
102.259959
 21
10.252484
 12
102.290321
 22
10.252141
 13
102.290321
 23
10.252141
  0
SOLID
  8
13
  6
CONTINUOUS
 10
102.522746
 20
10.230979
 11
102.290321
 21
10.252141
 12
102.334203
 22
10.250668
 13
102.334203
 23
10.250668
  0
SOLID
  8
13
  6
CONTINUOUS
 10
102.522746
 20
10.230979
 11
102.334203
 21
10.250668
 12
102.394518
 22
10.246747
 13
102.394518
 23
10.246747
  0
SOLID
  8
13
  6
CONTINUOUS
 10
102.522746
 20
10.230979
 11
102.394518
 21
10.246747
 12
102.446340
 22
10.241621
 13
102.446340
 23
10.241621
  0
SOLID
  8
13
  6
CONTINUOUS
 10
102.522746
 20
10.230979
 11
102.446340
 21
10.241621
 12
102.490083
 22
10.235974
 13
102.490083
 23
10.235974
  0
SOLID
  8
13
  6
CONTINUOUS
 10
102.522746
 20
10.230979
 11
102.490083
 21
10.235974
 12
102.522746
 22
10.230979
 13
102.522746
 23
10.230979
  0
SOLID
  8
13
  6
CONTINUOUS
 10
102.594246
 20
10.217654
 11
102.594246
 21
9.498246
 12
103.021946
 22
9.498246
 13
103.021946
 23
9.498246
  0
SOLID
  8
13
  6
CONTINUOUS
 10
102.594246
 20
10.217654
 11
103.021946
 21
9.498246
 12
103.021946
 22
10.064184
 13
103.021946
 23
10.064184
  0
SOLID
  8
13
  6
CONTINUOUS
 10
102.594246
 20
10.217654
 11
103.021946
 21
10.064184
 12
103.003898
 22
10.073542
 13
103.003898
 23
10.073542
  0
SOLID
  8
13
  6
CONTINUOUS
 10
102.594246
 20
10.217654
 11
103.003898
 21
10.073542
 12
102.981716
 22
10.084501
 13
102.981716
 23
10.084501
  0
SOLID
  8
13
  6
CONTINUOUS
 10
102.594246
 20
10.217654
 11
102.981716
 21
10.084501
 12
102.953307
 22
10.098271
 13
102.953307
 23
10.098271
  0
SOLID
  8
13
  6
CONTINUOUS
 10
102.594246
 20
10.217654
 11
102.953307
 21
10.098271
 12
102.912865
 22
10.116383
 13
102.912865
 23
10.116383
  0
SOLID
  8
13
  6
CONTINUOUS
 10
102.594246
 20
10.217654
 11
102.912865
 21
10.116383
 12
102.885024
 22
10.128001
 13
102.885024
 23
10.128001
  0
SOLID
  8
13
  6
CONTINUOUS
 10
102.594246
 20
10.217654
 11
102.885024
 21
10.128001
 12
102.844071
 22
10.144755
 13
102.844071
 23
10.144755
  0
SOLID
  8
13
  6
CONTINUOUS
 10
102.594246
 20
10.217654
 11
102.844071
 21
10.144755
 12
102.813490
 22
10.155923
 13
102.813490
 23
10.155923
  0
SOLID
  8
13
  6
CONTINUOUS
 10
102.594246
 20
10.217654
 11
102.813490
 21
10.155923
 12
102.778388
 22
10.168156
 13
102.778388
 23
10.168156
  0
SOLID
  8
13
  6
CONTINUOUS
 10
102.594246
 20
10.217654
 11
102.778388
 21
10.168156
 12
102.744083
 22
10.178793
 13
102.744083
 23
10.178793
  0
SOLID
  8
13
  6
CONTINUOUS
 10
102.594246
 20
10.217654
 11
102.744083
 21
10.178793
 12
102.703465
 22
10.191172
 13
102.703465
 23
10.191172
  0
SOLID
  8
13
  6
CONTINUOUS
 10
102.594246
 20
10.217654
 11
102.703465
 21
10.191172
 12
102.665141
 22
10.201162
 13
102.665141
 23
10.201162
  0
SOLID
  8
13
  6
CONTINUOUS
 10
102.594246
 20
10.217654
 11
102.665141
 21
10.201162
 12
102.624819
 22
10.210970
 13
102.624819
 23
10.210970
  0
SOLID
  8
13
  6
CONTINUOUS
 10
102.594246
 20
10.217654
 11
102.624819
 21
10.210970
 12
102.594246
 22
10.217654
 13
102.594246
 23
10.217654
  0
SOLID
  8
13
  6
CONTINUOUS
 10
103.093446
 20
10.024343
 11
103.093446
 21
9.498246
 12
103.521146
 22
9.498246
 13
103.521146
 23
9.498246
  0
SOLID
  8
13
  6
CONTINUOUS
 10
103.093446
 20
10.024343
 11
103.521146
 21
9.498246
 12
103.521146
 22
9.661030
 13
103.521146
 23
9.661030
  0
SOLID
  8
13
  6
CONTINUOUS
 10
103.093446
 20
10.024343
 11
103.521146
 21
9.661030
 12
103.507797
 22
9.676793
 13
103.507797
 23
9.676793
  0
SOLID
  8
13
  6
CONTINUOUS
 10
103.093446
 20
10.024343
 11
103.507797
 21
9.676793
 12
103.495964
 22
9.690528
 13
103.495964
 23
9.690528
  0
SOLID
  8
13
  6
CONTINUOUS
 10
103.093446
 20
10.024343
 11
103.495964
 21
9.690528
 12
103.473877
 22
9.715277
 13
103.473877
 23
9.715277
  0
SOLID
  8
13
  6
CONTINUOUS
 10
103.093446
 20
10.024343
 11
103.473877
 21
9.715277
 12
103.454164
 22
9.736530
 13
103.454164
 23
9.736530
  0
SOLID
  8
13
  6
CONTINUOUS
 10
103.093446
 20
10.024343
 11
103.454164
 21
9.736530
 12
103.434048
 22
9.757502
 13
103.434048
 23
9.757502
  0
SOLID
  8
13
  6
CONTINUOUS
 10
103.093446
 20
10.024343
 11
103.434048
 21
9.757502
 12
103.410015
 22
9.781535
 13
103.410015
 23
9.781535
  0
SOLID
  8
13
  6
CONTINUOUS
 10
103.093446
 20
10.024343
 11
103.410015
 21
9.781535
 12
103.399294
 22
9.791943
 13
103.399294
 23
9.791943
  0
SOLID
  8
13
  6
CONTINUOUS
 10
103.093446
 20
10.024343
 11
103.399294
 21
9.791943
 12
103.388429
 22
9.802406
 13
103.388429
 23
9.802406
  0
SOLID
  8
13
  6
CONTINUOUS
 10
103.093446
 20
10.024343
 11
103.388429
 21
9.802406
 12
103.359952
 22
9.828752
 13
103.359952
 23
9.828752
  0
SOLID
  8
13
  6
CONTINUOUS
 10
103.093446
 20
10.024343
 11
103.359952
 21
9.828752
 12
103.325139
 22
9.859181
 13
103.325139
 23
9.859181
  0
SOLID
  8
13
  6
CONTINUOUS
 10
103.093446
 20
10.024343
 11
103.325139
 21
9.859181
 12
103.286846
 22
9.890826
 13
103.286846
 23
9.890826
  0
SOLID
  8
13
  6
CONTINUOUS
 10
103.093446
 20
10.024343
 11
103.286846
 21
9.890826
 12
103.251036
 22
9.918745
 13
103.251036
 23
9.918745
  0
SOLID
  8
13
  6
CONTINUOUS
 10
103.093446
 20
10.024343
 11
103.251036
 21
9.918745
 12
103.200839
 22
9.955427
 13
103.200839
 23
9.955427
  0
SOLID
  8
13
  6
CONTINUOUS
 10
103.093446
 20
10.024343
 11
103.200839
 21
9.955427
 12
103.134352
 22
9.999676
 13
103.134352
 23
9.999676
  0
SOLID
  8
13
  6
CONTINUOUS
 10
103.093446
 20
10.024343
 11
103.134352
 21
9.999676
 12
103.093446
 22
10.024343
 13
103.093446
 23
10.024343
  0
SOLID
  8
13
  6
CONTINUOUS
 10
102.522746
 20
10.635283
 11
102.522746
 21
11.162246
 12
102.095046
 22
11.162246
 13
102.095046
 23
11.162246
  0
SOLID
  8
13
  6
CONTINUOUS
 10
102.522746
 20
10.635283
 11
102.095046
 21
11.162246
 12
102.095046
 22
10.995122
 13
102.095046
 23
10.995122
  0
SOLID
  8
13
  6
CONTINUOUS
 10
102.522746
 20
10.635283
 11
102.095046
 21
10.995122
 12
102.153689
 22
10.929235
 13
102.153689
 23
10.929235
  0
SOLID
  8
13
  6
CONTINUOUS
 10
102.522746
 20
10.635283
 11
102.153689
 21
10.929235
 12
102.237359
 22
10.846559
 13
102.237359
 23
10.846559
  0
SOLID
  8
13
  6
CONTINUOUS
 10
102.522746
 20
10.635283
 11
102.237359
 21
10.846559
 12
102.308389
 22
10.784730
 13
102.308389
 23
10.784730
  0
SOLID
  8
13
  6
CONTINUOUS
 10
102.522746
 20
10.635283
 11
102.308389
 21
10.784730
 12
102.366624
 22
10.739274
 13
102.366624
 23
10.739274
  0
SOLID
  8
13
  6
CONTINUOUS
 10
102.522746
 20
10.635283
 11
102.366624
 21
10.739274
 12
102.406322
 22
10.710064
 13
102.406322
 23
10.710064
  0
SOLID
  8
13
  6
CONTINUOUS
 10
102.522746
 20
10.635283
 11
102.406322
 21
10.710064
 12
102.455827
 22
10.676682
 13
102.455827
 23
10.676682
  0
SOLID
  8
13
  6
CONTINUOUS
 10
102.522746
 20
10.635283
 11
102.455827
 21
10.676682
 12
102.493954
 22
10.652515
 13
102.493954
 23
10.652515
  0
SOLID
  8
13
  6
CONTINUOUS
 10
102.522746
 20
10.635283
 11
102.493954
 21
10.652515
 12
102.522746
 22
10.635283
 13
102.522746
 23
10.635283
  0
SOLID
  8
13
  6
CONTINUOUS
 10
103.021946
 20
10.443678
 11
103.021946
 21
11.162246
 12
102.594246
 22
11.162246
 13
102.594246
 23
11.162246
  0
SOLID
  8
13
  6
CONTINUOUS
 10
103.021946
 20
10.443678
 11
102.594246
 21
11.162246
 12
102.594246
 22
10.595859
 13
102.594246
 23
10.595859
  0
SOLID
  8
13
  6
CONTINUOUS
 10
103.021946
 20
10.443678
 11
102.594246
 21
10.595859
 12
102.663800
 22
10.561766
 13
102.663800
 23
10.561766
  0
SOLID
  8
13
  6
CONTINUOUS
 10
103.021946
 20
10.443678
 11
102.663800
 21
10.561766
 12
102.744359
 22
10.527375
 13
102.744359
 23
10.527375
  0
SOLID
  8
13
  6
CONTINUOUS
 10
103.021946
 20
10.443678
 11
102.744359
 21
10.527375
 12
102.812197
 22
10.501464
 13
102.812197
 23
10.501464
  0
SOLID
  8
13
  6
CONTINUOUS
 10
103.021946
 20
10.443678
 11
102.812197
 21
10.501464
 12
102.889458
 22
10.476967
 13
102.889458
 23
10.476967
  0
SOLID
  8
13
  6
CONTINUOUS
 10
103.021946
 20
10.443678
 11
102.889458
 21
10.476967
 12
102.950702
 22
10.460007
 13
102.950702
 23
10.460007
  0
SOLID
  8
13
  6
CONTINUOUS
 10
103.021946
 20
10.443678
 11
102.950702
 21
10.460007
 12
103.021946
 22
10.443678
 13
103.021946
 23
10.443678
  0
SOLID
  8
13
  6
CONTINUOUS
 10
103.093446
 20
10.430307
 11
103.093446
 21
11.162246
 12
103.521146
 22
11.162246
 13
103.521146
 23
11.162246
  0
SOLID
  8
13
  6
CONTINUOUS
 10
103.093446
 20
10.430307
 11
103.521146
 21
11.162246
 12
103.521146
 22
10.417580
 13
103.521146
 23
10.417580
  0
SOLID
  8
13
  6
CONTINUOUS
 10
103.093446
 20
10.430307
 11
103.521146
 21
10.417580
 12
103.476372
 22
10.413637
 13
103.476372
 23
10.413637
  0
SOLID
  8
13
  6
CONTINUOUS
 10
103.093446
 20
10.430307
 11
103.476372
 21
10.413637
 12
103.416577
 22
10.410480
 13
103.416577
 23
10.410480
  0
SOLID
  8
13
  6
CONTINUOUS
 10
103.093446
 20
10.430307
 11
103.416577
 21
10.410480
 12
103.366788
 22
10.409453
 13
103.366788
 23
10.409453
  0
SOLID
  8
13
  6
CONTINUOUS
 10
103.093446
 20
10.430307
 11
103.366788
 21
10.409453
 12
103.336830
 22
10.409453
 13
103.336830
 23
10.409453
  0
SOLID
  8
13
  6
CONTINUOUS
 10
103.093446
 20
10.430307
 11
103.336830
 21
10.409453
 12
103.286182
 22
10.410821
 13
103.286182
 23
10.410821
  0
SOLID
  8
13
  6
CONTINUOUS
 10
103.093446
 20
10.430307
 11
103.286182
 21
10.410821
 12
103.241261
 22
10.413321
 13
103.241261
 23
10.413321
  0
SOLID
  8
13
  6
CONTINUOUS
 10
103.093446
 20
10.430307
 11
103.241261
 21
10.413321
 12
103.205545
 22
10.416539
 13
103.205545
 23
10.416539
  0
SOLID
  8
13
  6
CONTINUOUS
 10
103.093446
 20
10.430307
 11
103.205545
 21
10.416539
 12
103.155349
 22
10.421044
 13
103.155349
 23
10.421044
  0
SOLID
  8
13
  6
CONTINUOUS
 10
103.093446
 20
10.430307
 11
103.155349
 21
10.421044
 12
103.093446
 22
10.430307
 13
103.093446
 23
10.430307
  0
SOLID
  8
13
  6
CONTINUOUS
 10
102.594246
 20
9.498246
 11
102.594246
 21
11.162246
 12
102.522746
 22
11.162246
 13
102.522746
 23
11.162246
  0
SOLID
  8
13
  6
CONTINUOUS
 10
102.594246
 20
9.498246
 11
102.522746
 21
11.162246
 12
102.522746
 22
9.498246
 13
102.522746
 23
9.498246
  0
SOLID
  8
13
  6
CONTINUOUS
 10
102.594246
 20
9.498246
 11
102.522746
 21
9.498246
 12
102.522746
 22
9.498246
 13
102.522746
 23
9.498246
  0
SOLID
  8
13
  6
CONTINUOUS
 10
103.021946
 20
11.162246
 11
103.093446
 21
11.162246
 12
103.093446
 22
9.498246
 13
103.093446
 23
9.498246
  0
SOLID
  8
13
  6
CONTINUOUS
 10
103.021946
 20
11.162246
 11
103.093446
 21
9.498246
 12
103.021946
 22
9.498246
 13
103.021946
 23
9.498246
  0
SOLID
  8
13
  6
CONTINUOUS
 10
103.021946
 20
11.162246
 11
103.021946
 21
9.498246
 12
103.021946
 22
11.162246
 13
103.021946
 23
11.162246
  0
SOLID
  8
13
  6
CONTINUOUS
 10
103.521146
 20
9.498246
 11
103.635546
 21
9.498246
 12
103.635546
 22
11.162246
 13
103.635546
 23
11.162246
  0
SOLID
  8
13
  6
CONTINUOUS
 10
103.521146
 20
9.498246
 11
103.635546
 21
11.162246
 12
103.521146
 22
11.162246
 13
103.521146
 23
11.162246
  0
SOLID
  8
13
  6
CONTINUOUS
 10
103.521146
 20
9.498246
 11
103.521146
 21
11.162246
 12
103.521146
 22
9.498246
 13
103.521146
 23
9.498246
  0
POLYLINE
  8
1
  6
CONTINUOUS
 66
     1
  0
VERTEX
  8
1
  6
CONTINUOUS
 10
96.602384
 20
45.028526
  0
VERTEX
  8
1
  6
CONTINUOUS
 10
97.927650
 20
44.916363
  0
SEQEND
  8
1
  6
CONTINUOUS
  0
POLYLINE
  8
1
  6
CONTINUOUS
 66
     1
  0
VERTEX
  8
1
  6
CONTINUOUS
 10
97.969816
 20
45.414582
  0
VERTEX
  8
1
  6
CONTINUOUS
 10
96.644466
 20
45.526752
  0
SEQEND
  8
1
  6
CONTINUOUS
  0
POLYLINE
  8
1
  6
CONTINUOUS
 66
     1
  0
VERTEX
  8
1
  6
CONTINUOUS
 10
86.771017
 20
45.860597
  0
VERTEX
  8
1
  6
CONTINUOUS
 10
95.439873
 20
45.126914
  0
SEQEND
  8
1
  6
CONTINUOUS
  0
POLYLINE
  8
1
  6
CONTINUOUS
 66
     1
  0
VERTEX
  8
1
  6
CONTINUOUS
 10
95.481956
 20
45.625140
  0
VERTEX
  8
1
  6
CONTINUOUS
 10
86.813100
 20
46.358822
  0
SEQEND
  8
1
  6
CONTINUOUS
  0
POLYLINE
  8
1
  6
CONTINUOUS
 66
     1
  0
VERTEX
  8
1
  6
CONTINUOUS
 10
75.976276
 20
46.774202
  0
VERTEX
  8
1
  6
CONTINUOUS
 10
86.272799
 20
45.902763
  0
SEQEND
  8
1
  6
CONTINUOUS
  0
POLYLINE
  8
1
  6
CONTINUOUS
 66
     1
  0
VERTEX
  8
1
  6
CONTINUOUS
 10
86.314881
 20
46.400989
  0
VERTEX
  8
1
  6
CONTINUOUS
 10
76.018359
 20
47.272428
  0
SEQEND
  8
1
  6
CONTINUOUS
  0
POLYLINE
  8
1
  6
CONTINUOUS
 66
     1
  0
VERTEX
  8
1
  6
CONTINUOUS
 10
66.842265
 20
47.547252
  0
VERTEX
  8
1
  6
CONTINUOUS
 10
75.478058
 20
46.816368
  0
SEQEND
  8
1
  6
CONTINUOUS
  0
POLYLINE
  8
1
  6
CONTINUOUS
 66
     1
  0
VERTEX
  8
1
  6
CONTINUOUS
 10
75.520140
 20
47.314594
  0
VERTEX
  8
1
  6
CONTINUOUS
 10
66.884347
 20
48.045478
  0
SEQEND
  8
1
  6
CONTINUOUS
  0
POLYLINE
  8
1
  6
CONTINUOUS
 66
     1
  0
VERTEX
  8
1
  6
CONTINUOUS
 10
58.913510
 20
48.218297
  0
VERTEX
  8
1
  6
CONTINUOUS
 10
66.344046
 20
47.589419
  0
SEQEND
  8
1
  6
CONTINUOUS
  0
POLYLINE
  8
1
  6
CONTINUOUS
 66
     1
  0
VERTEX
  8
1
  6
CONTINUOUS
 10
66.386128
 20
48.087644
  0
VERTEX
  8
1
  6
CONTINUOUS
 10
58.955593
 20
48.716522
  0
SEQEND
  8
1
  6
CONTINUOUS
  0
POLYLINE
  8
1
  6
CONTINUOUS
 66
     1
  0
VERTEX
  8
1
  6
CONTINUOUS
 10
54.143082
 20
48.622038
  0
VERTEX
  8
1
  6
CONTINUOUS
 10
57.751000
 20
48.316685
  0
SEQEND
  8
1
  6
CONTINUOUS
  0
POLYLINE
  8
1
  6
CONTINUOUS
 66
     1
  0
VERTEX
  8
1
  6
CONTINUOUS
 10
57.793082
 20
48.814911
  0
VERTEX
  8
1
  6
CONTINUOUS
 10
53.997499
 20
49.136147
  0
SEQEND
  8
1
  6
CONTINUOUS
  0
POLYLINE
  8
1
  6
CONTINUOUS
 66
     1
  0
VERTEX
  8
1
  6
CONTINUOUS
 10
46.059749
 20
49.306165
  0
VERTEX
  8
1
  6
CONTINUOUS
 10
53.809749
 20
48.650250
  0
SEQEND
  8
1
  6
CONTINUOUS
  0
POLYLINE
  8
1
  6
CONTINUOUS
 66
     1
  0
VERTEX
  8
1
  6
CONTINUOUS
 10
53.997499
 20
49.136147
  0
VERTEX
  8
1
  6
CONTINUOUS
 10
45.914166
 20
49.820274
  0
SEQEND
  8
1
  6
CONTINUOUS
  0
POLYLINE
  8
1
  6
CONTINUOUS
 66
     1
  0
VERTEX
  8
1
  6
CONTINUOUS
 10
37.816039
 20
50.003866
  0
VERTEX
  8
1
  6
CONTINUOUS
 10
45.726416
 20
49.334377
  0
SEQEND
  8
1
  6
CONTINUOUS
  0
POLYLINE
  8
1
  6
CONTINUOUS
 66
     1
  0
VERTEX
  8
1
  6
CONTINUOUS
 10
45.914166
 20
49.820274
  0
VERTEX
  8
1
  6
CONTINUOUS
 10
37.670455
 20
50.517975
  0
SEQEND
  8
1
  6
CONTINUOUS
  0
POLYLINE
  8
1
  6
CONTINUOUS
 66
     1
  0
VERTEX
  8
1
  6
CONTINUOUS
 10
35.390957
 20
50.209111
  0
VERTEX
  8
1
  6
CONTINUOUS
 10
37.482705
 20
50.032077
  0
SEQEND
  8
1
  6
CONTINUOUS
  0
POLYLINE
  8
1
  6
CONTINUOUS
 66
     1
  0
VERTEX
  8
1
  6
CONTINUOUS
 10
37.670455
 20
50.517975
  0
VERTEX
  8
1
  6
CONTINUOUS
 10
35.433040
 20
50.707337
  0
SEQEND
  8
1
  6
CONTINUOUS
  0
POLYLINE
  8
1
  6
CONTINUOUS
 66
     1
  0
VERTEX
  8
1
  6
CONTINUOUS
 10
29.649372
 20
50.695046
  0
VERTEX
  8
1
  6
CONTINUOUS
 10
34.228447
 20
50.307499
  0
SEQEND
  8
1
  6
CONTINUOUS
  0
POLYLINE
  8
1
  6
CONTINUOUS
 66
     1
  0
VERTEX
  8
1
  6
CONTINUOUS
 10
34.270529
 20
50.805725
  0
VERTEX
  8
1
  6
CONTINUOUS
 10
29.503788
 20
51.209155
  0
SEQEND
  8
1
  6
CONTINUOUS
  0
POLYLINE
  8
1
  6
CONTINUOUS
 66
     1
  0
VERTEX
  8
1
  6
CONTINUOUS
 10
25.924800
 20
51.010272
  0
VERTEX
  8
1
  6
CONTINUOUS
 10
29.316039
 20
50.723257
  0
SEQEND
  8
1
  6
CONTINUOUS
  0
POLYLINE
  8
1
  6
CONTINUOUS
 66
     1
  0
VERTEX
  8
1
  6
CONTINUOUS
 10
29.503788
 20
51.209155
  0
VERTEX
  8
1
  6
CONTINUOUS
 10
25.966882
 20
51.508498
  0
SEQEND
  8
1
  6
CONTINUOUS
  0
POLYLINE
  8
1
  6
CONTINUOUS
 66
     1
  0
VERTEX
  8
1
  6
CONTINUOUS
 10
16.340104
 20
51.821466
  0
VERTEX
  8
1
  6
CONTINUOUS
 10
25.426581
 20
51.052439
  0
SEQEND
  8
1
  6
CONTINUOUS
  0
POLYLINE
  8
1
  6
CONTINUOUS
 66
     1
  0
VERTEX
  8
1
  6
CONTINUOUS
 10
25.468663
 20
51.550665
  0
VERTEX
  8
1
  6
CONTINUOUS
 10
16.382187
 20
52.319692
  0
SEQEND
  8
1
  6
CONTINUOUS
  0
POLYLINE
  8
1
  6
CONTINUOUS
 66
     1
  0
VERTEX
  8
1
  6
CONTINUOUS
 10
7.538238
 20
52.566406
  0
VERTEX
  8
1
  6
CONTINUOUS
 10
15.841885
 20
51.863632
  0
SEQEND
  8
1
  6
CONTINUOUS
  0
POLYLINE
  8
1
  6
CONTINUOUS
 66
     1
  0
VERTEX
  8
1
  6
CONTINUOUS
 10
15.883968
 20
52.361858
  0
VERTEX
  8
1
  6
CONTINUOUS
 10
7.580321
 20
53.064632
  0
SEQEND
  8
1
  6
CONTINUOUS
  0
POLYLINE
  8
1
  6
CONTINUOUS
 66
     1
  0
VERTEX
  8
1
  6
CONTINUOUS
 10
5.295543
 20
52.756215
  0
VERTEX
  8
1
  6
CONTINUOUS
 10
6.375728
 20
52.664794
  0
SEQEND
  8
1
  6
CONTINUOUS
  0
POLYLINE
  8
1
  6
CONTINUOUS
 66
     1
  0
VERTEX
  8
1
  6
CONTINUOUS
 10
6.417810
 20
53.163020
  0
VERTEX
  8
1
  6
CONTINUOUS
 10
4.796606
 20
53.300229
  0
SEQEND
  8
1
  6
CONTINUOUS
  0
POLYLINE
  8
1
  6
CONTINUOUS
 66
     1
  0
VERTEX
  8
1
  6
CONTINUOUS
 10
97.927650
 20
44.916363
  0
VERTEX
  8
1
  6
CONTINUOUS
 10
97.969816
 20
45.414582
  0
SEQEND
  8
1
  6
CONTINUOUS
  0
POLYLINE
  8
1
  6
CONTINUOUS
 66
     1
  0
VERTEX
  8
1
  6
CONTINUOUS
 10
4.752790
 20
30.904064
  0
VERTEX
  8
1
  6
CONTINUOUS
 10
4.734465
 20
21.537415
  0
SEQEND
  8
1
  6
CONTINUOUS
  0
POLYLINE
  8
1
  6
CONTINUOUS
 66
     1
  0
VERTEX
  8
1
  6
CONTINUOUS
 10
5.234464
 20
21.536438
  0
VERTEX
  8
1
  6
CONTINUOUS
 10
5.252789
 20
30.903087
  0
SEQEND
  8
1
  6
CONTINUOUS
  0
POLYLINE
  8
1
  6
CONTINUOUS
 66
     1
  0
VERTEX
  8
1
  6
CONTINUOUS
 10
4.768050
 20
38.704049
  0
VERTEX
  8
1
  6
CONTINUOUS
 10
4.753768
 20
31.404063
  0
SEQEND
  8
1
  6
CONTINUOUS
  0
POLYLINE
  8
1
  6
CONTINUOUS
 66
     1
  0
VERTEX
  8
1
  6
CONTINUOUS
 10
5.253767
 20
31.403086
  0
VERTEX
  8
1
  6
CONTINUOUS
 10
5.268049
 20
38.703072
  0
SEQEND
  8
1
  6
CONTINUOUS
  0
POLYLINE
  8
1
  6
CONTINUOUS
 66
     1
  0
VERTEX
  8
1
  6
CONTINUOUS
 10
4.792342
 20
51.120692
  0
VERTEX
  8
1
  6
CONTINUOUS
 10
4.769028
 20
39.204048
  0
SEQEND
  8
1
  6
CONTINUOUS
  0
POLYLINE
  8
1
  6
CONTINUOUS
 66
     1
  0
VERTEX
  8
1
  6
CONTINUOUS
 10
5.269027
 20
39.203071
  0
VERTEX
  8
1
  6
CONTINUOUS
 10
5.292341
 20
51.119715
  0
SEQEND
  8
1
  6
CONTINUOUS
  0
POLYLINE
  8
1
  6
CONTINUOUS
 66
     1
  0
VERTEX
  8
1
  6
CONTINUOUS
 10
4.796606
 20
53.300229
  0
VERTEX
  8
1
  6
CONTINUOUS
 10
4.793320
 20
51.620691
  0
SEQEND
  8
1
  6
CONTINUOUS
  0
POLYLINE
  8
1
  6
CONTINUOUS
 66
     1
  0
VERTEX
  8
1
  6
CONTINUOUS
 10
5.293320
 20
51.619714
  0
VERTEX
  8
1
  6
CONTINUOUS
 10
5.295543
 20
52.756215
  0
SEQEND
  8
1
  6
CONTINUOUS
  0
POLYLINE
  8
1
  6
CONTINUOUS
 66
     1
  0
VERTEX
  8
1
  6
CONTINUOUS
 10
5.247896
 20
11.322588
  0
VERTEX
  8
1
  6
CONTINUOUS
 10
5.246409
 20
10.561860
  0
SEQEND
  8
1
  6
CONTINUOUS
  0
POLYLINE
  8
1
  6
CONTINUOUS
 66
     1
  0
VERTEX
  8
1
  6
CONTINUOUS
 10
5.713915
 20
10.990617
  0
VERTEX
  8
1
  6
CONTINUOUS
 10
5.714562
 20
11.321676
  0
SEQEND
  8
1
  6
CONTINUOUS
  0
POLYLINE
  8
1
  6
CONTINUOUS
 66
     1
  0
VERTEX
  8
1
  6
CONTINUOUS
 10
5.265842
 20
20.503042
  0
VERTEX
  8
1
  6
CONTINUOUS
 10
5.248874
 20
11.822587
  0
SEQEND
  8
1
  6
CONTINUOUS
  0
POLYLINE
  8
1
  6
CONTINUOUS
 66
     1
  0
VERTEX
  8
1
  6
CONTINUOUS
 10
5.715539
 20
11.821675
  0
VERTEX
  8
1
  6
CONTINUOUS
 10
5.732508
 20
20.502129
  0
SEQEND
  8
1
  6
CONTINUOUS
  0
POLYLINE
  8
1
  6
CONTINUOUS
 66
     1
  0
VERTEX
  8
1
  6
CONTINUOUS
 10
53.956732
 20
6.438014
  0
VERTEX
  8
1
  6
CONTINUOUS
 10
59.106759
 20
6.002010
  0
SEQEND
  8
1
  6
CONTINUOUS
  0
POLYLINE
  8
1
  6
CONTINUOUS
 66
     1
  0
VERTEX
  8
1
  6
CONTINUOUS
 10
59.146117
 20
6.467014
  0
VERTEX
  8
1
  6
CONTINUOUS
 10
54.143082
 20
6.890574
  0
SEQEND
  8
1
  6
CONTINUOUS
  0
POLYLINE
  8
1
  6
CONTINUOUS
 66
     1
  0
VERTEX
  8
1
  6
CONTINUOUS
 10
49.740179
 20
6.794990
  0
VERTEX
  8
1
  6
CONTINUOUS
 10
53.956732
 20
6.438014
  0
SEQEND
  8
1
  6
CONTINUOUS
  0
POLYLINE
  8
1
  6
CONTINUOUS
 66
     1
  0
VERTEX
  8
1
  6
CONTINUOUS
 10
53.809749
 20
6.918794
  0
VERTEX
  8
1
  6
CONTINUOUS
 10
49.779537
 20
7.259994
  0
SEQEND
  8
1
  6
CONTINUOUS
  0
POLYLINE
  8
1
  6
CONTINUOUS
 66
     1
  0
VERTEX
  8
1
  6
CONTINUOUS
 10
45.873399
 20
7.122354
  0
VERTEX
  8
1
  6
CONTINUOUS
 10
48.909816
 20
6.865289
  0
SEQEND
  8
1
  6
CONTINUOUS
  0
POLYLINE
  8
1
  6
CONTINUOUS
 66
     1
  0
VERTEX
  8
1
  6
CONTINUOUS
 10
48.949174
 20
7.330293
  0
VERTEX
  8
1
  6
CONTINUOUS
 10
46.059749
 20
7.574914
  0
SEQEND
  8
1
  6
CONTINUOUS
  0
POLYLINE
  8
1
  6
CONTINUOUS
 66
     1
  0
VERTEX
  8
1
  6
CONTINUOUS
 10
39.502008
 20
7.661760
  0
VERTEX
  8
1
  6
CONTINUOUS
 10
45.873399
 20
7.122354
  0
SEQEND
  8
1
  6
CONTINUOUS
  0
POLYLINE
  8
1
  6
CONTINUOUS
 66
     1
  0
VERTEX
  8
1
  6
CONTINUOUS
 10
45.726416
 20
7.603134
  0
VERTEX
  8
1
  6
CONTINUOUS
 10
39.541367
 20
8.126764
  0
SEQEND
  8
1
  6
CONTINUOUS
  0
POLYLINE
  8
1
  6
CONTINUOUS
 66
     1
  0
VERTEX
  8
1
  6
CONTINUOUS
 10
37.629688
 20
7.820272
  0
VERTEX
  8
1
  6
CONTINUOUS
 10
38.671646
 20
7.732059
  0
SEQEND
  8
1
  6
CONTINUOUS
  0
POLYLINE
  8
1
  6
CONTINUOUS
 66
     1
  0
VERTEX
  8
1
  6
CONTINUOUS
 10
38.711004
 20
8.197063
  0
VERTEX
  8
1
  6
CONTINUOUS
 10
37.816039
 20
8.272831
  0
SEQEND
  8
1
  6
CONTINUOUS
  0
POLYLINE
  8
1
  6
CONTINUOUS
 66
     1
  0
VERTEX
  8
1
  6
CONTINUOUS
 10
29.735001
 20
8.488641
  0
VERTEX
  8
1
  6
CONTINUOUS
 10
37.629688
 20
7.820272
  0
SEQEND
  8
1
  6
CONTINUOUS
  0
POLYLINE
  8
1
  6
CONTINUOUS
 66
     1
  0
VERTEX
  8
1
  6
CONTINUOUS
 10
37.482705
 20
8.301051
  0
VERTEX
  8
1
  6
CONTINUOUS
 10
29.774359
 20
8.953645
  0
SEQEND
  8
1
  6
CONTINUOUS
  0
POLYLINE
  8
1
  6
CONTINUOUS
 66
     1
  0
VERTEX
  8
1
  6
CONTINUOUS
 10
20.403662
 20
9.278638
  0
VERTEX
  8
1
  6
CONTINUOUS
 10
29.236784
 20
8.530820
  0
SEQEND
  8
1
  6
CONTINUOUS
  0
POLYLINE
  8
1
  6
CONTINUOUS
 66
     1
  0
VERTEX
  8
1
  6
CONTINUOUS
 10
29.276142
 20
8.995824
  0
VERTEX
  8
1
  6
CONTINUOUS
 10
20.443020
 20
9.743642
  0
SEQEND
  8
1
  6
CONTINUOUS
  0
POLYLINE
  8
1
  6
CONTINUOUS
 66
     1
  0
VERTEX
  8
1
  6
CONTINUOUS
 10
12.888877
 20
9.914844
  0
VERTEX
  8
1
  6
CONTINUOUS
 10
19.905444
 20
9.320817
  0
SEQEND
  8
1
  6
CONTINUOUS
  0
POLYLINE
  8
1
  6
CONTINUOUS
 66
     1
  0
VERTEX
  8
1
  6
CONTINUOUS
 10
19.944802
 20
9.785821
  0
VERTEX
  8
1
  6
CONTINUOUS
 10
12.928235
 20
10.379848
  0
SEQEND
  8
1
  6
CONTINUOUS
  0
POLYLINE
  8
1
  6
CONTINUOUS
 66
     1
  0
VERTEX
  8
1
  6
CONTINUOUS
 10
5.246409
 20
10.561860
  0
VERTEX
  8
1
  6
CONTINUOUS
 10
12.390660
 20
9.957024
  0
SEQEND
  8
1
  6
CONTINUOUS
  0
POLYLINE
  8
1
  6
CONTINUOUS
 66
     1
  0
VERTEX
  8
1
  6
CONTINUOUS
 10
12.430018
 20
10.422028
  0
VERTEX
  8
1
  6
CONTINUOUS
 10
5.713915
 20
10.990617
  0
SEQEND
  8
1
  6
CONTINUOUS
  0
POLYLINE
  8
1
  6
CONTINUOUS
 66
     1
  0
VERTEX
  8
1
  6
CONTINUOUS
 10
93.010508
 20
2.596548
  0
VERTEX
  8
1
  6
CONTINUOUS
 10
94.335761
 20
2.484361
  0
SEQEND
  8
1
  6
CONTINUOUS
  0
POLYLINE
  8
1
  6
CONTINUOUS
 66
     1
  0
VERTEX
  8
1
  6
CONTINUOUS
 10
94.377936
 20
2.982579
  0
VERTEX
  8
1
  6
CONTINUOUS
 10
93.052686
 20
3.094766
  0
SEQEND
  8
1
  6
CONTINUOUS
  0
POLYLINE
  8
1
  6
CONTINUOUS
 66
     1
  0
VERTEX
  8
1
  6
CONTINUOUS
 10
80.114335
 20
3.688245
  0
VERTEX
  8
1
  6
CONTINUOUS
 10
92.512290
 20
2.638723
  0
SEQEND
  8
1
  6
CONTINUOUS
  0
POLYLINE
  8
1
  6
CONTINUOUS
 66
     1
  0
VERTEX
  8
1
  6
CONTINUOUS
 10
92.554468
 20
3.136941
  0
VERTEX
  8
1
  6
CONTINUOUS
 10
80.156513
 20
4.186463
  0
SEQEND
  8
1
  6
CONTINUOUS
  0
POLYLINE
  8
1
  6
CONTINUOUS
 66
     1
  0
VERTEX
  8
1
  6
CONTINUOUS
 10
70.149974
 20
4.531756
  0
VERTEX
  8
1
  6
CONTINUOUS
 10
79.616117
 20
3.730421
  0
SEQEND
  8
1
  6
CONTINUOUS
  0
POLYLINE
  8
1
  6
CONTINUOUS
 66
     1
  0
VERTEX
  8
1
  6
CONTINUOUS
 10
79.658295
 20
4.228639
  0
VERTEX
  8
1
  6
CONTINUOUS
 10
70.192152
 20
5.029974
  0
SEQEND
  8
1
  6
CONTINUOUS
  0
POLYLINE
  8
1
  6
CONTINUOUS
 66
     1
  0
VERTEX
  8
1
  6
CONTINUOUS
 10
60.091414
 20
5.383242
  0
VERTEX
  8
1
  6
CONTINUOUS
 10
69.651756
 20
4.573932
  0
SEQEND
  8
1
  6
CONTINUOUS
  0
POLYLINE
  8
1
  6
CONTINUOUS
 66
     1
  0
VERTEX
  8
1
  6
CONTINUOUS
 10
69.693934
 20
5.072150
  0
VERTEX
  8
1
  6
CONTINUOUS
 10
60.133584
 20
5.881460
  0
SEQEND
  8
1
  6
CONTINUOUS
  0
POLYLINE
  8
1
  6
CONTINUOUS
 66
     1
  0
VERTEX
  8
1
  6
CONTINUOUS
 10
94.335761
 20
2.484361
  0
VERTEX
  8
1
  6
CONTINUOUS
 10
94.377936
 20
2.982579
  0
SEQEND
  8
1
  6
CONTINUOUS
  0
POLYLINE
  8
1
  6
CONTINUOUS
 66
     1
  0
VERTEX
  8
1
  6
CONTINUOUS
 10
54.143082
 20
6.890574
  0
VERTEX
  8
1
  6
CONTINUOUS
 10
53.809749
 20
6.918794
  0
SEQEND
  8
1
  6
CONTINUOUS
  0
POLYLINE
  8
1
  6
CONTINUOUS
 66
     1
  0
VERTEX
  8
1
  6
CONTINUOUS
 10
54.143082
 20
48.622038
  0
VERTEX
  8
1
  6
CONTINUOUS
 10
53.809749
 20
48.650250
  0
SEQEND
  8
1
  6
CONTINUOUS
  0
POLYLINE
  8
1
  6
CONTINUOUS
 66
     1
  0
VERTEX
  8
1
  6
CONTINUOUS
 10
46.059749
 20
7.574914
  0
VERTEX
  8
1
  6
CONTINUOUS
 10
45.726416
 20
7.603134
  0
SEQEND
  8
1
  6
CONTINUOUS
  0
POLYLINE
  8
1
  6
CONTINUOUS
 66
     1
  0
VERTEX
  8
1
  6
CONTINUOUS
 10
46.059749
 20
49.306165
  0
VERTEX
  8
1
  6
CONTINUOUS
 10
45.726416
 20
49.334377
  0
SEQEND
  8
1
  6
CONTINUOUS
  0
POLYLINE
  8
1
  6
CONTINUOUS
 66
     1
  0
VERTEX
  8
1
  6
CONTINUOUS
 10
37.816039
 20
8.272831
  0
VERTEX
  8
1
  6
CONTINUOUS
 10
37.482705
 20
8.301051
  0
SEQEND
  8
1
  6
CONTINUOUS
  0
POLYLINE
  8
1
  6
CONTINUOUS
 66
     1
  0
VERTEX
  8
1
  6
CONTINUOUS
 10
37.816039
 20
50.003866
  0
VERTEX
  8
1
  6
CONTINUOUS
 10
37.482705
 20
50.032077
  0
SEQEND
  8
1
  6
CONTINUOUS
  0
POLYLINE
  8
1
  6
CONTINUOUS
 66
     1
  0
VERTEX
  8
1
  6
CONTINUOUS
 10
29.649372
 20
50.695046
  0
VERTEX
  8
1
  6
CONTINUOUS
 10
29.316039
 20
50.723257
  0
SEQEND
  8
1
  6
CONTINUOUS
  0
LINE
  8
1
  6
CONTINUOUS
 10
94.378031
 20
2.983082
 11
97.927615
 21
44.916366
  0
LINE
  8
1
  6
CONTINUOUS
 10
5.266819
 20
21.003041
 11
5.233486
 21
21.003106
  0
LINE
  8
1
  6
CONTINUOUS
 10
5.233486
 20
21.003106
 11
5.233486
 21
21.036439
  0
LINE
  8
1
  6
CONTINUOUS
 10
59.635383
 20
5.923841
 11
59.602168
 21
5.926653
  0
LINE
  8
1
  6
CONTINUOUS
 10
59.602168
 20
5.926653
 11
59.605010
 21
5.959861
  0
LINE
  8
1
  6
CONTINUOUS
 10
76.659734
 20
14.936346
 11
76.659734
 21
14.936346
  0
POLYLINE
  8
1
  6
CONTINUOUS
 66
     1
  0
VERTEX
  8
1
  6
CONTINUOUS
 10
77.039775
 20
14.486023
  0
VERTEX
  8
1
  6
CONTINUOUS
 10
77.110057
 20
15.316387
  0
VERTEX
  8
1
  6
CONTINUOUS
 10
76.279693
 20
15.386669
  0
VERTEX
  8
1
  6
CONTINUOUS
 10
76.209411
 20
14.556305
  0
VERTEX
  8
1
  6
CONTINUOUS
 10
77.039775
 20
14.486023
  0
SEQEND
  8
1
  6
CONTINUOUS
  0
LINE
  8
1
  6
CONTINUOUS
 10
77.575709
 20
25.757305
 11
77.575709
 21
25.757305
  0
POLYLINE
  8
1
  6
CONTINUOUS
 66
     1
  0
VERTEX
  8
1
  6
CONTINUOUS
 10
77.955750
 20
25.306982
  0
VERTEX
  8
1
  6
CONTINUOUS
 10
78.026033
 20
26.137346
  0
VERTEX
  8
1
  6
CONTINUOUS
 10
77.195668
 20
26.207629
  0
VERTEX
  8
1
  6
CONTINUOUS
 10
77.125386
 20
25.377264
  0
VERTEX
  8
1
  6
CONTINUOUS
 10
77.955750
 20
25.306982
  0
SEQEND
  8
1
  6
CONTINUOUS
  0
LINE
  8
1
  6
CONTINUOUS
 10
78.452138
 20
36.111056
 11
78.452138
 21
36.111056
  0
POLYLINE
  8
1
  6
CONTINUOUS
 66
     1
  0
VERTEX
  8
1
  6
CONTINUOUS
 10
78.832179
 20
35.660732
  0
VERTEX
  8
1
  6
CONTINUOUS
 10
78.902461
 20
36.491097
  0
VERTEX
  8
1
  6
CONTINUOUS
 10
78.072097
 20
36.561379
  0
VERTEX
  8
1
  6
CONTINUOUS
 10
78.001814
 20
35.731015
  0
VERTEX
  8
1
  6
CONTINUOUS
 10
78.832179
 20
35.660732
  0
SEQEND
  8
1
  6
CONTINUOUS
  0
LINE
  8
1
  6
CONTINUOUS
 10
60.052459
 20
16.342119
 11
60.052459
 21
16.342119
  0
POLYLINE
  8
1
  6
CONTINUOUS
 66
     1
  0
VERTEX
  8
1
  6
CONTINUOUS
 10
60.432500
 20
15.891795
  0
VERTEX
  8
1
  6
CONTINUOUS
 10
60.502783
 20
16.722160
  0
VERTEX
  8
1
  6
CONTINUOUS
 10
59.672418
 20
16.792442
  0
VERTEX
  8
1
  6
CONTINUOUS
 10
59.602136
 20
15.962078
  0
VERTEX
  8
1
  6
CONTINUOUS
 10
60.432500
 20
15.891795
  0
SEQEND
  8
1
  6
CONTINUOUS
  0
LINE
  8
1
  6
CONTINUOUS
 10
61.141536
 20
27.232058
 11
61.141536
 21
27.232058
  0
POLYLINE
  8
1
  6
CONTINUOUS
 66
     1
  0
VERTEX
  8
1
  6
CONTINUOUS
 10
61.521577
 20
26.781735
  0
VERTEX
  8
1
  6
CONTINUOUS
 10
61.591859
 20
27.612099
  0
VERTEX
  8
1
  6
CONTINUOUS
 10
60.761495
 20
27.682381
  0
VERTEX
  8
1
  6
CONTINUOUS
 10
60.691212
 20
26.852017
  0
VERTEX
  8
1
  6
CONTINUOUS
 10
61.521577
 20
26.781735
  0
SEQEND
  8
1
  6
CONTINUOUS
  0
LINE
  8
1
  6
CONTINUOUS
 10
62.010935
 20
37.502772
 11
62.010935
 21
37.502772
  0
POLYLINE
  8
1
  6
CONTINUOUS
 66
     1
  0
VERTEX
  8
1
  6
CONTINUOUS
 10
62.390976
 20
37.052449
  0
VERTEX
  8
1
  6
CONTINUOUS
 10
62.461259
 20
37.882813
  0
VERTEX
  8
1
  6
CONTINUOUS
 10
61.630894
 20
37.953095
  0
VERTEX
  8
1
  6
CONTINUOUS
 10
61.560612
 20
37.122731
  0
VERTEX
  8
1
  6
CONTINUOUS
 10
62.390976
 20
37.052449
  0
SEQEND
  8
1
  6
CONTINUOUS
  0
LINE
  8
1
  6
CONTINUOUS
 10
43.569088
 20
17.235616
 11
43.569088
 21
17.235616
  0
POLYLINE
  8
1
  6
CONTINUOUS
 66
     1
  0
VERTEX
  8
1
  6
CONTINUOUS
 10
43.768999
 20
16.633277
  0
VERTEX
  8
1
  6
CONTINUOUS
 10
43.867395
 20
17.795787
  0
VERTEX
  8
1
  6
CONTINUOUS
 10
43.369176
 20
17.837956
  0
VERTEX
  8
1
  6
CONTINUOUS
 10
43.270781
 20
16.675446
  0
VERTEX
  8
1
  6
CONTINUOUS
 10
43.768999
 20
16.633277
  0
SEQEND
  8
1
  6
CONTINUOUS
  0
LINE
  8
1
  6
CONTINUOUS
 10
44.569402
 20
29.053013
 11
44.569402
 21
29.053013
  0
POLYLINE
  8
1
  6
CONTINUOUS
 66
     1
  0
VERTEX
  8
1
  6
CONTINUOUS
 10
44.769313
 20
28.450673
  0
VERTEX
  8
1
  6
CONTINUOUS
 10
44.867709
 20
29.613183
  0
VERTEX
  8
1
  6
CONTINUOUS
 10
44.369490
 20
29.655353
  0
VERTEX
  8
1
  6
CONTINUOUS
 10
44.271095
 20
28.492843
  0
VERTEX
  8
1
  6
CONTINUOUS
 10
44.769313
 20
28.450673
  0
SEQEND
  8
1
  6
CONTINUOUS
  0
LINE
  8
1
  6
CONTINUOUS
 10
45.445830
 20
39.406763
 11
45.445830
 21
39.406763
  0
POLYLINE
  8
1
  6
CONTINUOUS
 66
     1
  0
VERTEX
  8
1
  6
CONTINUOUS
 10
45.645742
 20
38.804423
  0
VERTEX
  8
1
  6
CONTINUOUS
 10
45.744137
 20
39.966933
  0
VERTEX
  8
1
  6
CONTINUOUS
 10
45.245918
 20
40.009103
  0
VERTEX
  8
1
  6
CONTINUOUS
 10
45.147523
 20
38.846593
  0
VERTEX
  8
1
  6
CONTINUOUS
 10
45.645742
 20
38.804423
  0
SEQEND
  8
1
  6
CONTINUOUS
  0
LINE
  8
1
  6
CONTINUOUS
 10
14.592023
 20
19.688443
 11
14.592023
 21
19.688443
  0
POLYLINE
  8
1
  6
CONTINUOUS
 66
     1
  0
VERTEX
  8
1
  6
CONTINUOUS
 10
14.791935
 20
19.086103
  0
VERTEX
  8
1
  6
CONTINUOUS
 10
14.890330
 20
20.248613
  0
VERTEX
  8
1
  6
CONTINUOUS
 10
14.392112
 20
20.290782
  0
VERTEX
  8
1
  6
CONTINUOUS
 10
14.293717
 20
19.128272
  0
VERTEX
  8
1
  6
CONTINUOUS
 10
14.791935
 20
19.086103
  0
SEQEND
  8
1
  6
CONTINUOUS
  0
LINE
  8
1
  6
CONTINUOUS
 10
15.592337
 20
31.505839
 11
15.592337
 21
31.505839
  0
POLYLINE
  8
1
  6
CONTINUOUS
 66
     1
  0
VERTEX
  8
1
  6
CONTINUOUS
 10
15.792249
 20
30.903500
  0
VERTEX
  8
1
  6
CONTINUOUS
 10
15.890644
 20
32.066010
  0
VERTEX
  8
1
  6
CONTINUOUS
 10
15.392426
 20
32.108179
  0
VERTEX
  8
1
  6
CONTINUOUS
 10
15.294031
 20
30.945669
  0
VERTEX
  8
1
  6
CONTINUOUS
 10
15.792249
 20
30.903500
  0
SEQEND
  8
1
  6
CONTINUOUS
  0
LINE
  8
1
  6
CONTINUOUS
 10
93.623819
 20
13.793867
 11
93.623819
 21
13.793867
  0
POLYLINE
  8
1
  6
CONTINUOUS
 66
     1
  0
VERTEX
  8
1
  6
CONTINUOUS
 10
93.927852
 20
13.433608
  0
VERTEX
  8
1
  6
CONTINUOUS
 10
93.984078
 20
14.097900
  0
VERTEX
  8
1
  6
CONTINUOUS
 10
93.319787
 20
14.154125
  0
VERTEX
  8
1
  6
CONTINUOUS
 10
93.263561
 20
13.489834
  0
VERTEX
  8
1
  6
CONTINUOUS
 10
93.927852
 20
13.433608
  0
SEQEND
  8
1
  6
CONTINUOUS
  0
LINE
  8
1
  6
CONTINUOUS
 10
94.495255
 20
24.089653
 11
94.495255
 21
24.089653
  0
POLYLINE
  8
1
  6
CONTINUOUS
 66
     1
  0
VERTEX
  8
1
  6
CONTINUOUS
 10
94.799288
 20
23.729395
  0
VERTEX
  8
1
  6
CONTINUOUS
 10
94.855514
 20
24.393686
  0
VERTEX
  8
1
  6
CONTINUOUS
 10
94.191222
 20
24.449912
  0
VERTEX
  8
1
  6
CONTINUOUS
 10
94.134997
 20
23.785621
  0
VERTEX
  8
1
  6
CONTINUOUS
 10
94.799288
 20
23.729395
  0
SEQEND
  8
1
  6
CONTINUOUS
  0
LINE
  8
1
  6
CONTINUOUS
 10
95.366753
 20
34.386169
 11
95.366753
 21
34.386169
  0
POLYLINE
  8
1
  6
CONTINUOUS
 66
     1
  0
VERTEX
  8
1
  6
CONTINUOUS
 10
95.670786
 20
34.025910
  0
VERTEX
  8
1
  6
CONTINUOUS
 10
95.727011
 20
34.690202
  0
VERTEX
  8
1
  6
CONTINUOUS
 10
95.062720
 20
34.746427
  0
VERTEX
  8
1
  6
CONTINUOUS
 10
95.006494
 20
34.082136
  0
VERTEX
  8
1
  6
CONTINUOUS
 10
95.670786
 20
34.025910
  0
SEQEND
  8
1
  6
CONTINUOUS
  0
LINE
  8
1
  6
CONTINUOUS
 10
12.659354
 20
10.167335
 11
12.659354
 21
10.167335
  0
POLYLINE
  8
1
  6
CONTINUOUS
 66
     1
  0
VERTEX
  8
1
  6
CONTINUOUS
 10
12.928143
 20
10.378752
  0
VERTEX
  8
1
  6
CONTINUOUS
 10
12.429924
 20
10.420922
  0
VERTEX
  8
1
  6
CONTINUOUS
 10
12.390566
 20
9.955918
  0
VERTEX
  8
1
  6
CONTINUOUS
 10
12.888785
 20
9.913748
  0
VERTEX
  8
1
  6
CONTINUOUS
 10
12.928143
 20
10.378752
  0
SEQEND
  8
1
  6
CONTINUOUS
  0
LINE
  8
1
  6
CONTINUOUS
 10
96.042169
 20
45.326819
 11
96.042169
 21
45.326819
  0
POLYLINE
  8
1
  6
CONTINUOUS
 66
     1
  0
VERTEX
  8
1
  6
CONTINUOUS
 10
96.602391
 20
45.028610
  0
VERTEX
  8
1
  6
CONTINUOUS
 10
96.644473
 20
45.526836
  0
VERTEX
  8
1
  6
CONTINUOUS
 10
95.481946
 20
45.625028
  0
VERTEX
  8
1
  6
CONTINUOUS
 10
95.439864
 20
45.126802
  0
VERTEX
  8
1
  6
CONTINUOUS
 10
96.602391
 20
45.028610
  0
SEQEND
  8
1
  6
CONTINUOUS
  0
LINE
  8
1
  6
CONTINUOUS
 10
86.542957
 20
46.130879
 11
86.542957
 21
46.130879
  0
POLYLINE
  8
1
  6
CONTINUOUS
 66
     1
  0
VERTEX
  8
1
  6
CONTINUOUS
 10
86.771028
 20
45.860725
  0
VERTEX
  8
1
  6
CONTINUOUS
 10
86.813111
 20
46.358951
  0
VERTEX
  8
1
  6
CONTINUOUS
 10
86.314885
 20
46.401034
  0
VERTEX
  8
1
  6
CONTINUOUS
 10
86.272802
 20
45.902808
  0
VERTEX
  8
1
  6
CONTINUOUS
 10
86.771028
 20
45.860725
  0
SEQEND
  8
1
  6
CONTINUOUS
  0
LINE
  8
1
  6
CONTINUOUS
 10
75.748216
 20
47.044494
 11
75.748216
 21
47.044494
  0
POLYLINE
  8
1
  6
CONTINUOUS
 66
     1
  0
VERTEX
  8
1
  6
CONTINUOUS
 10
75.976288
 20
46.774340
  0
VERTEX
  8
1
  6
CONTINUOUS
 10
76.018371
 20
47.272566
  0
VERTEX
  8
1
  6
CONTINUOUS
 10
75.520145
 20
47.314649
  0
VERTEX
  8
1
  6
CONTINUOUS
 10
75.478062
 20
46.816423
  0
VERTEX
  8
1
  6
CONTINUOUS
 10
75.976288
 20
46.774340
  0
SEQEND
  8
1
  6
CONTINUOUS
  0
LINE
  8
1
  6
CONTINUOUS
 10
66.614205
 20
47.817553
 11
66.614205
 21
47.817553
  0
POLYLINE
  8
1
  6
CONTINUOUS
 66
     1
  0
VERTEX
  8
1
  6
CONTINUOUS
 10
66.842277
 20
47.547399
  0
VERTEX
  8
1
  6
CONTINUOUS
 10
66.884360
 20
48.045625
  0
VERTEX
  8
1
  6
CONTINUOUS
 10
66.386134
 20
48.087708
  0
VERTEX
  8
1
  6
CONTINUOUS
 10
66.344051
 20
47.589482
  0
VERTEX
  8
1
  6
CONTINUOUS
 10
66.842277
 20
47.547399
  0
SEQEND
  8
1
  6
CONTINUOUS
  0
LINE
  8
1
  6
CONTINUOUS
 10
25.696745
 20
51.280625
 11
25.696745
 21
51.280625
  0
POLYLINE
  8
1
  6
CONTINUOUS
 66
     1
  0
VERTEX
  8
1
  6
CONTINUOUS
 10
25.924816
 20
51.010471
  0
VERTEX
  8
1
  6
CONTINUOUS
 10
25.966899
 20
51.508696
  0
VERTEX
  8
1
  6
CONTINUOUS
 10
25.468673
 20
51.550779
  0
VERTEX
  8
1
  6
CONTINUOUS
 10
25.426590
 20
51.052553
  0
VERTEX
  8
1
  6
CONTINUOUS
 10
25.924816
 20
51.010471
  0
SEQEND
  8
1
  6
CONTINUOUS
  0
LINE
  8
1
  6
CONTINUOUS
 10
16.112050
 20
52.091824
 11
16.112050
 21
52.091824
  0
POLYLINE
  8
1
  6
CONTINUOUS
 66
     1
  0
VERTEX
  8
1
  6
CONTINUOUS
 10
16.340122
 20
51.821670
  0
VERTEX
  8
1
  6
CONTINUOUS
 10
16.382204
 20
52.319896
  0
VERTEX
  8
1
  6
CONTINUOUS
 10
15.883978
 20
52.361979
  0
VERTEX
  8
1
  6
CONTINUOUS
 10
15.841896
 20
51.863753
  0
VERTEX
  8
1
  6
CONTINUOUS
 10
16.340122
 20
51.821670
  0
SEQEND
  8
1
  6
CONTINUOUS
  0
LINE
  8
1
  6
CONTINUOUS
 10
6.978042
 20
52.864926
 11
6.978042
 21
52.864926
  0
POLYLINE
  8
1
  6
CONTINUOUS
 66
     1
  0
VERTEX
  8
1
  6
CONTINUOUS
 10
7.538265
 20
52.566717
  0
VERTEX
  8
1
  6
CONTINUOUS
 10
7.580347
 20
53.064943
  0
VERTEX
  8
1
  6
CONTINUOUS
 10
6.417820
 20
53.163135
  0
VERTEX
  8
1
  6
CONTINUOUS
 10
6.375738
 20
52.664910
  0
VERTEX
  8
1
  6
CONTINUOUS
 10
7.538265
 20
52.566717
  0
SEQEND
  8
1
  6
CONTINUOUS
  0
LINE
  8
1
  6
CONTINUOUS
 10
5.499663
 20
20.752585
 11
5.499663
 21
20.752585
  0
POLYLINE
  8
1
  6
CONTINUOUS
 66
     1
  0
VERTEX
  8
1
  6
CONTINUOUS
 10
5.732508
 20
20.502129
  0
VERTEX
  8
1
  6
CONTINUOUS
 10
5.733485
 20
21.002128
  0
VERTEX
  8
1
  6
CONTINUOUS
 10
5.266819
 20
21.003041
  0
VERTEX
  8
1
  6
CONTINUOUS
 10
5.265842
 20
20.503042
  0
VERTEX
  8
1
  6
CONTINUOUS
 10
5.732508
 20
20.502129
  0
SEQEND
  8
1
  6
CONTINUOUS
  0
LINE
  8
1
  6
CONTINUOUS
 10
5.018599
 20
38.953560
 11
5.018599
 21
38.953560
  0
POLYLINE
  8
1
  6
CONTINUOUS
 66
     1
  0
VERTEX
  8
1
  6
CONTINUOUS
 10
5.268110
 20
38.703072
  0
VERTEX
  8
1
  6
CONTINUOUS
 10
5.269087
 20
39.203071
  0
VERTEX
  8
1
  6
CONTINUOUS
 10
4.769088
 20
39.204048
  0
VERTEX
  8
1
  6
CONTINUOUS
 10
4.768111
 20
38.704049
  0
VERTEX
  8
1
  6
CONTINUOUS
 10
5.268110
 20
38.703072
  0
SEQEND
  8
1
  6
CONTINUOUS
  0
LINE
  8
1
  6
CONTINUOUS
 10
5.042887
 20
51.370203
 11
5.042887
 21
51.370203
  0
POLYLINE
  8
1
  6
CONTINUOUS
 66
     1
  0
VERTEX
  8
1
  6
CONTINUOUS
 10
5.292398
 20
51.119715
  0
VERTEX
  8
1
  6
CONTINUOUS
 10
5.293375
 20
51.619714
  0
VERTEX
  8
1
  6
CONTINUOUS
 10
4.793376
 20
51.620691
  0
VERTEX
  8
1
  6
CONTINUOUS
 10
4.792399
 20
51.120692
  0
VERTEX
  8
1
  6
CONTINUOUS
 10
5.292398
 20
51.119715
  0
SEQEND
  8
1
  6
CONTINUOUS
  0
LINE
  8
1
  6
CONTINUOUS
 10
58.353311
 20
48.516780
 11
58.353311
 21
48.516780
  0
POLYLINE
  8
1
  6
CONTINUOUS
 66
     1
  0
VERTEX
  8
1
  6
CONTINUOUS
 10
58.913533
 20
48.218571
  0
VERTEX
  8
1
  6
CONTINUOUS
 10
58.955616
 20
48.716797
  0
VERTEX
  8
1
  6
CONTINUOUS
 10
57.793089
 20
48.814989
  0
VERTEX
  8
1
  6
CONTINUOUS
 10
57.751006
 20
48.316763
  0
VERTEX
  8
1
  6
CONTINUOUS
 10
58.913533
 20
48.218571
  0
SEQEND
  8
1
  6
CONTINUOUS
  0
LINE
  8
1
  6
CONTINUOUS
 10
20.174153
 20
9.531302
 11
20.174153
 21
9.531302
  0
POLYLINE
  8
1
  6
CONTINUOUS
 66
     1
  0
VERTEX
  8
1
  6
CONTINUOUS
 10
20.442942
 20
9.742719
  0
VERTEX
  8
1
  6
CONTINUOUS
 10
19.944723
 20
9.784888
  0
VERTEX
  8
1
  6
CONTINUOUS
 10
19.905365
 20
9.319884
  0
VERTEX
  8
1
  6
CONTINUOUS
 10
20.403584
 20
9.277715
  0
VERTEX
  8
1
  6
CONTINUOUS
 10
20.442942
 20
9.742719
  0
SEQEND
  8
1
  6
CONTINUOUS
  0
LINE
  8
1
  6
CONTINUOUS
 10
69.921947
 20
4.801870
 11
69.921947
 21
4.801870
  0
POLYLINE
  8
1
  6
CONTINUOUS
 66
     1
  0
VERTEX
  8
1
  6
CONTINUOUS
 10
70.192145
 20
5.029890
  0
VERTEX
  8
1
  6
CONTINUOUS
 10
69.693927
 20
5.072068
  0
VERTEX
  8
1
  6
CONTINUOUS
 10
69.651749
 20
4.573850
  0
VERTEX
  8
1
  6
CONTINUOUS
 10
70.149967
 20
4.531672
  0
VERTEX
  8
1
  6
CONTINUOUS
 10
70.192145
 20
5.029890
  0
SEQEND
  8
1
  6
CONTINUOUS
  0
LINE
  8
1
  6
CONTINUOUS
 10
79.886323
 20
3.958537
 11
79.886323
 21
3.958537
  0
POLYLINE
  8
1
  6
CONTINUOUS
 66
     1
  0
VERTEX
  8
1
  6
CONTINUOUS
 10
80.156521
 20
4.186557
  0
VERTEX
  8
1
  6
CONTINUOUS
 10
79.658303
 20
4.228735
  0
VERTEX
  8
1
  6
CONTINUOUS
 10
79.616125
 20
3.730517
  0
VERTEX
  8
1
  6
CONTINUOUS
 10
80.114343
 20
3.688339
  0
VERTEX
  8
1
  6
CONTINUOUS
 10
80.156521
 20
4.186557
  0
SEQEND
  8
1
  6
CONTINUOUS
  0
LINE
  8
1
  6
CONTINUOUS
 10
92.782491
 20
2.866775
 11
92.782491
 21
2.866775
  0
POLYLINE
  8
1
  6
CONTINUOUS
 66
     1
  0
VERTEX
  8
1
  6
CONTINUOUS
 10
93.052689
 20
3.094795
  0
VERTEX
  8
1
  6
CONTINUOUS
 10
92.554471
 20
3.136973
  0
VERTEX
  8
1
  6
CONTINUOUS
 10
92.512293
 20
2.638755
  0
VERTEX
  8
1
  6
CONTINUOUS
 10
93.010511
 20
2.596577
  0
VERTEX
  8
1
  6
CONTINUOUS
 10
93.052689
 20
3.094795
  0
SEQEND
  8
1
  6
CONTINUOUS
  0
LINE
  8
1
  6
CONTINUOUS
 10
34.830748
 20
50.507479
 11
34.830748
 21
50.507479
  0
POLYLINE
  8
1
  6
CONTINUOUS
 66
     1
  0
VERTEX
  8
1
  6
CONTINUOUS
 10
35.390971
 20
50.209270
  0
VERTEX
  8
1
  6
CONTINUOUS
 10
35.433053
 20
50.707496
  0
VERTEX
  8
1
  6
CONTINUOUS
 10
34.270526
 20
50.805688
  0
VERTEX
  8
1
  6
CONTINUOUS
 10
34.228444
 20
50.307462
  0
VERTEX
  8
1
  6
CONTINUOUS
 10
35.390971
 20
50.209270
  0
SEQEND
  8
1
  6
CONTINUOUS
  0
LINE
  8
1
  6
CONTINUOUS
 10
49.344655
 20
7.062387
 11
49.344655
 21
7.062387
  0
POLYLINE
  8
1
  6
CONTINUOUS
 66
     1
  0
VERTEX
  8
1
  6
CONTINUOUS
 10
49.779516
 20
7.259748
  0
VERTEX
  8
1
  6
CONTINUOUS
 10
48.949152
 20
7.330031
  0
VERTEX
  8
1
  6
CONTINUOUS
 10
48.909794
 20
6.865027
  0
VERTEX
  8
1
  6
CONTINUOUS
 10
49.740158
 20
6.794744
  0
VERTEX
  8
1
  6
CONTINUOUS
 10
49.779516
 20
7.259748
  0
SEQEND
  8
1
  6
CONTINUOUS
  0
LINE
  8
1
  6
CONTINUOUS
 10
30.186133
 20
18.257815
 11
30.186133
 21
18.257815
  0
POLYLINE
  8
1
  6
CONTINUOUS
 66
     1
  0
VERTEX
  8
1
  6
CONTINUOUS
 10
30.386045
 20
17.655475
  0
VERTEX
  8
1
  6
CONTINUOUS
 10
30.484440
 20
18.817985
  0
VERTEX
  8
1
  6
CONTINUOUS
 10
29.986221
 20
18.860155
  0
VERTEX
  8
1
  6
CONTINUOUS
 10
29.887826
 20
17.697645
  0
VERTEX
  8
1
  6
CONTINUOUS
 10
30.386045
 20
17.655475
  0
SEQEND
  8
1
  6
CONTINUOUS
  0
LINE
  8
1
  6
CONTINUOUS
 10
31.186296
 20
30.075224
 11
31.186296
 21
30.075224
  0
POLYLINE
  8
1
  6
CONTINUOUS
 66
     1
  0
VERTEX
  8
1
  6
CONTINUOUS
 10
31.386208
 20
29.472885
  0
VERTEX
  8
1
  6
CONTINUOUS
 10
31.484603
 20
30.635395
  0
VERTEX
  8
1
  6
CONTINUOUS
 10
30.986384
 20
30.677564
  0
VERTEX
  8
1
  6
CONTINUOUS
 10
30.887989
 20
29.515054
  0
VERTEX
  8
1
  6
CONTINUOUS
 10
31.386208
 20
29.472885
  0
SEQEND
  8
1
  6
CONTINUOUS
  0
LINE
  8
1
  6
CONTINUOUS
 10
31.818911
 20
37.549961
 11
31.818911
 21
37.549961
  0
POLYLINE
  8
1
  6
CONTINUOUS
 66
     1
  0
VERTEX
  8
1
  6
CONTINUOUS
 10
32.018823
 20
36.947621
  0
VERTEX
  8
1
  6
CONTINUOUS
 10
32.117218
 20
38.110131
  0
VERTEX
  8
1
  6
CONTINUOUS
 10
31.618999
 20
38.152300
  0
VERTEX
  8
1
  6
CONTINUOUS
 10
31.520604
 20
36.989790
  0
VERTEX
  8
1
  6
CONTINUOUS
 10
32.018823
 20
36.947621
  0
SEQEND
  8
1
  6
CONTINUOUS
  0
LINE
  8
1
  6
CONTINUOUS
 10
16.426599
 20
41.361394
 11
16.426599
 21
41.361394
  0
POLYLINE
  8
1
  6
CONTINUOUS
 66
     1
  0
VERTEX
  8
1
  6
CONTINUOUS
 10
16.626510
 20
40.759054
  0
VERTEX
  8
1
  6
CONTINUOUS
 10
16.724906
 20
41.921564
  0
VERTEX
  8
1
  6
CONTINUOUS
 10
16.226687
 20
41.963733
  0
VERTEX
  8
1
  6
CONTINUOUS
 10
16.128292
 20
40.801223
  0
VERTEX
  8
1
  6
CONTINUOUS
 10
16.626510
 20
40.759054
  0
SEQEND
  8
1
  6
CONTINUOUS
  0
LINE
  8
1
  6
CONTINUOUS
 10
59.863407
 20
5.653647
 11
59.863407
 21
5.653647
  0
POLYLINE
  8
1
  6
CONTINUOUS
 66
     1
  0
VERTEX
  8
1
  6
CONTINUOUS
 10
60.133601
 20
5.881672
  0
VERTEX
  8
1
  6
CONTINUOUS
 10
59.635383
 20
5.923841
  0
VERTEX
  8
1
  6
CONTINUOUS
 10
59.593214
 20
5.425623
  0
VERTEX
  8
1
  6
CONTINUOUS
 10
60.091432
 20
5.383453
  0
VERTEX
  8
1
  6
CONTINUOUS
 10
60.133601
 20
5.881672
  0
SEQEND
  8
1
  6
CONTINUOUS
  0
LINE
  8
1
  6
CONTINUOUS
 10
5.003340
 20
31.153575
 11
5.003340
 21
31.153575
  0
POLYLINE
  8
1
  6
CONTINUOUS
 66
     1
  0
VERTEX
  8
1
  6
CONTINUOUS
 10
5.252851
 20
30.903087
  0
VERTEX
  8
1
  6
CONTINUOUS
 10
5.253829
 20
31.403086
  0
VERTEX
  8
1
  6
CONTINUOUS
 10
4.753830
 20
31.404063
  0
VERTEX
  8
1
  6
CONTINUOUS
 10
4.752852
 20
30.904064
  0
VERTEX
  8
1
  6
CONTINUOUS
 10
5.252851
 20
30.903087
  0
SEQEND
  8
1
  6
CONTINUOUS
  0
LINE
  8
1
  6
CONTINUOUS
 10
59.375549
 20
6.213455
 11
59.375549
 21
6.213455
  0
POLYLINE
  8
1
  6
CONTINUOUS
 66
     1
  0
VERTEX
  8
1
  6
CONTINUOUS
 10
59.644338
 20
6.424872
  0
VERTEX
  8
1
  6
CONTINUOUS
 10
59.146119
 20
6.467041
  0
VERTEX
  8
1
  6
CONTINUOUS
 10
59.106761
 20
6.002037
  0
VERTEX
  8
1
  6
CONTINUOUS
 10
59.604980
 20
5.959868
  0
VERTEX
  8
1
  6
CONTINUOUS
 10
59.644338
 20
6.424872
  0
SEQEND
  8
1
  6
CONTINUOUS
  0
LINE
  8
1
  6
CONTINUOUS
 10
29.505542
 20
8.741880
 11
29.505542
 21
8.741880
  0
POLYLINE
  8
1
  6
CONTINUOUS
 66
     1
  0
VERTEX
  8
1
  6
CONTINUOUS
 10
29.774330
 20
8.953297
  0
VERTEX
  8
1
  6
CONTINUOUS
 10
29.276111
 20
8.995466
  0
VERTEX
  8
1
  6
CONTINUOUS
 10
29.236753
 20
8.530462
  0
VERTEX
  8
1
  6
CONTINUOUS
 10
29.734972
 20
8.488293
  0
VERTEX
  8
1
  6
CONTINUOUS
 10
29.774330
 20
8.953297
  0
SEQEND
  8
1
  6
CONTINUOUS
  0
LINE
  8
1
  6
CONTINUOUS
 10
4.983975
 20
21.286927
 11
4.983975
 21
21.286927
  0
POLYLINE
  8
1
  6
CONTINUOUS
 66
     1
  0
VERTEX
  8
1
  6
CONTINUOUS
 10
5.233486
 20
21.036439
  0
VERTEX
  8
1
  6
CONTINUOUS
 10
5.234463
 20
21.536438
  0
VERTEX
  8
1
  6
CONTINUOUS
 10
4.734464
 20
21.537415
  0
VERTEX
  8
1
  6
CONTINUOUS
 10
4.733487
 20
21.037416
  0
VERTEX
  8
1
  6
CONTINUOUS
 10
5.233486
 20
21.036439
  0
SEQEND
  8
1
  6
CONTINUOUS
  0
LINE
  8
1
  6
CONTINUOUS
 10
5.481705
 20
11.572131
 11
5.481705
 21
11.572131
  0
POLYLINE
  8
1
  6
CONTINUOUS
 66
     1
  0
VERTEX
  8
1
  6
CONTINUOUS
 10
5.714549
 20
11.321676
  0
VERTEX
  8
1
  6
CONTINUOUS
 10
5.715527
 20
11.821675
  0
VERTEX
  8
1
  6
CONTINUOUS
 10
5.248861
 20
11.822587
  0
VERTEX
  8
1
  6
CONTINUOUS
 10
5.247884
 20
11.322588
  0
VERTEX
  8
1
  6
CONTINUOUS
 10
5.714549
 20
11.321676
  0
SEQEND
  8
1
  6
CONTINUOUS
  0
LINE
  8
1
  6
CONTINUOUS
 10
39.106483
 20
7.929141
 11
39.106483
 21
7.929141
  0
POLYLINE
  8
1
  6
CONTINUOUS
 66
     1
  0
VERTEX
  8
1
  6
CONTINUOUS
 10
39.541344
 20
8.126502
  0
VERTEX
  8
1
  6
CONTINUOUS
 10
38.710980
 20
8.196784
  0
VERTEX
  8
1
  6
CONTINUOUS
 10
38.671622
 20
7.731780
  0
VERTEX
  8
1
  6
CONTINUOUS
 10
39.501986
 20
7.661498
  0
VERTEX
  8
1
  6
CONTINUOUS
 10
39.541344
 20
8.126502
  0
SEQEND
  8
1
  6
CONTINUOUS
  0
LINE
  8
4
  6
CONTINUOUS
 10
13.122178
 20
11.215368
 11
13.037840
 21
10.218931
  0
LINE
  8
4
  6
CONTINUOUS
 10
12.938196
 20
10.227365
 11
13.137483
 21
10.210497
  0
LINE
  8
4
  6
CONTINUOUS
 10
12.939883
 20
10.247294
 11
13.139170
 21
10.230426
  0
LINE
  8
4
  6
CONTINUOUS
 10
12.941569
 20
10.267223
 11
13.140857
 21
10.250355
  0
LINE
  8
4
  6
CONTINUOUS
 10
16.578632
 20
52.052348
 11
16.641886
 21
52.799676
  0
LINE
  8
4
  6
CONTINUOUS
 10
16.722358
 20
52.416524
 11
16.498160
 21
52.435500
  0
LINE
  8
4
  6
CONTINUOUS
 10
16.728684
 20
52.491257
 11
16.504485
 21
52.510233
  0
LINE
  8
4
  6
CONTINUOUS
 10
16.735009
 20
52.565990
 11
16.510811
 21
52.584966
  0
LINE
  8
4
  6
CONTINUOUS
 10
16.741334
 20
52.640722
 11
16.517136
 21
52.659699
  0
LINE
  8
4
  6
CONTINUOUS
 10
16.697936
 20
52.794932
 11
16.585836
 21
52.804420
  0
LINE
  8
4
  6
CONTINUOUS
 10
16.697936
 20
52.794932
 11
16.705140
 21
53.547004
  0
LINE
  8
4
  6
CONTINUOUS
 10
16.585836
 20
52.804420
 11
16.705140
 21
53.547004
  0
POLYLINE
  8
4
  6
CONTINUOUS
 66
     1
  0
VERTEX
  8
4
  6
CONTINUOUS
 10
13.122178
 20
11.215368
  0
VERTEX
  8
4
  6
CONTINUOUS
 10
16.578632
 20
52.052348
  0
SEQEND
  8
4
  6
CONTINUOUS
  0
LINE
  8
4
  6
CONTINUOUS
 10
13.620397
 20
11.173199
 11
13.536058
 21
10.176762
  0
LINE
  8
4
  6
CONTINUOUS
 10
13.436414
 20
10.185196
 11
13.635702
 21
10.168328
  0
LINE
  8
4
  6
CONTINUOUS
 10
13.438101
 20
10.205125
 11
13.637389
 21
10.188257
  0
LINE
  8
4
  6
CONTINUOUS
 10
13.439788
 20
10.225053
 11
13.639075
 21
10.208186
  0
LINE
  8
4
  6
CONTINUOUS
 10
17.076851
 20
52.010179
 11
17.140105
 21
52.757507
  0
LINE
  8
4
  6
CONTINUOUS
 10
17.220577
 20
52.374355
 11
16.996378
 21
52.393331
  0
LINE
  8
4
  6
CONTINUOUS
 10
17.226902
 20
52.449088
 11
17.002704
 21
52.468064
  0
LINE
  8
4
  6
CONTINUOUS
 10
17.233228
 20
52.523820
 11
17.009029
 21
52.542797
  0
LINE
  8
4
  6
CONTINUOUS
 10
17.239553
 20
52.598553
 11
17.015355
 21
52.617529
  0
LINE
  8
4
  6
CONTINUOUS
 10
17.196154
 20
52.752763
 11
17.084055
 21
52.762251
  0
LINE
  8
4
  6
CONTINUOUS
 10
17.196154
 20
52.752763
 11
17.203359
 21
53.504835
  0
LINE
  8
4
  6
CONTINUOUS
 10
17.084055
 20
52.762251
 11
17.203359
 21
53.504835
  0
POLYLINE
  8
4
  6
CONTINUOUS
 66
     1
  0
VERTEX
  8
4
  6
CONTINUOUS
 10
13.620397
 20
11.173199
  0
VERTEX
  8
4
  6
CONTINUOUS
 10
17.076851
 20
52.010179
  0
SEQEND
  8
4
  6
CONTINUOUS
  0
LINE
  8
4
  6
CONTINUOUS
 10
14.118616
 20
11.131030
 11
14.034277
 21
10.134593
  0
LINE
  8
4
  6
CONTINUOUS
 10
13.934633
 20
10.143026
 11
14.133920
 21
10.126159
  0
LINE
  8
4
  6
CONTINUOUS
 10
13.936320
 20
10.162955
 11
14.135607
 21
10.146087
  0
LINE
  8
4
  6
CONTINUOUS
 10
13.938007
 20
10.182884
 11
14.137294
 21
10.166016
  0
LINE
  8
4
  6
CONTINUOUS
 10
17.575069
 20
51.968010
 11
17.638323
 21
52.715337
  0
LINE
  8
4
  6
CONTINUOUS
 10
17.718795
 20
52.332185
 11
17.494597
 21
52.351162
  0
LINE
  8
4
  6
CONTINUOUS
 10
17.725121
 20
52.406918
 11
17.500922
 21
52.425894
  0
LINE
  8
4
  6
CONTINUOUS
 10
17.731446
 20
52.481651
 11
17.507248
 21
52.500627
  0
LINE
  8
4
  6
CONTINUOUS
 10
17.737772
 20
52.556384
 11
17.513573
 21
52.575360
  0
LINE
  8
4
  6
CONTINUOUS
 10
17.694373
 20
52.710593
 11
17.582274
 21
52.720081
  0
LINE
  8
4
  6
CONTINUOUS
 10
17.694373
 20
52.710593
 11
17.701577
 21
53.462665
  0
LINE
  8
4
  6
CONTINUOUS
 10
17.582274
 20
52.720081
 11
17.701577
 21
53.462665
  0
POLYLINE
  8
4
  6
CONTINUOUS
 66
     1
  0
VERTEX
  8
4
  6
CONTINUOUS
 10
14.118616
 20
11.131030
  0
VERTEX
  8
4
  6
CONTINUOUS
 10
17.575069
 20
51.968010
  0
SEQEND
  8
4
  6
CONTINUOUS
  0
LINE
  8
4
  6
CONTINUOUS
 10
14.616834
 20
11.088860
 11
14.532495
 21
10.092423
  0
LINE
  8
4
  6
CONTINUOUS
 10
14.432852
 20
10.100857
 11
14.632139
 21
10.083989
  0
LINE
  8
4
  6
CONTINUOUS
 10
14.434538
 20
10.120786
 11
14.633826
 21
10.103918
  0
LINE
  8
4
  6
CONTINUOUS
 10
14.436225
 20
10.140715
 11
14.635513
 21
10.123847
  0
LINE
  8
4
  6
CONTINUOUS
 10
18.073288
 20
51.925840
 11
18.136542
 21
52.673168
  0
LINE
  8
4
  6
CONTINUOUS
 10
18.217014
 20
52.290016
 11
17.992816
 21
52.308992
  0
LINE
  8
4
  6
CONTINUOUS
 10
18.223339
 20
52.364749
 11
17.999141
 21
52.383725
  0
LINE
  8
4
  6
CONTINUOUS
 10
18.229665
 20
52.439482
 11
18.005466
 21
52.458458
  0
LINE
  8
4
  6
CONTINUOUS
 10
18.235990
 20
52.514214
 11
18.011792
 21
52.533191
  0
LINE
  8
4
  6
CONTINUOUS
 10
18.192591
 20
52.668424
 11
18.080492
 21
52.677912
  0
LINE
  8
4
  6
CONTINUOUS
 10
18.192591
 20
52.668424
 11
18.199796
 21
53.420496
  0
LINE
  8
4
  6
CONTINUOUS
 10
18.080492
 20
52.677912
 11
18.199796
 21
53.420496
  0
POLYLINE
  8
4
  6
CONTINUOUS
 66
     1
  0
VERTEX
  8
4
  6
CONTINUOUS
 10
14.616834
 20
11.088860
  0
VERTEX
  8
4
  6
CONTINUOUS
 10
18.073288
 20
51.925840
  0
SEQEND
  8
4
  6
CONTINUOUS
  0
LINE
  8
4
  6
CONTINUOUS
 10
28.675723
 20
9.898912
 11
28.591385
 21
8.902475
  0
LINE
  8
4
  6
CONTINUOUS
 10
28.491741
 20
8.910909
 11
28.691028
 21
8.894041
  0
LINE
  8
4
  6
CONTINUOUS
 10
28.493428
 20
8.930837
 11
28.692715
 21
8.913970
  0
LINE
  8
4
  6
CONTINUOUS
 10
28.495115
 20
8.950766
 11
28.694402
 21
8.933898
  0
LINE
  8
4
  6
CONTINUOUS
 10
32.132177
 20
50.735892
 11
32.195431
 21
51.483220
  0
LINE
  8
4
  6
CONTINUOUS
 10
32.275903
 20
51.100068
 11
32.051705
 21
51.119044
  0
LINE
  8
4
  6
CONTINUOUS
 10
32.282229
 20
51.174800
 11
32.058030
 21
51.193777
  0
LINE
  8
4
  6
CONTINUOUS
 10
32.288554
 20
51.249533
 11
32.064356
 21
51.268509
  0
LINE
  8
4
  6
CONTINUOUS
 10
32.294880
 20
51.324266
 11
32.070681
 21
51.343242
  0
LINE
  8
4
  6
CONTINUOUS
 10
32.251481
 20
51.478476
 11
32.139382
 21
51.487964
  0
LINE
  8
4
  6
CONTINUOUS
 10
32.251481
 20
51.478476
 11
32.258685
 21
52.230548
  0
LINE
  8
4
  6
CONTINUOUS
 10
32.139382
 20
51.487964
 11
32.258685
 21
52.230548
  0
POLYLINE
  8
4
  6
CONTINUOUS
 66
     1
  0
VERTEX
  8
4
  6
CONTINUOUS
 10
28.675723
 20
9.898912
  0
VERTEX
  8
4
  6
CONTINUOUS
 10
32.132177
 20
50.735892
  0
SEQEND
  8
4
  6
CONTINUOUS
  0
LINE
  8
4
  6
CONTINUOUS
 10
29.074298
 20
9.865176
 11
28.989960
 21
8.868739
  0
LINE
  8
4
  6
CONTINUOUS
 10
28.890316
 20
8.877173
 11
29.089603
 21
8.860305
  0
LINE
  8
4
  6
CONTINUOUS
 10
28.892003
 20
8.897102
 11
29.091290
 21
8.880234
  0
LINE
  8
4
  6
CONTINUOUS
 10
28.893689
 20
8.917031
 11
29.092977
 21
8.900163
  0
LINE
  8
4
  6
CONTINUOUS
 10
32.530752
 20
50.702156
 11
32.594006
 21
51.449484
  0
LINE
  8
4
  6
CONTINUOUS
 10
32.674478
 20
51.066332
 11
32.450280
 21
51.085308
  0
LINE
  8
4
  6
CONTINUOUS
 10
32.680804
 20
51.141065
 11
32.456605
 21
51.160041
  0
LINE
  8
4
  6
CONTINUOUS
 10
32.687129
 20
51.215798
 11
32.462931
 21
51.234774
  0
LINE
  8
4
  6
CONTINUOUS
 10
32.693454
 20
51.290530
 11
32.469256
 21
51.309507
  0
LINE
  8
4
  6
CONTINUOUS
 10
32.650056
 20
51.444740
 11
32.537956
 21
51.454228
  0
LINE
  8
4
  6
CONTINUOUS
 10
32.650056
 20
51.444740
 11
32.657260
 21
52.196812
  0
LINE
  8
4
  6
CONTINUOUS
 10
32.537956
 20
51.454228
 11
32.657260
 21
52.196812
  0
POLYLINE
  8
4
  6
CONTINUOUS
 66
     1
  0
VERTEX
  8
4
  6
CONTINUOUS
 10
29.074298
 20
9.865176
  0
VERTEX
  8
4
  6
CONTINUOUS
 10
32.530752
 20
50.702156
  0
SEQEND
  8
4
  6
CONTINUOUS
  0
LINE
  8
4
  6
CONTINUOUS
 10
29.472873
 20
9.831441
 11
29.388534
 21
8.835004
  0
LINE
  8
4
  6
CONTINUOUS
 10
29.288891
 20
8.843438
 11
29.488178
 21
8.826570
  0
LINE
  8
4
  6
CONTINUOUS
 10
29.290578
 20
8.863366
 11
29.489865
 21
8.846499
  0
LINE
  8
4
  6
CONTINUOUS
 10
29.292264
 20
8.883295
 11
29.491552
 21
8.866427
  0
LINE
  8
4
  6
CONTINUOUS
 10
32.929327
 20
50.668421
 11
32.992581
 21
51.415749
  0
LINE
  8
4
  6
CONTINUOUS
 10
33.073053
 20
51.032597
 11
32.848855
 21
51.051573
  0
LINE
  8
4
  6
CONTINUOUS
 10
33.079378
 20
51.107329
 11
32.855180
 21
51.126306
  0
LINE
  8
4
  6
CONTINUOUS
 10
33.085704
 20
51.182062
 11
32.861505
 21
51.201038
  0
LINE
  8
4
  6
CONTINUOUS
 10
33.092029
 20
51.256795
 11
32.867831
 21
51.275771
  0
LINE
  8
4
  6
CONTINUOUS
 10
33.048630
 20
51.411005
 11
32.936531
 21
51.420493
  0
LINE
  8
4
  6
CONTINUOUS
 10
33.048630
 20
51.411005
 11
33.055835
 21
52.163077
  0
LINE
  8
4
  6
CONTINUOUS
 10
32.936531
 20
51.420493
 11
33.055835
 21
52.163077
  0
POLYLINE
  8
4
  6
CONTINUOUS
 66
     1
  0
VERTEX
  8
4
  6
CONTINUOUS
 10
29.472873
 20
9.831441
  0
VERTEX
  8
4
  6
CONTINUOUS
 10
32.929327
 20
50.668421
  0
SEQEND
  8
4
  6
CONTINUOUS
  0
LINE
  8
4
  6
CONTINUOUS
 10
29.871448
 20
9.797705
 11
29.787109
 21
8.801268
  0
LINE
  8
4
  6
CONTINUOUS
 10
29.687466
 20
8.809702
 11
29.886753
 21
8.792834
  0
LINE
  8
4
  6
CONTINUOUS
 10
29.689152
 20
8.829631
 11
29.888440
 21
8.812763
  0
LINE
  8
4
  6
CONTINUOUS
 10
29.690839
 20
8.849560
 11
29.890127
 21
8.832692
  0
LINE
  8
4
  6
CONTINUOUS
 10
33.327902
 20
50.634685
 11
33.391156
 21
51.382013
  0
LINE
  8
4
  6
CONTINUOUS
 10
33.471628
 20
50.998861
 11
33.247430
 21
51.017837
  0
LINE
  8
4
  6
CONTINUOUS
 10
33.477953
 20
51.073594
 11
33.253755
 21
51.092570
  0
LINE
  8
4
  6
CONTINUOUS
 10
33.484279
 20
51.148327
 11
33.260080
 21
51.167303
  0
LINE
  8
4
  6
CONTINUOUS
 10
33.490604
 20
51.223060
 11
33.266406
 21
51.242036
  0
LINE
  8
4
  6
CONTINUOUS
 10
33.447205
 20
51.377269
 11
33.335106
 21
51.386757
  0
LINE
  8
4
  6
CONTINUOUS
 10
33.447205
 20
51.377269
 11
33.454410
 21
52.129341
  0
LINE
  8
4
  6
CONTINUOUS
 10
33.335106
 20
51.386757
 11
33.454410
 21
52.129341
  0
POLYLINE
  8
4
  6
CONTINUOUS
 66
     1
  0
VERTEX
  8
4
  6
CONTINUOUS
 10
29.871448
 20
9.797705
  0
VERTEX
  8
4
  6
CONTINUOUS
 10
33.327902
 20
50.634685
  0
SEQEND
  8
4
  6
CONTINUOUS
  0
LINE
  8
4
  6
CONTINUOUS
 10
30.270023
 20
9.763970
 11
30.185684
 21
8.767533
  0
LINE
  8
4
  6
CONTINUOUS
 10
30.086040
 20
8.775967
 11
30.285328
 21
8.759099
  0
LINE
  8
4
  6
CONTINUOUS
 10
30.087727
 20
8.795895
 11
30.287015
 21
8.779028
  0
LINE
  8
4
  6
CONTINUOUS
 10
30.089414
 20
8.815824
 11
30.288701
 21
8.798956
  0
LINE
  8
4
  6
CONTINUOUS
 10
33.726477
 20
50.600950
 11
33.789731
 21
51.348278
  0
LINE
  8
4
  6
CONTINUOUS
 10
33.870203
 20
50.965126
 11
33.646004
 21
50.984102
  0
LINE
  8
4
  6
CONTINUOUS
 10
33.876528
 20
51.039858
 11
33.652330
 21
51.058835
  0
LINE
  8
4
  6
CONTINUOUS
 10
33.882854
 20
51.114591
 11
33.658655
 21
51.133567
  0
LINE
  8
4
  6
CONTINUOUS
 10
33.889179
 20
51.189324
 11
33.664981
 21
51.208300
  0
LINE
  8
4
  6
CONTINUOUS
 10
33.845780
 20
51.343534
 11
33.733681
 21
51.353022
  0
LINE
  8
4
  6
CONTINUOUS
 10
33.845780
 20
51.343534
 11
33.852985
 21
52.095606
  0
LINE
  8
4
  6
CONTINUOUS
 10
33.733681
 20
51.353022
 11
33.852985
 21
52.095606
  0
POLYLINE
  8
4
  6
CONTINUOUS
 66
     1
  0
VERTEX
  8
4
  6
CONTINUOUS
 10
30.270023
 20
9.763970
  0
VERTEX
  8
4
  6
CONTINUOUS
 10
33.726477
 20
50.600950
  0
SEQEND
  8
4
  6
CONTINUOUS
  0
LINE
  8
4
  6
CONTINUOUS
 10
41.972849
 20
8.255176
 11
41.888511
 21
7.258739
  0
LINE
  8
4
  6
CONTINUOUS
 10
41.788867
 20
7.267172
 11
41.988154
 21
7.250305
  0
LINE
  8
4
  6
CONTINUOUS
 10
41.790554
 20
7.287101
 11
41.989841
 21
7.270233
  0
LINE
  8
4
  6
CONTINUOUS
 10
41.792240
 20
7.307030
 11
41.991528
 21
7.290162
  0
LINE
  8
4
  6
CONTINUOUS
 10
45.472857
 20
49.606733
 11
45.536111
 21
50.354061
  0
LINE
  8
4
  6
CONTINUOUS
 10
45.592161
 20
50.349317
 11
45.480061
 21
50.358805
  0
LINE
  8
4
  6
CONTINUOUS
 10
45.592161
 20
50.349317
 11
45.599365
 21
51.101389
  0
LINE
  8
4
  6
CONTINUOUS
 10
45.480061
 20
50.358805
 11
45.599365
 21
51.101389
  0
LINE
  8
4
  6
CONTINUOUS
 10
45.635559
 20
50.195107
 11
45.411361
 21
50.214083
  0
LINE
  8
4
  6
CONTINUOUS
 10
45.627653
 20
50.101691
 11
45.403454
 21
50.120667
  0
LINE
  8
4
  6
CONTINUOUS
 10
45.619746
 20
50.008275
 11
45.395547
 21
50.027251
  0
POLYLINE
  8
4
  6
CONTINUOUS
 66
     1
  0
VERTEX
  8
4
  6
CONTINUOUS
 10
41.972849
 20
8.255176
  0
VERTEX
  8
4
  6
CONTINUOUS
 10
45.472857
 20
49.606733
  0
SEQEND
  8
4
  6
CONTINUOUS
  0
LINE
  8
4
  6
CONTINUOUS
 10
42.304995
 20
8.227063
 11
42.220656
 21
7.230626
  0
LINE
  8
4
  6
CONTINUOUS
 10
42.121013
 20
7.239059
 11
42.320300
 21
7.222192
  0
LINE
  8
4
  6
CONTINUOUS
 10
42.122699
 20
7.258988
 11
42.321987
 21
7.242120
  0
LINE
  8
4
  6
CONTINUOUS
 10
42.124386
 20
7.278917
 11
42.323674
 21
7.262049
  0
LINE
  8
4
  6
CONTINUOUS
 10
45.805003
 20
49.578620
 11
45.868257
 21
50.325948
  0
LINE
  8
4
  6
CONTINUOUS
 10
45.924306
 20
50.321204
 11
45.812207
 21
50.330692
  0
LINE
  8
4
  6
CONTINUOUS
 10
45.924306
 20
50.321204
 11
45.931511
 21
51.073276
  0
LINE
  8
4
  6
CONTINUOUS
 10
45.812207
 20
50.330692
 11
45.931511
 21
51.073276
  0
LINE
  8
4
  6
CONTINUOUS
 10
45.967705
 20
50.166994
 11
45.743507
 21
50.185970
  0
LINE
  8
4
  6
CONTINUOUS
 10
45.959798
 20
50.073578
 11
45.735600
 21
50.092554
  0
LINE
  8
4
  6
CONTINUOUS
 10
45.951892
 20
49.980162
 11
45.727693
 21
49.999138
  0
POLYLINE
  8
4
  6
CONTINUOUS
 66
     1
  0
VERTEX
  8
4
  6
CONTINUOUS
 10
42.304995
 20
8.227063
  0
VERTEX
  8
4
  6
CONTINUOUS
 10
45.805003
 20
49.578620
  0
SEQEND
  8
4
  6
CONTINUOUS
  0
LINE
  8
4
  6
CONTINUOUS
 10
42.637141
 20
8.198950
 11
42.552802
 21
7.202513
  0
LINE
  8
4
  6
CONTINUOUS
 10
42.453158
 20
7.210947
 11
42.652446
 21
7.194079
  0
LINE
  8
4
  6
CONTINUOUS
 10
42.454845
 20
7.230875
 11
42.654132
 21
7.214008
  0
LINE
  8
4
  6
CONTINUOUS
 10
42.456532
 20
7.250804
 11
42.655819
 21
7.233936
  0
LINE
  8
4
  6
CONTINUOUS
 10
46.137148
 20
49.550507
 11
46.200402
 21
50.297835
  0
LINE
  8
4
  6
CONTINUOUS
 10
46.256452
 20
50.293091
 11
46.144353
 21
50.302579
  0
LINE
  8
4
  6
CONTINUOUS
 10
46.256452
 20
50.293091
 11
46.263656
 21
51.045163
  0
LINE
  8
4
  6
CONTINUOUS
 10
46.144353
 20
50.302579
 11
46.263656
 21
51.045163
  0
LINE
  8
4
  6
CONTINUOUS
 10
46.299851
 20
50.138881
 11
46.075652
 21
50.157857
  0
LINE
  8
4
  6
CONTINUOUS
 10
46.291944
 20
50.045465
 11
46.067746
 21
50.064441
  0
LINE
  8
4
  6
CONTINUOUS
 10
46.284037
 20
49.952049
 11
46.059839
 21
49.971025
  0
POLYLINE
  8
4
  6
CONTINUOUS
 66
     1
  0
VERTEX
  8
4
  6
CONTINUOUS
 10
42.637141
 20
8.198950
  0
VERTEX
  8
4
  6
CONTINUOUS
 10
46.137148
 20
49.550507
  0
SEQEND
  8
4
  6
CONTINUOUS
  0
LINE
  8
4
  6
CONTINUOUS
 10
42.969286
 20
8.170837
 11
42.884948
 21
7.174400
  0
LINE
  8
4
  6
CONTINUOUS
 10
42.785304
 20
7.182834
 11
42.984591
 21
7.165966
  0
LINE
  8
4
  6
CONTINUOUS
 10
42.786991
 20
7.202762
 11
42.986278
 21
7.185895
  0
LINE
  8
4
  6
CONTINUOUS
 10
42.788678
 20
7.222691
 11
42.987965
 21
7.205823
  0
LINE
  8
4
  6
CONTINUOUS
 10
46.469294
 20
49.522394
 11
46.532548
 21
50.269722
  0
LINE
  8
4
  6
CONTINUOUS
 10
46.588598
 20
50.264978
 11
46.476498
 21
50.274466
  0
LINE
  8
4
  6
CONTINUOUS
 10
46.588598
 20
50.264978
 11
46.595802
 21
51.017050
  0
LINE
  8
4
  6
CONTINUOUS
 10
46.476498
 20
50.274466
 11
46.595802
 21
51.017050
  0
LINE
  8
4
  6
CONTINUOUS
 10
46.631996
 20
50.110768
 11
46.407798
 21
50.129745
  0
LINE
  8
4
  6
CONTINUOUS
 10
46.624090
 20
50.017352
 11
46.399891
 21
50.036329
  0
LINE
  8
4
  6
CONTINUOUS
 10
46.616183
 20
49.923936
 11
46.391985
 21
49.942913
  0
POLYLINE
  8
4
  6
CONTINUOUS
 66
     1
  0
VERTEX
  8
4
  6
CONTINUOUS
 10
42.969286
 20
8.170837
  0
VERTEX
  8
4
  6
CONTINUOUS
 10
46.469294
 20
49.522394
  0
SEQEND
  8
4
  6
CONTINUOUS
  0
LINE
  8
4
  6
CONTINUOUS
 10
43.301432
 20
8.142724
 11
43.217093
 21
7.146287
  0
LINE
  8
4
  6
CONTINUOUS
 10
43.117450
 20
7.154721
 11
43.316737
 21
7.137853
  0
LINE
  8
4
  6
CONTINUOUS
 10
43.119136
 20
7.174650
 11
43.318424
 21
7.157782
  0
LINE
  8
4
  6
CONTINUOUS
 10
43.120823
 20
7.194578
 11
43.320111
 21
7.177711
  0
LINE
  8
4
  6
CONTINUOUS
 10
46.801440
 20
49.494281
 11
46.864694
 21
50.241609
  0
LINE
  8
4
  6
CONTINUOUS
 10
46.920743
 20
50.236865
 11
46.808644
 21
50.246353
  0
LINE
  8
4
  6
CONTINUOUS
 10
46.920743
 20
50.236865
 11
46.927948
 21
50.988937
  0
LINE
  8
4
  6
CONTINUOUS
 10
46.808644
 20
50.246353
 11
46.927948
 21
50.988937
  0
LINE
  8
4
  6
CONTINUOUS
 10
46.964142
 20
50.082655
 11
46.739944
 21
50.101632
  0
LINE
  8
4
  6
CONTINUOUS
 10
46.956235
 20
49.989239
 11
46.732037
 21
50.008216
  0
LINE
  8
4
  6
CONTINUOUS
 10
46.948329
 20
49.895823
 11
46.724130
 21
49.914800
  0
POLYLINE
  8
4
  6
CONTINUOUS
 66
     1
  0
VERTEX
  8
4
  6
CONTINUOUS
 10
43.301432
 20
8.142724
  0
VERTEX
  8
4
  6
CONTINUOUS
 10
46.801440
 20
49.494281
  0
SEQEND
  8
4
  6
CONTINUOUS
  0
LINE
  8
4
  6
CONTINUOUS
 10
43.633578
 20
8.114611
 11
43.549239
 21
7.118174
  0
LINE
  8
4
  6
CONTINUOUS
 10
43.449595
 20
7.126608
 11
43.648883
 21
7.109740
  0
LINE
  8
4
  6
CONTINUOUS
 10
43.451282
 20
7.146537
 11
43.650570
 21
7.129669
  0
LINE
  8
4
  6
CONTINUOUS
 10
43.452969
 20
7.166465
 11
43.652256
 21
7.149598
  0
LINE
  8
4
  6
CONTINUOUS
 10
47.133585
 20
49.466168
 11
47.196840
 21
50.213496
  0
LINE
  8
4
  6
CONTINUOUS
 10
47.252889
 20
50.208752
 11
47.140790
 21
50.218240
  0
LINE
  8
4
  6
CONTINUOUS
 10
47.252889
 20
50.208752
 11
47.260094
 21
50.960824
  0
LINE
  8
4
  6
CONTINUOUS
 10
47.140790
 20
50.218240
 11
47.260094
 21
50.960824
  0
LINE
  8
4
  6
CONTINUOUS
 10
47.296288
 20
50.054542
 11
47.072090
 21
50.073519
  0
LINE
  8
4
  6
CONTINUOUS
 10
47.288381
 20
49.961127
 11
47.064183
 21
49.980103
  0
LINE
  8
4
  6
CONTINUOUS
 10
47.280474
 20
49.867711
 11
47.056276
 21
49.886687
  0
POLYLINE
  8
4
  6
CONTINUOUS
 66
     1
  0
VERTEX
  8
4
  6
CONTINUOUS
 10
43.633578
 20
8.114611
  0
VERTEX
  8
4
  6
CONTINUOUS
 10
47.133585
 20
49.466168
  0
SEQEND
  8
4
  6
CONTINUOUS
  0
LINE
  8
4
  6
CONTINUOUS
 10
58.613249
 20
6.846669
 11
58.528910
 21
5.850232
  0
LINE
  8
4
  6
CONTINUOUS
 10
58.429266
 20
5.858666
 11
58.628554
 21
5.841798
  0
LINE
  8
4
  6
CONTINUOUS
 10
58.430953
 20
5.878594
 11
58.630241
 21
5.861727
  0
LINE
  8
4
  6
CONTINUOUS
 10
58.432640
 20
5.898523
 11
58.631927
 21
5.881655
  0
LINE
  8
4
  6
CONTINUOUS
 10
62.113261
 20
48.198284
 11
62.176515
 21
48.945612
  0
LINE
  8
4
  6
CONTINUOUS
 10
62.256988
 20
48.562460
 11
62.032789
 21
48.581436
  0
LINE
  8
4
  6
CONTINUOUS
 10
62.263313
 20
48.637193
 11
62.039115
 21
48.656169
  0
LINE
  8
4
  6
CONTINUOUS
 10
62.269638
 20
48.711926
 11
62.045440
 21
48.730902
  0
LINE
  8
4
  6
CONTINUOUS
 10
62.275964
 20
48.786658
 11
62.051765
 21
48.805635
  0
LINE
  8
4
  6
CONTINUOUS
 10
62.232565
 20
48.940868
 11
62.120466
 21
48.950356
  0
LINE
  8
4
  6
CONTINUOUS
 10
62.232565
 20
48.940868
 11
62.239769
 21
49.692940
  0
LINE
  8
4
  6
CONTINUOUS
 10
62.120466
 20
48.950356
 11
62.239769
 21
49.692940
  0
POLYLINE
  8
4
  6
CONTINUOUS
 66
     1
  0
VERTEX
  8
4
  6
CONTINUOUS
 10
58.613249
 20
6.846669
  0
VERTEX
  8
4
  6
CONTINUOUS
 10
62.113261
 20
48.198284
  0
SEQEND
  8
4
  6
CONTINUOUS
  0
LINE
  8
4
  6
CONTINUOUS
 10
59.011824
 20
6.812933
 11
58.927485
 21
5.816496
  0
LINE
  8
4
  6
CONTINUOUS
 10
58.827841
 20
5.824930
 11
59.027129
 21
5.808062
  0
LINE
  8
4
  6
CONTINUOUS
 10
58.829528
 20
5.844859
 11
59.028815
 21
5.827991
  0
LINE
  8
4
  6
CONTINUOUS
 10
58.831215
 20
5.864788
 11
59.030502
 21
5.847920
  0
LINE
  8
4
  6
CONTINUOUS
 10
62.511836
 20
48.164549
 11
62.575090
 21
48.911877
  0
LINE
  8
4
  6
CONTINUOUS
 10
62.655562
 20
48.528725
 11
62.431364
 21
48.547701
  0
LINE
  8
4
  6
CONTINUOUS
 10
62.661888
 20
48.603457
 11
62.437690
 21
48.622434
  0
LINE
  8
4
  6
CONTINUOUS
 10
62.668213
 20
48.678190
 11
62.444015
 21
48.697166
  0
LINE
  8
4
  6
CONTINUOUS
 10
62.674539
 20
48.752923
 11
62.450340
 21
48.771899
  0
LINE
  8
4
  6
CONTINUOUS
 10
62.631140
 20
48.907133
 11
62.519041
 21
48.916621
  0
LINE
  8
4
  6
CONTINUOUS
 10
62.631140
 20
48.907133
 11
62.638344
 21
49.659204
  0
LINE
  8
4
  6
CONTINUOUS
 10
62.519041
 20
48.916621
 11
62.638344
 21
49.659204
  0
POLYLINE
  8
4
  6
CONTINUOUS
 66
     1
  0
VERTEX
  8
4
  6
CONTINUOUS
 10
59.011824
 20
6.812933
  0
VERTEX
  8
4
  6
CONTINUOUS
 10
62.511836
 20
48.164549
  0
SEQEND
  8
4
  6
CONTINUOUS
  0
LINE
  8
4
  6
CONTINUOUS
 10
59.410399
 20
6.779198
 11
59.326060
 21
5.782761
  0
LINE
  8
4
  6
CONTINUOUS
 10
59.226416
 20
5.791195
 11
59.425704
 21
5.774327
  0
LINE
  8
4
  6
CONTINUOUS
 10
59.228103
 20
5.811123
 11
59.427390
 21
5.794256
  0
LINE
  8
4
  6
CONTINUOUS
 10
59.229790
 20
5.831052
 11
59.429077
 21
5.814184
  0
LINE
  8
4
  6
CONTINUOUS
 10
62.910411
 20
48.130813
 11
62.973665
 21
48.878141
  0
LINE
  8
4
  6
CONTINUOUS
 10
63.054137
 20
48.494989
 11
62.829939
 21
48.513965
  0
LINE
  8
4
  6
CONTINUOUS
 10
63.060463
 20
48.569722
 11
62.836264
 21
48.588698
  0
LINE
  8
4
  6
CONTINUOUS
 10
63.066788
 20
48.644455
 11
62.842590
 21
48.663431
  0
LINE
  8
4
  6
CONTINUOUS
 10
63.073114
 20
48.719187
 11
62.848915
 21
48.738164
  0
LINE
  8
4
  6
CONTINUOUS
 10
63.029715
 20
48.873397
 11
62.917616
 21
48.882885
  0
LINE
  8
4
  6
CONTINUOUS
 10
63.029715
 20
48.873397
 11
63.036919
 21
49.625469
  0
LINE
  8
4
  6
CONTINUOUS
 10
62.917616
 20
48.882885
 11
63.036919
 21
49.625469
  0
POLYLINE
  8
4
  6
CONTINUOUS
 66
     1
  0
VERTEX
  8
4
  6
CONTINUOUS
 10
59.410399
 20
6.779198
  0
VERTEX
  8
4
  6
CONTINUOUS
 10
62.910411
 20
48.130813
  0
SEQEND
  8
4
  6
CONTINUOUS
  0
LINE
  8
4
  6
CONTINUOUS
 10
59.808973
 20
6.745462
 11
59.724635
 21
5.749025
  0
LINE
  8
4
  6
CONTINUOUS
 10
59.624991
 20
5.757459
 11
59.824278
 21
5.740591
  0
LINE
  8
4
  6
CONTINUOUS
 10
59.626678
 20
5.777388
 11
59.825965
 21
5.760520
  0
LINE
  8
4
  6
CONTINUOUS
 10
59.628365
 20
5.797317
 11
59.827652
 21
5.780449
  0
LINE
  8
4
  6
CONTINUOUS
 10
63.308986
 20
48.097078
 11
63.372240
 21
48.844406
  0
LINE
  8
4
  6
CONTINUOUS
 10
63.452712
 20
48.461254
 11
63.228514
 21
48.480230
  0
LINE
  8
4
  6
CONTINUOUS
 10
63.459038
 20
48.535986
 11
63.234839
 21
48.554963
  0
LINE
  8
4
  6
CONTINUOUS
 10
63.465363
 20
48.610719
 11
63.241165
 21
48.629695
  0
LINE
  8
4
  6
CONTINUOUS
 10
63.471688
 20
48.685452
 11
63.247490
 21
48.704428
  0
LINE
  8
4
  6
CONTINUOUS
 10
63.428290
 20
48.839662
 11
63.316190
 21
48.849150
  0
LINE
  8
4
  6
CONTINUOUS
 10
63.428290
 20
48.839662
 11
63.435494
 21
49.591734
  0
LINE
  8
4
  6
CONTINUOUS
 10
63.316190
 20
48.849150
 11
63.435494
 21
49.591734
  0
POLYLINE
  8
4
  6
CONTINUOUS
 66
     1
  0
VERTEX
  8
4
  6
CONTINUOUS
 10
59.808973
 20
6.745462
  0
VERTEX
  8
4
  6
CONTINUOUS
 10
63.308986
 20
48.097078
  0
SEQEND
  8
4
  6
CONTINUOUS
  0
LINE
  8
4
  6
CONTINUOUS
 10
60.207548
 20
6.711727
 11
60.123210
 21
5.715290
  0
LINE
  8
4
  6
CONTINUOUS
 10
60.023566
 20
5.723724
 11
60.222853
 21
5.706856
  0
LINE
  8
4
  6
CONTINUOUS
 10
60.025253
 20
5.743652
 11
60.224540
 21
5.726785
  0
LINE
  8
4
  6
CONTINUOUS
 10
60.026939
 20
5.763581
 11
60.226227
 21
5.746713
  0
LINE
  8
4
  6
CONTINUOUS
 10
63.707561
 20
48.063342
 11
63.770815
 21
48.810670
  0
LINE
  8
4
  6
CONTINUOUS
 10
63.851287
 20
48.427518
 11
63.627089
 21
48.446494
  0
LINE
  8
4
  6
CONTINUOUS
 10
63.857612
 20
48.502251
 11
63.633414
 21
48.521227
  0
LINE
  8
4
  6
CONTINUOUS
 10
63.863938
 20
48.576984
 11
63.639739
 21
48.595960
  0
LINE
  8
4
  6
CONTINUOUS
 10
63.870263
 20
48.651716
 11
63.646065
 21
48.670693
  0
LINE
  8
4
  6
CONTINUOUS
 10
63.826864
 20
48.805926
 11
63.714765
 21
48.815414
  0
LINE
  8
4
  6
CONTINUOUS
 10
63.826864
 20
48.805926
 11
63.834069
 21
49.557998
  0
LINE
  8
4
  6
CONTINUOUS
 10
63.714765
 20
48.815414
 11
63.834069
 21
49.557998
  0
POLYLINE
  8
4
  6
CONTINUOUS
 66
     1
  0
VERTEX
  8
4
  6
CONTINUOUS
 10
60.207548
 20
6.711727
  0
VERTEX
  8
4
  6
CONTINUOUS
 10
63.707561
 20
48.063342
  0
SEQEND
  8
4
  6
CONTINUOUS
  0
LINE
  8
4
  6
CONTINUOUS
 10
75.054382
 20
5.455087
 11
74.970043
 21
4.458650
  0
LINE
  8
4
  6
CONTINUOUS
 10
74.870399
 20
4.467083
 11
75.069687
 21
4.450216
  0
LINE
  8
4
  6
CONTINUOUS
 10
74.872086
 20
4.487012
 11
75.071374
 21
4.470144
  0
LINE
  8
4
  6
CONTINUOUS
 10
74.873773
 20
4.506941
 11
75.073060
 21
4.490073
  0
LINE
  8
4
  6
CONTINUOUS
 10
78.554394
 20
46.806702
 11
78.617648
 21
47.554030
  0
LINE
  8
4
  6
CONTINUOUS
 10
78.698121
 20
47.170878
 11
78.473922
 21
47.189854
  0
LINE
  8
4
  6
CONTINUOUS
 10
78.704446
 20
47.245611
 11
78.480248
 21
47.264587
  0
LINE
  8
4
  6
CONTINUOUS
 10
78.710771
 20
47.320343
 11
78.486573
 21
47.339320
  0
LINE
  8
4
  6
CONTINUOUS
 10
78.717097
 20
47.395076
 11
78.492898
 21
47.414052
  0
LINE
  8
4
  6
CONTINUOUS
 10
78.673698
 20
47.549286
 11
78.561599
 21
47.558774
  0
LINE
  8
4
  6
CONTINUOUS
 10
78.673698
 20
47.549286
 11
78.680903
 21
48.301358
  0
LINE
  8
4
  6
CONTINUOUS
 10
78.561599
 20
47.558774
 11
78.680903
 21
48.301358
  0
POLYLINE
  8
4
  6
CONTINUOUS
 66
     1
  0
VERTEX
  8
4
  6
CONTINUOUS
 10
75.054382
 20
5.455087
  0
VERTEX
  8
4
  6
CONTINUOUS
 10
78.554394
 20
46.806702
  0
SEQEND
  8
4
  6
CONTINUOUS
  0
LINE
  8
4
  6
CONTINUOUS
 10
75.452957
 20
5.421351
 11
75.368618
 21
4.424914
  0
LINE
  8
4
  6
CONTINUOUS
 10
75.268974
 20
4.433348
 11
75.468262
 21
4.416480
  0
LINE
  8
4
  6
CONTINUOUS
 10
75.270661
 20
4.453277
 11
75.469949
 21
4.436409
  0
LINE
  8
4
  6
CONTINUOUS
 10
75.272348
 20
4.473205
 11
75.471635
 21
4.456338
  0
LINE
  8
4
  6
CONTINUOUS
 10
78.952969
 20
46.772967
 11
79.016223
 21
47.520294
  0
LINE
  8
4
  6
CONTINUOUS
 10
79.096695
 20
47.137142
 11
78.872497
 21
47.156119
  0
LINE
  8
4
  6
CONTINUOUS
 10
79.103021
 20
47.211875
 11
78.878823
 21
47.230851
  0
LINE
  8
4
  6
CONTINUOUS
 10
79.109346
 20
47.286608
 11
78.885148
 21
47.305584
  0
LINE
  8
4
  6
CONTINUOUS
 10
79.115672
 20
47.361341
 11
78.891473
 21
47.380317
  0
LINE
  8
4
  6
CONTINUOUS
 10
79.072273
 20
47.515550
 11
78.960174
 21
47.525038
  0
LINE
  8
4
  6
CONTINUOUS
 10
79.072273
 20
47.515550
 11
79.079477
 21
48.267622
  0
LINE
  8
4
  6
CONTINUOUS
 10
78.960174
 20
47.525038
 11
79.079477
 21
48.267622
  0
POLYLINE
  8
4
  6
CONTINUOUS
 66
     1
  0
VERTEX
  8
4
  6
CONTINUOUS
 10
75.452957
 20
5.421351
  0
VERTEX
  8
4
  6
CONTINUOUS
 10
78.952969
 20
46.772967
  0
SEQEND
  8
4
  6
CONTINUOUS
  0
LINE
  8
4
  6
CONTINUOUS
 10
75.851532
 20
5.387616
 11
75.767193
 21
4.391179
  0
LINE
  8
4
  6
CONTINUOUS
 10
75.667549
 20
4.399612
 11
75.866837
 21
4.382745
  0
LINE
  8
4
  6
CONTINUOUS
 10
75.669236
 20
4.419541
 11
75.868523
 21
4.402673
  0
LINE
  8
4
  6
CONTINUOUS
 10
75.670923
 20
4.439470
 11
75.870210
 21
4.422602
  0
LINE
  8
4
  6
CONTINUOUS
 10
79.351544
 20
46.739231
 11
79.414798
 21
47.486559
  0
LINE
  8
4
  6
CONTINUOUS
 10
79.495270
 20
47.103407
 11
79.271072
 21
47.122383
  0
LINE
  8
4
  6
CONTINUOUS
 10
79.501596
 20
47.178140
 11
79.277397
 21
47.197116
  0
LINE
  8
4
  6
CONTINUOUS
 10
79.507921
 20
47.252872
 11
79.283723
 21
47.271849
  0
LINE
  8
4
  6
CONTINUOUS
 10
79.514247
 20
47.327605
 11
79.290048
 21
47.346581
  0
LINE
  8
4
  6
CONTINUOUS
 10
79.470848
 20
47.481815
 11
79.358749
 21
47.491303
  0
LINE
  8
4
  6
CONTINUOUS
 10
79.470848
 20
47.481815
 11
79.478052
 21
48.233887
  0
LINE
  8
4
  6
CONTINUOUS
 10
79.358749
 20
47.491303
 11
79.478052
 21
48.233887
  0
POLYLINE
  8
4
  6
CONTINUOUS
 66
     1
  0
VERTEX
  8
4
  6
CONTINUOUS
 10
75.851532
 20
5.387616
  0
VERTEX
  8
4
  6
CONTINUOUS
 10
79.351544
 20
46.739231
  0
SEQEND
  8
4
  6
CONTINUOUS
  0
LINE
  8
4
  6
CONTINUOUS
 10
76.250106
 20
5.353880
 11
76.165768
 21
4.357443
  0
LINE
  8
4
  6
CONTINUOUS
 10
76.066124
 20
4.365877
 11
76.265411
 21
4.349009
  0
LINE
  8
4
  6
CONTINUOUS
 10
76.067811
 20
4.385806
 11
76.267098
 21
4.368938
  0
LINE
  8
4
  6
CONTINUOUS
 10
76.069498
 20
4.405734
 11
76.268785
 21
4.388867
  0
LINE
  8
4
  6
CONTINUOUS
 10
79.750119
 20
46.705496
 11
79.813373
 21
47.452823
  0
LINE
  8
4
  6
CONTINUOUS
 10
79.893845
 20
47.069671
 11
79.669647
 21
47.088648
  0
LINE
  8
4
  6
CONTINUOUS
 10
79.900171
 20
47.144404
 11
79.675972
 21
47.163380
  0
LINE
  8
4
  6
CONTINUOUS
 10
79.906496
 20
47.219137
 11
79.682298
 21
47.238113
  0
LINE
  8
4
  6
CONTINUOUS
 10
79.912821
 20
47.293870
 11
79.688623
 21
47.312846
  0
LINE
  8
4
  6
CONTINUOUS
 10
79.869423
 20
47.448079
 11
79.757323
 21
47.457568
  0
LINE
  8
4
  6
CONTINUOUS
 10
79.869423
 20
47.448079
 11
79.876627
 21
48.200151
  0
LINE
  8
4
  6
CONTINUOUS
 10
79.757323
 20
47.457568
 11
79.876627
 21
48.200151
  0
POLYLINE
  8
4
  6
CONTINUOUS
 66
     1
  0
VERTEX
  8
4
  6
CONTINUOUS
 10
76.250106
 20
5.353880
  0
VERTEX
  8
4
  6
CONTINUOUS
 10
79.750119
 20
46.705496
  0
SEQEND
  8
4
  6
CONTINUOUS
  0
LINE
  8
4
  6
CONTINUOUS
 10
76.648681
 20
5.320145
 11
76.564343
 21
4.323708
  0
LINE
  8
4
  6
CONTINUOUS
 10
76.464699
 20
4.332142
 11
76.663986
 21
4.315274
  0
LINE
  8
4
  6
CONTINUOUS
 10
76.466386
 20
4.352070
 11
76.665673
 21
4.335203
  0
LINE
  8
4
  6
CONTINUOUS
 10
76.468072
 20
4.371999
 11
76.667360
 21
4.355131
  0
LINE
  8
4
  6
CONTINUOUS
 10
80.148694
 20
46.671760
 11
80.211948
 21
47.419088
  0
LINE
  8
4
  6
CONTINUOUS
 10
80.292420
 20
47.035936
 11
80.068222
 21
47.054912
  0
LINE
  8
4
  6
CONTINUOUS
 10
80.298745
 20
47.110669
 11
80.074547
 21
47.129645
  0
LINE
  8
4
  6
CONTINUOUS
 10
80.305071
 20
47.185402
 11
80.080872
 21
47.204378
  0
LINE
  8
4
  6
CONTINUOUS
 10
80.311396
 20
47.260134
 11
80.087198
 21
47.279111
  0
LINE
  8
4
  6
CONTINUOUS
 10
80.267997
 20
47.414344
 11
80.155898
 21
47.423832
  0
LINE
  8
4
  6
CONTINUOUS
 10
80.267997
 20
47.414344
 11
80.275202
 21
48.166416
  0
LINE
  8
4
  6
CONTINUOUS
 10
80.155898
 20
47.423832
 11
80.275202
 21
48.166416
  0
POLYLINE
  8
4
  6
CONTINUOUS
 66
     1
  0
VERTEX
  8
4
  6
CONTINUOUS
 10
76.648681
 20
5.320145
  0
VERTEX
  8
4
  6
CONTINUOUS
 10
80.148694
 20
46.671760
  0
SEQEND
  8
4
  6
CONTINUOUS
  0
LINE
  8
4
  6
CONTINUOUS
 10
92.442205
 20
3.983376
 11
92.357866
 21
2.986939
  0
LINE
  8
4
  6
CONTINUOUS
 10
92.258223
 20
2.995373
 11
92.457510
 21
2.978505
  0
LINE
  8
4
  6
CONTINUOUS
 10
92.259909
 20
3.015302
 11
92.459197
 21
2.998434
  0
LINE
  8
4
  6
CONTINUOUS
 10
92.261596
 20
3.035231
 11
92.460884
 21
3.018363
  0
LINE
  8
4
  6
CONTINUOUS
 10
95.942217
 20
45.334992
 11
96.005472
 21
46.082320
  0
LINE
  8
4
  6
CONTINUOUS
 10
96.085944
 20
45.699168
 11
95.861745
 21
45.718144
  0
LINE
  8
4
  6
CONTINUOUS
 10
96.092269
 20
45.773900
 11
95.868071
 21
45.792877
  0
LINE
  8
4
  6
CONTINUOUS
 10
96.098595
 20
45.848633
 11
95.874396
 21
45.867609
  0
LINE
  8
4
  6
CONTINUOUS
 10
96.104920
 20
45.923366
 11
95.880722
 21
45.942342
  0
LINE
  8
4
  6
CONTINUOUS
 10
96.061521
 20
46.077576
 11
95.949422
 21
46.087064
  0
LINE
  8
4
  6
CONTINUOUS
 10
96.061521
 20
46.077576
 11
96.068726
 21
46.829647
  0
LINE
  8
4
  6
CONTINUOUS
 10
95.949422
 20
46.087064
 11
96.068726
 21
46.829647
  0
POLYLINE
  8
4
  6
CONTINUOUS
 66
     1
  0
VERTEX
  8
4
  6
CONTINUOUS
 10
92.442205
 20
3.983376
  0
VERTEX
  8
4
  6
CONTINUOUS
 10
95.942217
 20
45.334992
  0
SEQEND
  8
4
  6
CONTINUOUS
  0
LINE
  8
4
  6
CONTINUOUS
 10
92.873994
 20
3.946830
 11
92.789656
 21
2.950393
  0
LINE
  8
4
  6
CONTINUOUS
 10
92.690012
 20
2.958826
 11
92.889299
 21
2.941959
  0
LINE
  8
4
  6
CONTINUOUS
 10
92.691699
 20
2.978755
 11
92.890986
 21
2.961887
  0
LINE
  8
4
  6
CONTINUOUS
 10
92.693386
 20
2.998684
 11
92.892673
 21
2.981816
  0
LINE
  8
4
  6
CONTINUOUS
 10
96.374007
 20
45.298445
 11
96.437261
 21
46.045773
  0
LINE
  8
4
  6
CONTINUOUS
 10
96.517733
 20
45.662621
 11
96.293535
 21
45.681597
  0
LINE
  8
4
  6
CONTINUOUS
 10
96.524059
 20
45.737354
 11
96.299860
 21
45.756330
  0
LINE
  8
4
  6
CONTINUOUS
 10
96.530384
 20
45.812086
 11
96.306186
 21
45.831063
  0
LINE
  8
4
  6
CONTINUOUS
 10
96.536709
 20
45.886819
 11
96.312511
 21
45.905795
  0
LINE
  8
4
  6
CONTINUOUS
 10
96.493311
 20
46.041029
 11
96.381211
 21
46.050517
  0
LINE
  8
4
  6
CONTINUOUS
 10
96.493311
 20
46.041029
 11
96.500515
 21
46.793101
  0
LINE
  8
4
  6
CONTINUOUS
 10
96.381211
 20
46.050517
 11
96.500515
 21
46.793101
  0
POLYLINE
  8
4
  6
CONTINUOUS
 66
     1
  0
VERTEX
  8
4
  6
CONTINUOUS
 10
92.873994
 20
3.946830
  0
VERTEX
  8
4
  6
CONTINUOUS
 10
96.374007
 20
45.298445
  0
SEQEND
  8
4
  6
CONTINUOUS
  0
LINE
  8
4
  6
CONTINUOUS
 10
93.305784
 20
3.910283
 11
93.221445
 21
2.913846
  0
LINE
  8
4
  6
CONTINUOUS
 10
93.121801
 20
2.922280
 11
93.321089
 21
2.905412
  0
LINE
  8
4
  6
CONTINUOUS
 10
93.123488
 20
2.942208
 11
93.322776
 21
2.925341
  0
LINE
  8
4
  6
CONTINUOUS
 10
93.125175
 20
2.962137
 11
93.324462
 21
2.945269
  0
LINE
  8
4
  6
CONTINUOUS
 10
96.805796
 20
45.261898
 11
96.869050
 21
46.009226
  0
LINE
  8
4
  6
CONTINUOUS
 10
96.949523
 20
45.626074
 11
96.725324
 21
45.645050
  0
LINE
  8
4
  6
CONTINUOUS
 10
96.955848
 20
45.700807
 11
96.731650
 21
45.719783
  0
LINE
  8
4
  6
CONTINUOUS
 10
96.962173
 20
45.775540
 11
96.737975
 21
45.794516
  0
LINE
  8
4
  6
CONTINUOUS
 10
96.968499
 20
45.850272
 11
96.744300
 21
45.869249
  0
LINE
  8
4
  6
CONTINUOUS
 10
96.925100
 20
46.004482
 11
96.813001
 21
46.013970
  0
LINE
  8
4
  6
CONTINUOUS
 10
96.925100
 20
46.004482
 11
96.932304
 21
46.756554
  0
LINE
  8
4
  6
CONTINUOUS
 10
96.813001
 20
46.013970
 11
96.932304
 21
46.756554
  0
POLYLINE
  8
4
  6
CONTINUOUS
 66
     1
  0
VERTEX
  8
4
  6
CONTINUOUS
 10
93.305784
 20
3.910283
  0
VERTEX
  8
4
  6
CONTINUOUS
 10
96.805796
 20
45.261898
  0
SEQEND
  8
4
  6
CONTINUOUS
  0
LINE
  8
4
  6
CONTINUOUS
 10
6.048910
 20
11.839963
 11
6.046954
 21
10.839965
  0
LINE
  8
4
  6
CONTINUOUS
 10
5.946954
 20
10.840161
 11
6.146954
 21
10.839769
  0
LINE
  8
4
  6
CONTINUOUS
 10
5.946993
 20
10.860161
 11
6.146993
 21
10.859769
  0
LINE
  8
4
  6
CONTINUOUS
 10
5.947032
 20
10.880161
 11
6.147032
 21
10.879769
  0
LINE
  8
4
  6
CONTINUOUS
 10
6.129270
 20
52.914546
 11
6.130737
 21
53.664544
  0
LINE
  8
4
  6
CONTINUOUS
 10
6.186987
 20
53.664434
 11
6.074487
 21
53.664655
  0
LINE
  8
4
  6
CONTINUOUS
 10
6.186987
 20
53.664434
 11
6.132205
 21
54.414543
  0
LINE
  8
4
  6
CONTINUOUS
 10
6.074487
 20
53.664655
 11
6.132205
 21
54.414543
  0
LINE
  8
4
  6
CONTINUOUS
 10
6.242944
 20
53.514325
 11
6.017944
 21
53.514765
  0
LINE
  8
4
  6
CONTINUOUS
 10
6.242760
 20
53.420575
 11
6.017761
 21
53.421015
  0
LINE
  8
4
  6
CONTINUOUS
 10
6.242577
 20
53.326825
 11
6.017577
 21
53.327265
  0
POLYLINE
  8
4
  6
CONTINUOUS
 66
     1
  0
VERTEX
  8
4
  6
CONTINUOUS
 10
6.048910
 20
11.839963
  0
VERTEX
  8
4
  6
CONTINUOUS
 10
6.129270
 20
52.914546
  0
SEQEND
  8
4
  6
CONTINUOUS
  0
LINE
  8
4
  6
CONTINUOUS
 10
6.715576
 20
11.838659
 11
6.713619
 21
10.838661
  0
LINE
  8
4
  6
CONTINUOUS
 10
6.613620
 20
10.838856
 11
6.813619
 21
10.838465
  0
LINE
  8
4
  6
CONTINUOUS
 10
6.613659
 20
10.858856
 11
6.813658
 21
10.858465
  0
LINE
  8
4
  6
CONTINUOUS
 10
6.613698
 20
10.878856
 11
6.813697
 21
10.878465
  0
LINE
  8
4
  6
CONTINUOUS
 10
6.795935
 20
52.913242
 11
6.797403
 21
53.663240
  0
LINE
  8
4
  6
CONTINUOUS
 10
6.853652
 20
53.663130
 11
6.741153
 21
53.663350
  0
LINE
  8
4
  6
CONTINUOUS
 10
6.853652
 20
53.663130
 11
6.798870
 21
54.413239
  0
LINE
  8
4
  6
CONTINUOUS
 10
6.741153
 20
53.663350
 11
6.798870
 21
54.413239
  0
LINE
  8
4
  6
CONTINUOUS
 10
6.909609
 20
53.513020
 11
6.684609
 21
53.513461
  0
LINE
  8
4
  6
CONTINUOUS
 10
6.909426
 20
53.419271
 11
6.684426
 21
53.419711
  0
LINE
  8
4
  6
CONTINUOUS
 10
6.909242
 20
53.325521
 11
6.684243
 21
53.325961
  0
POLYLINE
  8
4
  6
CONTINUOUS
 66
     1
  0
VERTEX
  8
4
  6
CONTINUOUS
 10
6.715576
 20
11.838659
  0
VERTEX
  8
4
  6
CONTINUOUS
 10
6.795935
 20
52.913242
  0
SEQEND
  8
4
  6
CONTINUOUS
  0
LINE
  8
1
  6
CONTINUOUS
 10
5.063740
 20
79.228560
 11
24.487468
 21
79.228560
  0
LINE
  8
1
  6
CONTINUOUS
 10
5.063740
 20
79.228560
 11
5.063740
 21
78.228560
  0
LINE
  8
1
  6
CONTINUOUS
 10
5.063740
 20
78.228560
 11
21.353020
 21
78.228560
  0
LINE
  8
1
  6
CONTINUOUS
 10
5.063740
 20
78.228560
 11
5.063740
 21
77.228560
  0
LINE
  8
1
  6
CONTINUOUS
 10
7.552856
 20
78.228560
 11
7.552856
 21
77.228560
  0
LINE
  8
1
  6
CONTINUOUS
 10
9.690569
 20
78.228560
 11
9.690569
 21
77.228560
  0
LINE
  8
1
  6
CONTINUOUS
 10
11.065936
 20
78.228560
 11
11.065936
 21
77.228560
  0
LINE
  8
1
  6
CONTINUOUS
 10
15.230449
 20
77.728560
 11
15.230449
 21
77.228560
  0
LINE
  8
1
  6
CONTINUOUS
 10
18.218572
 20
78.228560
 11
18.218572
 21
77.228560
  0
LINE
  8
1
  6
CONTINUOUS
 10
19.263387
 20
77.728560
 11
19.263388
 21
77.228560
  0
LINE
  8
1
  6
CONTINUOUS
 10
20.308204
 20
77.728560
 11
20.308204
 21
77.228560
  0
LINE
  8
1
  6
CONTINUOUS
 10
21.353020
 20
78.228560
 11
21.353020
 21
77.228560
  0
LINE
  8
1
  6
CONTINUOUS
 10
5.063740
 20
77.228560
 11
24.487468
 21
77.228560
  0
LINE
  8
1
  6
CONTINUOUS
 10
11.065936
 20
77.728560
 11
15.230449
 21
77.728560
  0
LINE
  8
1
  6
CONTINUOUS
 10
15.230449
 20
77.728560
 11
18.218572
 21
77.728560
  0
LINE
  8
1
  6
CONTINUOUS
 10
18.218572
 20
77.728560
 11
19.263388
 21
77.728560
  0
LINE
  8
1
  6
CONTINUOUS
 10
19.263388
 20
77.728560
 11
20.308204
 21
77.728560
  0
LINE
  8
1
  6
CONTINUOUS
 10
20.308204
 20
77.728560
 11
24.487468
 21
77.728560
  0
LINE
  8
1
  6
CONTINUOUS
 10
24.487468
 20
77.228560
 11
24.487468
 21
79.228560
  0
LINE
  8
1
  6
CONTINUOUS
 10
22.920244
 20
77.728560
 11
22.920244
 21
77.228560
  0
LINE
  8
1
  6
CONTINUOUS
 10
21.353020
 20
78.228560
 11
24.487468
 21
78.228560
  0
LINE
  8
1
  6
CONTINUOUS
 10
5.063740
 20
77.228560
 11
5.063740
 21
76.728559
  0
LINE
  8
1
  6
CONTINUOUS
 10
5.063740
 20
76.728559
 11
24.487468
 21
76.728559
  0
LINE
  8
1
  6
CONTINUOUS
 10
7.552856
 20
77.228560
 11
7.552856
 21
76.728559
  0
LINE
  8
1
  6
CONTINUOUS
 10
9.690569
 20
77.228560
 11
9.690569
 21
76.728559
  0
LINE
  8
1
  6
CONTINUOUS
 10
11.065936
 20
77.228560
 11
11.065936
 21
76.728559
  0
LINE
  8
1
  6
CONTINUOUS
 10
15.230449
 20
77.228560
 11
15.230449
 21
76.728559
  0
LINE
  8
1
  6
CONTINUOUS
 10
18.218572
 20
77.228560
 11
18.218572
 21
76.728559
  0
LINE
  8
1
  6
CONTINUOUS
 10
19.263388
 20
77.228560
 11
19.263388
 21
76.728559
  0
LINE
  8
1
  6
CONTINUOUS
 10
20.308204
 20
77.228560
 11
20.308204
 21
76.728559
  0
LINE
  8
1
  6
CONTINUOUS
 10
21.353020
 20
77.228560
 11
21.353020
 21
76.728559
  0
LINE
  8
1
  6
CONTINUOUS
 10
21.353020
 20
76.728559
 11
21.353020
 21
77.228560
  0
LINE
  8
1
  6
CONTINUOUS
 10
21.353020
 20
77.228560
 11
21.353020
 21
76.728559
  0
LINE
  8
1
  6
CONTINUOUS
 10
22.920244
 20
77.228560
 11
22.920244
 21
76.728559
  0
LINE
  8
1
  6
CONTINUOUS
 10
24.487468
 20
77.228560
 11
24.487468
 21
76.728559
  0
LINE
  8
1
  6
CONTINUOUS
 10
5.063740
 20
76.728559
 11
5.063740
 21
76.228559
  0
LINE
  8
1
  6
CONTINUOUS
 10
5.063740
 20
76.228559
 11
24.487468
 21
76.228559
  0
LINE
  8
1
  6
CONTINUOUS
 10
7.552856
 20
76.728559
 11
7.552856
 21
76.228559
  0
LINE
  8
1
  6
CONTINUOUS
 10
9.690569
 20
76.728559
 11
9.690569
 21
76.228559
  0
LINE
  8
1
  6
CONTINUOUS
 10
11.065936
 20
76.728559
 11
11.065936
 21
76.228559
  0
LINE
  8
1
  6
CONTINUOUS
 10
15.230449
 20
76.728559
 11
15.230449
 21
76.228559
  0
LINE
  8
1
  6
CONTINUOUS
 10
18.218572
 20
76.728559
 11
18.218572
 21
76.228559
  0
LINE
  8
1
  6
CONTINUOUS
 10
19.263388
 20
76.728559
 11
19.263388
 21
76.228559
  0
LINE
  8
1
  6
CONTINUOUS
 10
20.308204
 20
76.728559
 11
20.308204
 21
76.228559
  0
LINE
  8
1
  6
CONTINUOUS
 10
21.353020
 20
76.728559
 11
21.353020
 21
76.228559
  0
LINE
  8
1
  6
CONTINUOUS
 10
21.353020
 20
76.228559
 11
21.353020
 21
76.728559
  0
LINE
  8
1
  6
CONTINUOUS
 10
21.353020
 20
76.728559
 11
21.353020
 21
76.228559
  0
LINE
  8
1
  6
CONTINUOUS
 10
22.920244
 20
76.728559
 11
22.920244
 21
76.228559
  0
LINE
  8
1
  6
CONTINUOUS
 10
24.487468
 20
76.728559
 11
24.487468
 21
76.228559
  0
LINE
  8
1
  6
CONTINUOUS
 10
5.063740
 20
76.228558
 11
5.063740
 21
75.728558
  0
LINE
  8
1
  6
CONTINUOUS
 10
5.063740
 20
75.728558
 11
24.487468
 21
75.728558
  0
LINE
  8
1
  6
CONTINUOUS
 10
7.552856
 20
76.228558
 11
7.552856
 21
75.728558
  0
LINE
  8
1
  6
CONTINUOUS
 10
9.690569
 20
76.228558
 11
9.690569
 21
75.728558
  0
LINE
  8
1
  6
CONTINUOUS
 10
11.065936
 20
76.228558
 11
11.065936
 21
75.728558
  0
LINE
  8
1
  6
CONTINUOUS
 10
15.230449
 20
76.228558
 11
15.230449
 21
75.728558
  0
LINE
  8
1
  6
CONTINUOUS
 10
18.218572
 20
76.228558
 11
18.218572
 21
75.728558
  0
LINE
  8
1
  6
CONTINUOUS
 10
19.263388
 20
76.228558
 11
19.263388
 21
75.728558
  0
LINE
  8
1
  6
CONTINUOUS
 10
20.308204
 20
76.228558
 11
20.308204
 21
75.728558
  0
LINE
  8
1
  6
CONTINUOUS
 10
21.353020
 20
76.228558
 11
21.353020
 21
75.728558
  0
LINE
  8
1
  6
CONTINUOUS
 10
21.353020
 20
75.728558
 11
21.353020
 21
76.228558
  0
LINE
  8
1
  6
CONTINUOUS
 10
21.353020
 20
76.228559
 11
21.353020
 21
75.728558
  0
LINE
  8
1
  6
CONTINUOUS
 10
22.920244
 20
76.228558
 11
22.920244
 21
75.728558
  0
LINE
  8
1
  6
CONTINUOUS
 10
24.487468
 20
76.228558
 11
24.487468
 21
75.728558
  0
LINE
  8
1
  6
CONTINUOUS
 10
5.063740
 20
75.728557
 11
5.063740
 21
75.228557
  0
LINE
  8
1
  6
CONTINUOUS
 10
5.063740
 20
75.228557
 11
24.487468
 21
75.228557
  0
LINE
  8
1
  6
CONTINUOUS
 10
7.552856
 20
75.728557
 11
7.552856
 21
75.228557
  0
LINE
  8
1
  6
CONTINUOUS
 10
9.690569
 20
75.728557
 11
9.690569
 21
75.228557
  0
LINE
  8
1
  6
CONTINUOUS
 10
11.065936
 20
75.728557
 11
11.065936
 21
75.228557
  0
LINE
  8
1
  6
CONTINUOUS
 10
15.230449
 20
75.728557
 11
15.230449
 21
75.228557
  0
LINE
  8
1
  6
CONTINUOUS
 10
18.218572
 20
75.728557
 11
18.218572
 21
75.228557
  0
LINE
  8
1
  6
CONTINUOUS
 10
19.263388
 20
75.728557
 11
19.263388
 21
75.228557
  0
LINE
  8
1
  6
CONTINUOUS
 10
20.308204
 20
75.728557
 11
20.308204
 21
75.228557
  0
LINE
  8
1
  6
CONTINUOUS
 10
21.353020
 20
75.728557
 11
21.353020
 21
75.228557
  0
LINE
  8
1
  6
CONTINUOUS
 10
21.353020
 20
75.228557
 11
21.353020
 21
75.728557
  0
LINE
  8
1
  6
CONTINUOUS
 10
21.353020
 20
75.728558
 11
21.353020
 21
75.228557
  0
LINE
  8
1
  6
CONTINUOUS
 10
22.920244
 20
75.728557
 11
22.920244
 21
75.228557
  0
LINE
  8
1
  6
CONTINUOUS
 10
24.487468
 20
75.728557
 11
24.487468
 21
75.228557
  0
LINE
  8
1
  6
CONTINUOUS
 10
5.063740
 20
75.228557
 11
5.063740
 21
74.728557
  0
LINE
  8
1
  6
CONTINUOUS
 10
5.063740
 20
74.728557
 11
24.487468
 21
74.728557
  0
LINE
  8
1
  6
CONTINUOUS
 10
7.552856
 20
75.228557
 11
7.552856
 21
74.728557
  0
LINE
  8
1
  6
CONTINUOUS
 10
9.690569
 20
75.228557
 11
9.690569
 21
74.728557
  0
LINE
  8
1
  6
CONTINUOUS
 10
11.065936
 20
75.228557
 11
11.065936
 21
74.728557
  0
LINE
  8
1
  6
CONTINUOUS
 10
15.230449
 20
75.228557
 11
15.230449
 21
74.728557
  0
LINE
  8
1
  6
CONTINUOUS
 10
18.218572
 20
75.228557
 11
18.218572
 21
74.728557
  0
LINE
  8
1
  6
CONTINUOUS
 10
19.263388
 20
75.228557
 11
19.263388
 21
74.728557
  0
LINE
  8
1
  6
CONTINUOUS
 10
20.308204
 20
75.228557
 11
20.308204
 21
74.728557
  0
LINE
  8
1
  6
CONTINUOUS
 10
21.353020
 20
75.228557
 11
21.353020
 21
74.728557
  0
LINE
  8
1
  6
CONTINUOUS
 10
21.353020
 20
74.728557
 11
21.353020
 21
75.228557
  0
LINE
  8
1
  6
CONTINUOUS
 10
21.353020
 20
75.228557
 11
21.353020
 21
74.728556
  0
LINE
  8
1
  6
CONTINUOUS
 10
22.920244
 20
75.228557
 11
22.920244
 21
74.728557
  0
LINE
  8
1
  6
CONTINUOUS
 10
24.487468
 20
75.228557
 11
24.487468
 21
74.728557
  0
LINE
  8
1
  6
CONTINUOUS
 10
5.063740
 20
74.728556
 11
5.063740
 21
74.228556
  0
LINE
  8
1
  6
CONTINUOUS
 10
5.063740
 20
74.228556
 11
24.487468
 21
74.228556
  0
LINE
  8
1
  6
CONTINUOUS
 10
7.552856
 20
74.728556
 11
7.552856
 21
74.228556
  0
LINE
  8
1
  6
CONTINUOUS
 10
9.690569
 20
74.728556
 11
9.690569
 21
74.228556
  0
LINE
  8
1
  6
CONTINUOUS
 10
11.065936
 20
74.728556
 11
11.065936
 21
74.228556
  0
LINE
  8
1
  6
CONTINUOUS
 10
15.230449
 20
74.728556
 11
15.230449
 21
74.228556
  0
LINE
  8
1
  6
CONTINUOUS
 10
18.218572
 20
74.728556
 11
18.218572
 21
74.228556
  0
LINE
  8
1
  6
CONTINUOUS
 10
19.263388
 20
74.728556
 11
19.263388
 21
74.228556
  0
LINE
  8
1
  6
CONTINUOUS
 10
20.308204
 20
74.728556
 11
20.308204
 21
74.228556
  0
LINE
  8
1
  6
CONTINUOUS
 10
21.353020
 20
74.728556
 11
21.353020
 21
74.228556
  0
LINE
  8
1
  6
CONTINUOUS
 10
21.353020
 20
74.228556
 11
21.353020
 21
74.728556
  0
LINE
  8
1
  6
CONTINUOUS
 10
21.353020
 20
74.728556
 11
21.353020
 21
74.228556
  0
LINE
  8
1
  6
CONTINUOUS
 10
22.920244
 20
74.728556
 11
22.920244
 21
74.228556
  0
LINE
  8
1
  6
CONTINUOUS
 10
24.487468
 20
74.728556
 11
24.487468
 21
74.228556
  0
LINE
  8
1
  6
CONTINUOUS
 10
5.063740
 20
74.228555
 11
5.063740
 21
73.728555
  0
LINE
  8
1
  6
CONTINUOUS
 10
5.063740
 20
73.728555
 11
24.487468
 21
73.728555
  0
LINE
  8
1
  6
CONTINUOUS
 10
7.552856
 20
74.228555
 11
7.552856
 21
73.728555
  0
LINE
  8
1
  6
CONTINUOUS
 10
9.690569
 20
74.228555
 11
9.690569
 21
73.728555
  0
LINE
  8
1
  6
CONTINUOUS
 10
11.065936
 20
74.228555
 11
11.065936
 21
73.728555
  0
LINE
  8
1
  6
CONTINUOUS
 10
15.230449
 20
74.228555
 11
15.230449
 21
73.728555
  0
LINE
  8
1
  6
CONTINUOUS
 10
18.218572
 20
74.228555
 11
18.218572
 21
73.728555
  0
LINE
  8
1
  6
CONTINUOUS
 10
19.263388
 20
74.228555
 11
19.263388
 21
73.728555
  0
LINE
  8
1
  6
CONTINUOUS
 10
20.308204
 20
74.228555
 11
20.308204
 21
73.728555
  0
LINE
  8
1
  6
CONTINUOUS
 10
21.353020
 20
74.228555
 11
21.353020
 21
73.728555
  0
LINE
  8
1
  6
CONTINUOUS
 10
21.353020
 20
73.728555
 11
21.353020
 21
74.228555
  0
LINE
  8
1
  6
CONTINUOUS
 10
21.353020
 20
74.228556
 11
21.353020
 21
73.728555
  0
LINE
  8
1
  6
CONTINUOUS
 10
22.920244
 20
74.228555
 11
22.920244
 21
73.728555
  0
LINE
  8
1
  6
CONTINUOUS
 10
24.487468
 20
74.228555
 11
24.487468
 21
73.728555
  0
LINE
  8
1
  6
CONTINUOUS
 10
5.063740
 20
73.091203
 11
18.346832
 21
73.091203
  0
LINE
  8
1
  6
CONTINUOUS
 10
5.063740
 20
71.728555
 11
18.346832
 21
71.728555
  0
LINE
  8
1
  6
CONTINUOUS
 10
5.063740
 20
71.228555
 11
13.985449
 21
71.228555
  0
LINE
  8
1
  6
CONTINUOUS
 10
13.985449
 20
71.228555
 11
16.173572
 21
71.228555
  0
LINE
  8
1
  6
CONTINUOUS
 10
15.553552
 20
71.228555
 11
16.598368
 21
71.228555
  0
LINE
  8
1
  6
CONTINUOUS
 10
16.598368
 20
71.228555
 11
18.263204
 21
71.228555
  0
LINE
  8
1
  6
CONTINUOUS
 10
18.263204
 20
71.228555
 11
18.346832
 21
71.228555
  0
LINE
  8
1
  6
CONTINUOUS
 10
5.063740
 20
73.091203
 11
5.063740
 21
70.228555
  0
LINE
  8
1
  6
CONTINUOUS
 10
5.063740
 20
70.228555
 11
18.346832
 21
70.228555
  0
LINE
  8
1
  6
CONTINUOUS
 10
7.201452
 20
71.228555
 11
7.201452
 21
70.228555
  0
LINE
  8
1
  6
CONTINUOUS
 10
9.389576
 20
70.228555
 11
9.389576
 21
71.228555
  0
LINE
  8
1
  6
CONTINUOUS
 10
16.257200
 20
71.228555
 11
16.257200
 21
70.228555
  0
LINE
  8
1
  6
CONTINUOUS
 10
17.302017
 20
71.228555
 11
17.302017
 21
70.228555
  0
LINE
  8
1
  6
CONTINUOUS
 10
11.092388
 20
70.228555
 11
11.092388
 21
70.728555
  0
LINE
  8
1
  6
CONTINUOUS
 10
18.346832
 20
70.228555
 11
18.346832
 21
73.091203
  0
LINE
  8
1
  6
CONTINUOUS
 10
9.389576
 20
70.728555
 11
15.212385
 21
70.728555
  0
LINE
  8
1
  6
CONTINUOUS
 10
15.212385
 20
70.228555
 11
15.212385
 21
71.728555
  0
LINE
  8
1
  6
CONTINUOUS
 10
13.152387
 20
70.228555
 11
13.152387
 21
70.728555
  0
LINE
  8
1
  6
CONTINUOUS
 10
5.063740
 20
70.228554
 11
5.063740
 21
69.728554
  0
LINE
  8
1
  6
CONTINUOUS
 10
7.201452
 20
70.228554
 11
7.201452
 21
69.728554
  0
LINE
  8
1
  6
CONTINUOUS
 10
9.389576
 20
70.228554
 11
9.389576
 21
69.728554
  0
LINE
  8
1
  6
CONTINUOUS
 10
5.063740
 20
69.728554
 11
18.346832
 21
69.728554
  0
LINE
  8
1
  6
CONTINUOUS
 10
15.212385
 20
70.228555
 11
15.212385
 21
69.728555
  0
LINE
  8
1
  6
CONTINUOUS
 10
16.257200
 20
70.228555
 11
16.257200
 21
69.728555
  0
LINE
  8
1
  6
CONTINUOUS
 10
17.302017
 20
70.228555
 11
17.302017
 21
69.728555
  0
LINE
  8
1
  6
CONTINUOUS
 10
11.092388
 20
70.228555
 11
11.092388
 21
69.728554
  0
LINE
  8
1
  6
CONTINUOUS
 10
13.152387
 20
69.728554
 11
13.152387
 21
70.228555
  0
LINE
  8
1
  6
CONTINUOUS
 10
15.212385
 20
69.728554
 11
15.212385
 21
70.228555
  0
LINE
  8
1
  6
CONTINUOUS
 10
18.346832
 20
70.228555
 11
18.346832
 21
69.728554
  0
LINE
  8
1
  6
CONTINUOUS
 10
5.063740
 20
69.728554
 11
5.063740
 21
69.228553
  0
LINE
  8
1
  6
CONTINUOUS
 10
7.201452
 20
69.728554
 11
7.201452
 21
69.228553
  0
LINE
  8
1
  6
CONTINUOUS
 10
9.389576
 20
69.728554
 11
9.389576
 21
69.228553
  0
LINE
  8
1
  6
CONTINUOUS
 10
5.063740
 20
69.228553
 11
18.346832
 21
69.228553
  0
LINE
  8
1
  6
CONTINUOUS
 10
15.212385
 20
69.728554
 11
15.212385
 21
69.228554
  0
LINE
  8
1
  6
CONTINUOUS
 10
16.257200
 20
69.728554
 11
16.257200
 21
69.228554
  0
LINE
  8
1
  6
CONTINUOUS
 10
17.302017
 20
69.728554
 11
17.302017
 21
69.228554
  0
LINE
  8
1
  6
CONTINUOUS
 10
11.092388
 20
69.728554
 11
11.092388
 21
69.228553
  0
LINE
  8
1
  6
CONTINUOUS
 10
13.152387
 20
69.228553
 11
13.152387
 21
69.728554
  0
LINE
  8
1
  6
CONTINUOUS
 10
15.212385
 20
69.228553
 11
15.212385
 21
69.728554
  0
LINE
  8
1
  6
CONTINUOUS
 10
18.346832
 20
69.728554
 11
18.346832
 21
69.228553
  0
LINE
  8
2
  6
CONTINUOUS
 10
101.700000
 20
23.900000
 11
101.700000
 21
23.900000
  0
LINE
  8
2
  6
CONTINUOUS
 10
118.000000
 20
23.900000
 11
118.000000
 21
23.900000
  0
LINE
  8
2
  6
CONTINUOUS
 10
118.000000
 20
23.900000
 11
101.700000
 21
23.900000
  0
LINE
  8
2
  6
CONTINUOUS
 10
118.000000
 20
22.200000
 11
101.700000
 21
22.200000
  0
LINE
  8
2
  6
CONTINUOUS
 10
101.700000
 20
23.900000
 11
101.700000
 21
22.200000
  0
LINE
  8
2
  6
CONTINUOUS
 10
118.000000
 20
22.200000
 11
118.000000
 21
23.900000
  0
LINE
  8
1
  6
CONTINUOUS
 10
118.000002
 20
29.700001
 11
119.000002
 21
29.700001
  0
LINE
  8
1
  6
CONTINUOUS
 10
118.000002
 20
59.400002
 11
119.000002
 21
59.400002
  0
LINE
  8
1
  6
CONTINUOUS
 10
0.000000
 20
29.700001
 11
2.500000
 21
29.700001
  0
LINE
  8
1
  6
CONTINUOUS
 10
0.000000
 20
59.400002
 11
2.500000
 21
59.400002
  0
LINE
  8
1
  6
CONTINUOUS
 10
100.500002
 20
82.999998
 11
100.500002
 21
83.999998
  0
LINE
  8
1
  6
CONTINUOUS
 10
82.000002
 20
82.999998
 11
82.000002
 21
83.999998
  0
LINE
  8
1
  6
CONTINUOUS
 10
63.500002
 20
82.999998
 11
63.500002
 21
83.999998
  0
LINE
  8
1
  6
CONTINUOUS
 10
45.000002
 20
82.999998
 11
45.000002
 21
83.999998
  0
LINE
  8
1
  6
CONTINUOUS
 10
33.050001
 20
82.999998
 11
33.050001
 21
83.999998
  0
LINE
  8
1
  6
CONTINUOUS
 10
21.100000
 20
82.999998
 11
21.100000
 21
83.999998
  0
LINE
  8
1
  6
CONTINUOUS
 10
100.500002
 20
0.000000
 11
100.500002
 21
1.000000
  0
LINE
  8
1
  6
CONTINUOUS
 10
82.000002
 20
0.000000
 11
82.000002
 21
1.000000
  0
LINE
  8
1
  6
CONTINUOUS
 10
63.500002
 20
0.000000
 11
63.500002
 21
1.000000
  0
LINE
  8
1
  6
CONTINUOUS
 10
45.000002
 20
0.000000
 11
45.000002
 21
1.000000
  0
LINE
  8
1
  6
CONTINUOUS
 10
33.050001
 20
0.000000
 11
33.050001
 21
1.000000
  0
LINE
  8
1
  6
CONTINUOUS
 10
21.100000
 20
0.000000
 11
21.100000
 21
1.000000
  0
LINE
  8
1
  6
CONTINUOUS
 10
0.000000
 20
0.000000
 11
119.000002
 21
0.000000
  0
LINE
  8
1
  6
CONTINUOUS
 10
119.000002
 20
0.000000
 11
119.000002
 21
83.999998
  0
LINE
  8
1
  6
CONTINUOUS
 10
0.000000
 20
0.000000
 11
0.000000
 21
83.999998
  0
LINE
  8
8
  6
CONTINUOUS
 10
2.500000
 20
1.000000
 11
118.000002
 21
1.000000
  0
LINE
  8
8
  6
CONTINUOUS
 10
118.000002
 20
1.000000
 11
118.000002
 21
82.999998
  0
LINE
  8
1
  6
CONTINUOUS
 10
0.000000
 20
83.999998
 11
119.000002
 21
83.999998
  0
LINE
  8
8
  6
CONTINUOUS
 10
2.500000
 20
82.999998
 11
118.000002
 21
82.999998
  0
LINE
  8
8
  6
CONTINUOUS
 10
2.500000
 20
82.999998
 11
2.500000
 21
1.000000
  0
LINE
  8
2
  6
CONTINUOUS
 10
102.650002
 20
17.625000
 11
102.650002
 21
18.125000
  0
LINE
  8
1
  6
CONTINUOUS
 10
101.700002
 20
18.200000
 11
118.000002
 21
18.200000
  0
LINE
  8
1
  6
CONTINUOUS
 10
101.700002
 20
17.700000
 11
118.000002
 21
17.700000
  0
LINE
  8
1
  6
CONTINUOUS
 10
102.200002
 20
17.700000
 11
118.000002
 21
17.700000
  0
LINE
  8
2
  6
CONTINUOUS
 10
102.650002
 20
17.125000
 11
102.650002
 21
17.625000
  0
LINE
  8
1
  6
CONTINUOUS
 10
102.200002
 20
17.700000
 11
118.000002
 21
17.700000
  0
LINE
  8
1
  6
CONTINUOUS
 10
101.700002
 20
17.200000
 11
118.000002
 21
17.200000
  0
LINE
  8
2
  6
CONTINUOUS
 10
102.650002
 20
16.700000
 11
102.650002
 21
17.200000
  0
LINE
  8
1
  6
CONTINUOUS
 10
116.008223
 20
16.000000
 11
116.008223
 21
22.200000
  0
LINE
  8
1
  6
CONTINUOUS
 10
104.850002
 20
16.000000
 11
104.850002
 21
22.200000
  0
LINE
  8
6
  6
CONTINUOUS
 10
101.700002
 20
16.000000
 11
118.000002
 21
16.000000
  0
LINE
  8
1
  6
CONTINUOUS
 10
102.650002
 20
16.000000
 11
102.650002
 21
16.700000
  0
LINE
  8
1
  6
CONTINUOUS
 10
102.200002
 20
17.200000
 11
118.000002
 21
17.200000
  0
LINE
  8
1
  6
CONTINUOUS
 10
101.700002
 20
16.700000
 11
118.000002
 21
16.700000
  0
LINE
  8
2
  6
CONTINUOUS
 10
102.650002
 20
18.625000
 11
102.650002
 21
22.200000
  0
LINE
  8
6
  6
CONTINUOUS
 10
101.700002
 20
22.200000
 11
118.000002
 21
22.200000
  0
LINE
  8
1
  6
CONTINUOUS
 10
101.700002
 20
18.700000
 11
118.000002
 21
18.700000
  0
LINE
  8
1
  6
CONTINUOUS
 10
102.200002
 20
18.700000
 11
118.000002
 21
18.700000
  0
LINE
  8
2
  6
CONTINUOUS
 10
102.650002
 20
18.125000
 11
102.650002
 21
18.625000
  0
LINE
  8
1
  6
CONTINUOUS
 10
102.200002
 20
18.700000
 11
118.000002
 21
18.700000
  0
LINE
  8
1
  6
CONTINUOUS
 10
102.200002
 20
18.200000
 11
118.000002
 21
18.200000
  0
LINE
  8
1
  6
CONTINUOUS
 10
102.200002
 20
18.200000
 11
118.000002
 21
18.200000
  0
LINE
  8
6
  6
CONTINUOUS
 10
101.700002
 20
6.600000
 11
118.000002
 21
6.600000
  0
LINE
  8
6
  6
CONTINUOUS
 10
101.700002
 20
8.500000
 11
118.000002
 21
8.500000
  0
LINE
  8
6
  6
CONTINUOUS
 10
101.700002
 20
1.000000
 11
101.700002
 21
8.500000
  0
LINE
  8
6
  6
CONTINUOUS
 10
101.700002
 20
16.000000
 11
101.700002
 21
22.200000
  0
LINE
  8
6
  6
CONTINUOUS
 10
101.700002
 20
15.900000
 11
118.000002
 21
15.900000
  0
LINE
  8
6
  6
CONTINUOUS
 10
101.700002
 20
11.400000
 11
101.700002
 21
15.900000
  0
LINE
  8
1
  6
CONTINUOUS
 10
101.700002
 20
14.400000
 11
118.000002
 21
14.400000
  0
LINE
  8
6
  6
CONTINUOUS
 10
101.700002
 20
3.000000
 11
118.000002
 21
3.000000
  0
LINE
  8
6
  6
CONTINUOUS
 10
105.024321
 20
3.000000
 11
105.024321
 21
1.000000
  0
LINE
  8
1
  6
CONTINUOUS
 10
101.700002
 20
12.900000
 11
118.000002
 21
12.900000
  0
POLYLINE
  8
1
  6
CONTINUOUS
 66
     1
  0
VERTEX
  8
1
  6
CONTINUOUS
 10
103.635546
 20
9.498246
  0
VERTEX
  8
1
  6
CONTINUOUS
 10
101.971546
 20
9.498246
  0
VERTEX
  8
1
  6
CONTINUOUS
 10
101.971546
 20
11.162246
  0
VERTEX
  8
1
  6
CONTINUOUS
 10
103.635546
 20
11.162246
  0
VERTEX
  8
1
  6
CONTINUOUS
 10
103.635546
 20
9.498246
  0
SEQEND
  8
1
  6
CONTINUOUS
  0
POLYLINE
  8
13
  6
CONTINUOUS
 66
     1
  0
VERTEX
  8
13
  6
CONTINUOUS
 10
102.095046
 20
10.244446
  0
VERTEX
  8
13
  6
CONTINUOUS
 10
102.095046
 20
9.498246
  0
VERTEX
  8
13
  6
CONTINUOUS
 10
101.971546
 20
9.498246
  0
VERTEX
  8
13
  6
CONTINUOUS
 10
101.971546
 20
11.162246
  0
VERTEX
  8
13
  6
CONTINUOUS
 10
102.095046
 20
11.162246
  0
VERTEX
  8
13
  6
CONTINUOUS
 10
102.095046
 20
10.244446
  0
SEQEND
  8
13
  6
CONTINUOUS
  0
POLYLINE
  8
13
  6
CONTINUOUS
 66
     1
  0
VERTEX
  8
13
  6
CONTINUOUS
 10
102.522746
 20
10.230979
  0
VERTEX
  8
13
  6
CONTINUOUS
 10
102.522746
 20
9.498246
  0
VERTEX
  8
13
  6
CONTINUOUS
 10
102.095046
 20
9.498246
  0
VERTEX
  8
13
  6
CONTINUOUS
 10
102.095046
 20
10.244446
  0
VERTEX
  8
13
  6
CONTINUOUS
 10
102.143544
 20
10.248642
  0
VERTEX
  8
13
  6
CONTINUOUS
 10
102.211078
 20
10.252071
  0
VERTEX
  8
13
  6
CONTINUOUS
 10
102.259959
 20
10.252484
  0
VERTEX
  8
13
  6
CONTINUOUS
 10
102.290321
 20
10.252141
  0
VERTEX
  8
13
  6
CONTINUOUS
 10
102.334203
 20
10.250668
  0
VERTEX
  8
13
  6
CONTINUOUS
 10
102.394518
 20
10.246747
  0
VERTEX
  8
13
  6
CONTINUOUS
 10
102.446340
 20
10.241621
  0
VERTEX
  8
13
  6
CONTINUOUS
 10
102.490083
 20
10.235974
  0
VERTEX
  8
13
  6
CONTINUOUS
 10
102.522746
 20
10.230979
  0
SEQEND
  8
13
  6
CONTINUOUS
  0
POLYLINE
  8
13
  6
CONTINUOUS
 66
     1
  0
VERTEX
  8
13
  6
CONTINUOUS
 10
102.594246
 20
10.217654
  0
VERTEX
  8
13
  6
CONTINUOUS
 10
102.594246
 20
9.498246
  0
VERTEX
  8
13
  6
CONTINUOUS
 10
103.021946
 20
9.498246
  0
VERTEX
  8
13
  6
CONTINUOUS
 10
103.021946
 20
10.064184
  0
VERTEX
  8
13
  6
CONTINUOUS
 10
103.003898
 20
10.073542
  0
VERTEX
  8
13
  6
CONTINUOUS
 10
102.981716
 20
10.084501
  0
VERTEX
  8
13
  6
CONTINUOUS
 10
102.953307
 20
10.098271
  0
VERTEX
  8
13
  6
CONTINUOUS
 10
102.912865
 20
10.116383
  0
VERTEX
  8
13
  6
CONTINUOUS
 10
102.885024
 20
10.128001
  0
VERTEX
  8
13
  6
CONTINUOUS
 10
102.844071
 20
10.144755
  0
VERTEX
  8
13
  6
CONTINUOUS
 10
102.813490
 20
10.155923
  0
VERTEX
  8
13
  6
CONTINUOUS
 10
102.778388
 20
10.168156
  0
VERTEX
  8
13
  6
CONTINUOUS
 10
102.744083
 20
10.178793
  0
VERTEX
  8
13
  6
CONTINUOUS
 10
102.703465
 20
10.191172
  0
VERTEX
  8
13
  6
CONTINUOUS
 10
102.665141
 20
10.201162
  0
VERTEX
  8
13
  6
CONTINUOUS
 10
102.624819
 20
10.210970
  0
VERTEX
  8
13
  6
CONTINUOUS
 10
102.594246
 20
10.217654
  0
SEQEND
  8
13
  6
CONTINUOUS
  0
POLYLINE
  8
13
  6
CONTINUOUS
 66
     1
  0
VERTEX
  8
13
  6
CONTINUOUS
 10
103.093446
 20
10.024343
  0
VERTEX
  8
13
  6
CONTINUOUS
 10
103.093446
 20
9.498246
  0
VERTEX
  8
13
  6
CONTINUOUS
 10
103.521146
 20
9.498246
  0
VERTEX
  8
13
  6
CONTINUOUS
 10
103.521146
 20
9.661030
  0
VERTEX
  8
13
  6
CONTINUOUS
 10
103.507797
 20
9.676793
  0
VERTEX
  8
13
  6
CONTINUOUS
 10
103.495964
 20
9.690528
  0
VERTEX
  8
13
  6
CONTINUOUS
 10
103.473877
 20
9.715277
  0
VERTEX
  8
13
  6
CONTINUOUS
 10
103.454164
 20
9.736530
  0
VERTEX
  8
13
  6
CONTINUOUS
 10
103.434048
 20
9.757502
  0
VERTEX
  8
13
  6
CONTINUOUS
 10
103.410015
 20
9.781535
  0
VERTEX
  8
13
  6
CONTINUOUS
 10
103.399294
 20
9.791943
  0
VERTEX
  8
13
  6
CONTINUOUS
 10
103.388429
 20
9.802406
  0
VERTEX
  8
13
  6
CONTINUOUS
 10
103.359952
 20
9.828752
  0
VERTEX
  8
13
  6
CONTINUOUS
 10
103.325139
 20
9.859181
  0
VERTEX
  8
13
  6
CONTINUOUS
 10
103.286846
 20
9.890826
  0
VERTEX
  8
13
  6
CONTINUOUS
 10
103.251036
 20
9.918745
  0
VERTEX
  8
13
  6
CONTINUOUS
 10
103.200839
 20
9.955427
  0
VERTEX
  8
13
  6
CONTINUOUS
 10
103.134352
 20
9.999676
  0
VERTEX
  8
13
  6
CONTINUOUS
 10
103.093446
 20
10.024343
  0
SEQEND
  8
13
  6
CONTINUOUS
  0
POLYLINE
  8
13
  6
CONTINUOUS
 66
     1
  0
VERTEX
  8
13
  6
CONTINUOUS
 10
102.522746
 20
10.635283
  0
VERTEX
  8
13
  6
CONTINUOUS
 10
102.522746
 20
11.162246
  0
VERTEX
  8
13
  6
CONTINUOUS
 10
102.095046
 20
11.162246
  0
VERTEX
  8
13
  6
CONTINUOUS
 10
102.095046
 20
10.995122
  0
VERTEX
  8
13
  6
CONTINUOUS
 10
102.153689
 20
10.929235
  0
VERTEX
  8
13
  6
CONTINUOUS
 10
102.237359
 20
10.846559
  0
VERTEX
  8
13
  6
CONTINUOUS
 10
102.308389
 20
10.784730
  0
VERTEX
  8
13
  6
CONTINUOUS
 10
102.366624
 20
10.739274
  0
VERTEX
  8
13
  6
CONTINUOUS
 10
102.406322
 20
10.710064
  0
VERTEX
  8
13
  6
CONTINUOUS
 10
102.455827
 20
10.676682
  0
VERTEX
  8
13
  6
CONTINUOUS
 10
102.493954
 20
10.652515
  0
VERTEX
  8
13
  6
CONTINUOUS
 10
102.522746
 20
10.635283
  0
SEQEND
  8
13
  6
CONTINUOUS
  0
POLYLINE
  8
13
  6
CONTINUOUS
 66
     1
  0
VERTEX
  8
13
  6
CONTINUOUS
 10
103.021946
 20
10.443678
  0
VERTEX
  8
13
  6
CONTINUOUS
 10
103.021946
 20
11.162246
  0
VERTEX
  8
13
  6
CONTINUOUS
 10
102.594246
 20
11.162246
  0
VERTEX
  8
13
  6
CONTINUOUS
 10
102.594246
 20
10.595859
  0
VERTEX
  8
13
  6
CONTINUOUS
 10
102.663800
 20
10.561766
  0
VERTEX
  8
13
  6
CONTINUOUS
 10
102.744359
 20
10.527375
  0
VERTEX
  8
13
  6
CONTINUOUS
 10
102.812197
 20
10.501464
  0
VERTEX
  8
13
  6
CONTINUOUS
 10
102.889458
 20
10.476967
  0
VERTEX
  8
13
  6
CONTINUOUS
 10
102.950702
 20
10.460007
  0
VERTEX
  8
13
  6
CONTINUOUS
 10
103.021946
 20
10.443678
  0
SEQEND
  8
13
  6
CONTINUOUS
  0
POLYLINE
  8
13
  6
CONTINUOUS
 66
     1
  0
VERTEX
  8
13
  6
CONTINUOUS
 10
103.093446
 20
10.430307
  0
VERTEX
  8
13
  6
CONTINUOUS
 10
103.093446
 20
11.162246
  0
VERTEX
  8
13
  6
CONTINUOUS
 10
103.521146
 20
11.162246
  0
VERTEX
  8
13
  6
CONTINUOUS
 10
103.521146
 20
10.417580
  0
VERTEX
  8
13
  6
CONTINUOUS
 10
103.476372
 20
10.413637
  0
VERTEX
  8
13
  6
CONTINUOUS
 10
103.416577
 20
10.410480
  0
VERTEX
  8
13
  6
CONTINUOUS
 10
103.366788
 20
10.409453
  0
VERTEX
  8
13
  6
CONTINUOUS
 10
103.336830
 20
10.409453
  0
VERTEX
  8
13
  6
CONTINUOUS
 10
103.286182
 20
10.410821
  0
VERTEX
  8
13
  6
CONTINUOUS
 10
103.241261
 20
10.413321
  0
VERTEX
  8
13
  6
CONTINUOUS
 10
103.205545
 20
10.416539
  0
VERTEX
  8
13
  6
CONTINUOUS
 10
103.155349
 20
10.421044
  0
VERTEX
  8
13
  6
CONTINUOUS
 10
103.093446
 20
10.430307
  0
SEQEND
  8
13
  6
CONTINUOUS
  0
POLYLINE
  8
13
  6
CONTINUOUS
 66
     1
  0
VERTEX
  8
13
  6
CONTINUOUS
 10
102.522746
 20
9.498246
  0
VERTEX
  8
13
  6
CONTINUOUS
 10
102.594246
 20
9.498246
  0
VERTEX
  8
13
  6
CONTINUOUS
 10
102.594246
 20
11.162246
  0
VERTEX
  8
13
  6
CONTINUOUS
 10
102.522746
 20
11.162246
  0
VERTEX
  8
13
  6
CONTINUOUS
 10
102.522746
 20
9.498246
  0
VERTEX
  8
13
  6
CONTINUOUS
 10
102.594246
 20
9.498246
  0
SEQEND
  8
13
  6
CONTINUOUS
  0
POLYLINE
  8
13
  6
CONTINUOUS
 66
     1
  0
VERTEX
  8
13
  6
CONTINUOUS
 10
103.021946
 20
11.162246
  0
VERTEX
  8
13
  6
CONTINUOUS
 10
103.093446
 20
11.162246
  0
VERTEX
  8
13
  6
CONTINUOUS
 10
103.093446
 20
9.498246
  0
VERTEX
  8
13
  6
CONTINUOUS
 10
103.021946
 20
9.498246
  0
VERTEX
  8
13
  6
CONTINUOUS
 10
103.021946
 20
11.162246
  0
SEQEND
  8
13
  6
CONTINUOUS
  0
POLYLINE
  8
13
  6
CONTINUOUS
 66
     1
  0
VERTEX
  8
13
  6
CONTINUOUS
 10
103.521146
 20
9.498246
  0
VERTEX
  8
13
  6
CONTINUOUS
 10
103.635546
 20
9.498246
  0
VERTEX
  8
13
  6
CONTINUOUS
 10
103.635546
 20
11.162246
  0
VERTEX
  8
13
  6
CONTINUOUS
 10
103.521146
 20
11.162246
  0
VERTEX
  8
13
  6
CONTINUOUS
 10
103.521146
 20
9.498246
  0
SEQEND
  8
13
  6
CONTINUOUS
  0
LINE
  8
6
  6
CONTINUOUS
 10
107.924321
 20
3.000000
 11
107.924321
 21
2.000000
  0
LINE
  8
6
  6
CONTINUOUS
 10
101.700002
 20
2.000000
 11
114.124321
 21
2.000000
  0
LINE
  8
6
  6
CONTINUOUS
 10
114.124321
 20
3.000000
 11
114.124321
 21
1.000000
  0
LINE
  8
6
  6
CONTINUOUS
 10
101.700002
 20
8.600000
 11
118.000002
 21
8.600000
  0
LINE
  8
6
  6
CONTINUOUS
 10
101.700002
 20
8.600000
 11
101.700002
 21
11.300000
  0
LINE
  8
6
  6
CONTINUOUS
 10
101.700002
 20
11.300000
 11
118.000002
 21
11.300000
  0
LINE
  8
6
  6
CONTINUOUS
 10
101.700002
 20
11.400000
 11
118.000002
 21
11.400000
  0
LINE
  8
1
  6
CONTINUOUS
 10
101.700002
 20
19.200000
 11
118.000002
 21
19.200000
  0
LINE
  8
1
  6
CONTINUOUS
 10
102.200002
 20
19.200000
 11
118.000002
 21
19.200000
  0
LINE
  8
1
  6
CONTINUOUS
 10
102.200002
 20
19.200000
 11
118.000002
 21
19.200000
  0
LINE
  8
1
  6
CONTINUOUS
 10
101.700002
 20
19.700000
 11
118.000002
 21
19.700000
  0
LINE
  8
1
  6
CONTINUOUS
 10
102.200002
 20
19.700000
 11
118.000002
 21
19.700000
  0
LINE
  8
1
  6
CONTINUOUS
 10
102.200002
 20
19.700000
 11
118.000002
 21
19.700000
  0
LINE
  8
1
  6
CONTINUOUS
 10
101.700002
 20
20.200000
 11
118.000002
 21
20.200000
  0
LINE
  8
1
  6
CONTINUOUS
 10
102.200002
 20
20.200000
 11
118.000002
 21
20.200000
  0
LINE
  8
1
  6
CONTINUOUS
 10
102.200002
 20
20.200000
 11
118.000002
 21
20.200000
  0
LINE
  8
1
  6
CONTINUOUS
 10
101.700002
 20
20.700000
 11
118.000002
 21
20.700000
  0
LINE
  8
1
  6
CONTINUOUS
 10
102.200002
 20
20.700000
 11
118.000002
 21
20.700000
  0
LINE
  8
1
  6
CONTINUOUS
 10
102.200002
 20
20.700000
 11
118.000002
 21
20.700000
  0
LINE
  8
1
  6
CONTINUOUS
 10
101.700002
 20
21.200000
 11
118.000002
 21
21.200000
  0
LINE
  8
1
  6
CONTINUOUS
 10
102.200002
 20
21.200000
 11
118.000002
 21
21.200000
  0
LINE
  8
1
  6
CONTINUOUS
 10
102.200002
 20
21.200000
 11
118.000002
 21
21.200000
  0
LINE
  8
1
  6
CONTINUOUS
 10
101.700002
 20
21.700000
 11
118.000002
 21
21.700000
  0
LINE
  8
6
  6
CONTINUOUS
 10
110.708935
 20
11.300000
 11
110.708935
 21
8.600000
  0
TEXT
  8
1
  6
CONTINUOUS
 10
51.832069
 20
28.164238
 40
0.250000
 50
90.000000
  1
L4
  7
TQS_CALIBRI
  0
TEXT
  8
1
  6
CONTINUOUS
 10
57.200181
 20
27.622091
 40
0.250000
 50
90.000000
  1
L5
  7
TQS_CALIBRI
  0
TEXT
  8
1
  6
CONTINUOUS
 10
41.059985
 20
29.921417
 40
0.250000
 50
90.000000
  1
L3
  7
TQS_CALIBRI
  0
TEXT
  8
1
  6
CONTINUOUS
 10
25.391961
 20
30.478727
 40
0.250000
 50
90.000000
  1
L1
  7
TQS_CALIBRI
  0
TEXT
  8
1
  6
CONTINUOUS
 10
35.519479
 20
29.446623
 40
0.250000
 50
90.000000
  1
L2
  7
TQS_CALIBRI
  0
TEXT
  8
1
  6
CONTINUOUS
 10
77.422557
 20
15.511669
 40
0.250000
 50
90.000000
  1
P125
  7
TQS_CALIBRI
  0
TEXT
  8
1
  6
CONTINUOUS
 10
78.338533
 20
26.332629
 40
0.250000
 50
90.000000
  1
P126
  7
TQS_CALIBRI
  0
TEXT
  8
1
  6
CONTINUOUS
 10
79.214961
 20
36.686379
 40
0.250000
 50
90.000000
  1
P127
  7
TQS_CALIBRI
  0
TEXT
  8
1
  6
CONTINUOUS
 10
60.815283
 20
16.917442
 40
0.250000
 50
90.000000
  1
P119
  7
TQS_CALIBRI
  0
TEXT
  8
1
  6
CONTINUOUS
 10
61.904359
 20
27.807381
 40
0.250000
 50
90.000000
  1
P120
  7
TQS_CALIBRI
  0
TEXT
  8
1
  6
CONTINUOUS
 10
62.773759
 20
38.078095
 40
0.250000
 50
90.000000
  1
P121
  7
TQS_CALIBRI
  0
TEXT
  8
1
  6
CONTINUOUS
 10
44.179895
 20
17.962956
 40
0.250000
 50
90.000000
  1
P111
  7
TQS_CALIBRI
  0
TEXT
  8
1
  6
CONTINUOUS
 10
45.180209
 20
29.780353
 40
0.250000
 50
90.000000
  1
P113
  7
TQS_CALIBRI
  0
TEXT
  8
1
  6
CONTINUOUS
 10
46.056637
 20
40.134103
 40
0.250000
 50
90.000000
  1
P114
  7
TQS_CALIBRI
  0
TEXT
  8
1
  6
CONTINUOUS
 10
15.202830
 20
20.415782
 40
0.250000
 50
90.000000
  1
P99
  7
TQS_CALIBRI
  0
TEXT
  8
1
  6
CONTINUOUS
 10
16.203144
 20
32.233179
 40
0.250000
 50
90.000000
  1
P100
  7
TQS_CALIBRI
  0
TEXT
  8
1
  6
CONTINUOUS
 10
94.296578
 20
14.279125
 40
0.250000
 50
90.000000
  1
P131
  7
TQS_CALIBRI
  0
TEXT
  8
1
  6
CONTINUOUS
 10
95.168014
 20
24.574912
 40
0.250000
 50
90.000000
  1
P132
  7
TQS_CALIBRI
  0
TEXT
  8
1
  6
CONTINUOUS
 10
96.039511
 20
34.871427
 40
0.250000
 50
90.000000
  1
P133
  7
TQS_CALIBRI
  0
TEXT
  8
1
  6
CONTINUOUS
 10
13.240643
 20
10.545922
 40
0.250000
 50
90.000000
  1
P98
  7
TQS_CALIBRI
  0
TEXT
  8
1
  6
CONTINUOUS
 10
96.956973
 20
45.750028
 40
0.250000
 50
90.000000
  1
P134
  7
TQS_CALIBRI
  0
TEXT
  8
1
  6
CONTINUOUS
 10
87.125611
 20
46.526034
 40
0.250000
 50
90.000000
  1
P129
  7
TQS_CALIBRI
  0
TEXT
  8
1
  6
CONTINUOUS
 10
76.330871
 20
47.439649
 40
0.250000
 50
90.000000
  1
P124
  7
TQS_CALIBRI
  0
TEXT
  8
1
  6
CONTINUOUS
 10
67.196860
 20
48.212708
 40
0.250000
 50
90.000000
  1
P122
  7
TQS_CALIBRI
  0
TEXT
  8
1
  6
CONTINUOUS
 10
26.279399
 20
51.675779
 40
0.250000
 50
90.000000
  1
P104
  7
TQS_CALIBRI
  0
TEXT
  8
1
  6
CONTINUOUS
 10
16.694704
 20
52.486979
 40
0.250000
 50
90.000000
  1
P101
  7
TQS_CALIBRI
  0
TEXT
  8
1
  6
CONTINUOUS
 10
7.892847
 20
53.288135
 40
0.250000
 50
90.000000
  1
P97
  7
TQS_CALIBRI
  0
TEXT
  8
1
  6
CONTINUOUS
 10
6.045985
 20
21.128041
 40
0.250000
 50
90.000000
  1
P93
  7
TQS_CALIBRI
  0
TEXT
  8
1
  6
CONTINUOUS
 10
5.581587
 20
39.329048
 40
0.250000
 50
90.000000
  1
P95
  7
TQS_CALIBRI
  0
TEXT
  8
1
  6
CONTINUOUS
 10
5.605875
 20
51.745691
 40
0.250000
 50
90.000000
  1
P96
  7
TQS_CALIBRI
  0
TEXT
  8
1
  6
CONTINUOUS
 10
59.268116
 20
48.939989
 40
0.250000
 50
90.000000
  1
P117
  7
TQS_CALIBRI
  0
TEXT
  8
1
  6
CONTINUOUS
 10
20.755442
 20
9.909888
 40
0.250000
 50
90.000000
  1
P103
  7
TQS_CALIBRI
  0
TEXT
  8
1
  6
CONTINUOUS
 10
70.504645
 20
5.197068
 40
0.250000
 50
90.000000
  1
P123
  7
TQS_CALIBRI
  0
TEXT
  8
1
  6
CONTINUOUS
 10
80.469021
 20
4.353735
 40
0.250000
 50
90.000000
  1
P128
  7
TQS_CALIBRI
  0
TEXT
  8
1
  6
CONTINUOUS
 10
93.365189
 20
3.261973
 40
0.250000
 50
90.000000
  1
P130
  7
TQS_CALIBRI
  0
TEXT
  8
1
  6
CONTINUOUS
 10
35.745553
 20
50.930688
 40
0.250000
 50
90.000000
  1
P109
  7
TQS_CALIBRI
  0
TEXT
  8
1
  6
CONTINUOUS
 10
50.092016
 20
7.455031
 40
0.250000
 50
90.000000
  1
P115
  7
TQS_CALIBRI
  0
TEXT
  8
1
  6
CONTINUOUS
 10
30.796940
 20
18.985155
 40
0.250000
 50
90.000000
  1
P106
  7
TQS_CALIBRI
  0
TEXT
  8
1
  6
CONTINUOUS
 10
31.797103
 20
30.802564
 40
0.250000
 50
90.000000
  1
P107
  7
TQS_CALIBRI
  0
TEXT
  8
1
  6
CONTINUOUS
 10
32.429718
 20
38.277300
 40
0.250000
 50
90.000000
  1
P108
  7
TQS_CALIBRI
  0
TEXT
  8
1
  6
CONTINUOUS
 10
17.037406
 20
42.088733
 40
0.250000
 50
90.000000
  1
P102
  7
TQS_CALIBRI
  0
TEXT
  8
1
  6
CONTINUOUS
 10
60.446101
 20
6.048841
 40
0.250000
 50
90.000000
  1
P304
  7
TQS_CALIBRI
  0
TEXT
  8
1
  6
CONTINUOUS
 10
5.566329
 20
31.529063
 40
0.250000
 50
90.000000
  1
P302
  7
TQS_CALIBRI
  0
TEXT
  8
1
  6
CONTINUOUS
 10
59.956838
 20
6.592041
 40
0.250000
 50
90.000000
  1
P118
  7
TQS_CALIBRI
  0
TEXT
  8
1
  6
CONTINUOUS
 10
30.086830
 20
9.120466
 40
0.250000
 50
90.000000
  1
P105
  7
TQS_CALIBRI
  0
TEXT
  8
1
  6
CONTINUOUS
 10
5.546963
 20
21.662415
 40
0.250000
 50
90.000000
  1
P301
  7
TQS_CALIBRI
  0
TEXT
  8
1
  6
CONTINUOUS
 10
6.028027
 20
11.947587
 40
0.250000
 50
90.000000
  1
P92
  7
TQS_CALIBRI
  0
TEXT
  8
1
  6
CONTINUOUS
 10
39.853844
 20
8.321784
 40
0.250000
 50
90.000000
  1
P110
  7
TQS_CALIBRI
  0
TEXT
  8
4
  6
CONTINUOUS
 10
14.742444
 20
31.099393
 40
0.250000
 50
445.162000
  1
C3
  7
TQS_CALIBRI
  0
TEXT
  8
4
  6
CONTINUOUS
 10
15.240663
 20
31.057223
 40
0.250000
 50
445.162000
  1
C4
  7
TQS_CALIBRI
  0
TEXT
  8
4
  6
CONTINUOUS
 10
15.738882
 20
31.015054
 40
0.250000
 50
445.162000
  1
C5
  7
TQS_CALIBRI
  0
TEXT
  8
4
  6
CONTINUOUS
 10
16.237100
 20
30.972885
 40
0.250000
 50
445.162000
  1
C6
  7
TQS_CALIBRI
  0
TEXT
  8
4
  6
CONTINUOUS
 10
30.295990
 20
29.782936
 40
0.250000
 50
445.162000
  1
C7
  7
TQS_CALIBRI
  0
TEXT
  8
4
  6
CONTINUOUS
 10
30.694564
 20
29.749201
 40
0.250000
 50
445.162000
  1
C8
  7
TQS_CALIBRI
  0
TEXT
  8
4
  6
CONTINUOUS
 10
31.093139
 20
29.715465
 40
0.250000
 50
445.162000
  1
C9
  7
TQS_CALIBRI
  0
TEXT
  8
4
  6
CONTINUOUS
 10
31.491714
 20
29.681730
 40
0.250000
 50
445.162000
  1
C10
  7
TQS_CALIBRI
  0
TEXT
  8
4
  6
CONTINUOUS
 10
31.890289
 20
29.647994
 40
0.250000
 50
445.162000
  1
C11
  7
TQS_CALIBRI
  0
TEXT
  8
4
  6
CONTINUOUS
 10
43.614892
 20
28.396489
 40
0.250000
 50
445.162000
  1
C12
  7
TQS_CALIBRI
  0
TEXT
  8
4
  6
CONTINUOUS
 10
43.947038
 20
28.368376
 40
0.250000
 50
445.162000
  1
C13
  7
TQS_CALIBRI
  0
TEXT
  8
4
  6
CONTINUOUS
 10
44.279184
 20
28.340263
 40
0.250000
 50
445.162000
  1
C14
  7
TQS_CALIBRI
  0
TEXT
  8
4
  6
CONTINUOUS
 10
44.611329
 20
28.312150
 40
0.250000
 50
445.162000
  1
C15
  7
TQS_CALIBRI
  0
TEXT
  8
4
  6
CONTINUOUS
 10
44.943475
 20
28.284037
 40
0.250000
 50
445.162000
  1
C16
  7
TQS_CALIBRI
  0
TEXT
  8
4
  6
CONTINUOUS
 10
45.275621
 20
28.255924
 40
0.250000
 50
445.162000
  1
C17
  7
TQS_CALIBRI
  0
TEXT
  8
4
  6
CONTINUOUS
 10
60.255294
 20
26.988011
 40
0.250000
 50
445.162000
  1
C18
  7
TQS_CALIBRI
  0
TEXT
  8
4
  6
CONTINUOUS
 10
60.653869
 20
26.954275
 40
0.250000
 50
445.162000
  1
C19
  7
TQS_CALIBRI
  0
TEXT
  8
4
  6
CONTINUOUS
 10
61.052444
 20
26.920540
 40
0.250000
 50
445.162000
  1
C20
  7
TQS_CALIBRI
  0
TEXT
  8
4
  6
CONTINUOUS
 10
61.451019
 20
26.886805
 40
0.250000
 50
445.162000
  1
C21
  7
TQS_CALIBRI
  0
TEXT
  8
4
  6
CONTINUOUS
 10
61.849594
 20
26.853069
 40
0.250000
 50
445.162000
  1
C22
  7
TQS_CALIBRI
  0
TEXT
  8
4
  6
CONTINUOUS
 10
76.696427
 20
25.596429
 40
0.250000
 50
445.162000
  1
C23
  7
TQS_CALIBRI
  0
TEXT
  8
4
  6
CONTINUOUS
 10
77.095002
 20
25.562693
 40
0.250000
 50
445.162000
  1
C24
  7
TQS_CALIBRI
  0
TEXT
  8
4
  6
CONTINUOUS
 10
77.493577
 20
25.528958
 40
0.250000
 50
445.162000
  1
C25
  7
TQS_CALIBRI
  0
TEXT
  8
4
  6
CONTINUOUS
 10
77.892152
 20
25.495222
 40
0.250000
 50
445.162000
  1
C26
  7
TQS_CALIBRI
  0
TEXT
  8
4
  6
CONTINUOUS
 10
78.290727
 20
25.461487
 40
0.250000
 50
445.162000
  1
C27
  7
TQS_CALIBRI
  0
TEXT
  8
4
  6
CONTINUOUS
 10
94.084250
 20
24.124718
 40
0.250000
 50
445.162000
  1
C28
  7
TQS_CALIBRI
  0
TEXT
  8
4
  6
CONTINUOUS
 10
94.516040
 20
24.088172
 40
0.250000
 50
445.162000
  1
C29
  7
TQS_CALIBRI
  0
TEXT
  8
4
  6
CONTINUOUS
 10
94.947829
 20
24.051625
 40
0.250000
 50
445.162000
  1
C30
  7
TQS_CALIBRI
  0
TEXT
  8
4
  6
CONTINUOUS
 10
6.025531
 20
31.835711
 40
0.250000
 50
449.887905
  1
C1
  7
TQS_CALIBRI
  0
TEXT
  8
4
  6
CONTINUOUS
 10
6.692196
 20
31.834407
 40
0.250000
 50
449.887905
  1
C2
  7
TQS_CALIBRI
  0
TEXT
  8
1
  6
CONTINUOUS
 10
5.792642
 20
77.578560
 40
0.220000
  1
CABO
  7
TQS_CALIBRI
  0
TEXT
  8
1
  6
CONTINUOUS
 10
12.857123
 20
77.868560
 40
0.220000
  1
COMPRIMENTO
  7
TQS_CALIBRI
  0
TEXT
  8
1
  6
CONTINUOUS
 10
15.851429
 20
77.368560
 40
0.220000
  1
TOTAL
  7
TQS_CALIBRI
  0
TEXT
  8
1
  6
CONTINUOUS
 10
18.681783
 20
77.368560
 40
0.220000
  1
A
  7
TQS_CALIBRI
  0
TEXT
  8
1
  6
CONTINUOUS
 10
19.726599
 20
77.368560
 40
0.220000
  1
P
  7
TQS_CALIBRI
  0
TEXT
  8
1
  6
CONTINUOUS
 10
20.771415
 20
77.368560
 40
0.220000
  1
I
  7
TQS_CALIBRI
  0
TEXT
  8
1
  6
CONTINUOUS
 10
18.699096
 20
77.868560
 40
0.220000
  1
ANCORAGENS
  7
TQS_CALIBRI
  0
TEXT
  8
1
  6
CONTINUOUS
 10
10.251603
 20
77.578560
 40
0.220000
  1
Q
  7
TQS_CALIBRI
  0
TEXT
  8
1
  6
CONTINUOUS
 10
6.951264
 20
78.528560
 40
0.400000
  1
PROTENSÃO: AÇO
  7
TQS_CALIBRI
  0
TEXT
  8
1
  6
CONTINUOUS
 10
12.269993
 20
77.368560
 40
0.220000
  1
UNITÁRIO
  7
TQS_CALIBRI
  0
TEXT
  8
1
  6
CONTINUOUS
 10
21.726478
 20
77.368560
 40
0.220000
  1
INI
  7
TQS_CALIBRI
  0
TEXT
  8
1
  6
CONTINUOUS
 10
23.293702
 20
77.368560
 40
0.220000
  1
FIN
  7
TQS_CALIBRI
  0
TEXT
  8
1
  6
CONTINUOUS
 10
8.180854
 20
77.580779
 40
0.220000
  1
%%c
  7
TQS_CALIBRI
  0
TEXT
  8
1
  6
CONTINUOUS
 10
21.820244
 20
77.868560
 40
0.220000
  1
ALONG
  7
TQS_CALIBRI
  0
TEXT
  8
1
  6
CONTINUOUS
 10
13.279494
 20
78.528560
 40
0.400000
  1
CP190 RB 12.7 - 12.7
  7
TQS_CALIBRI
  0
TEXT
  8
1
  6
CONTINUOUS
 10
8.466002
 20
77.580779
 40
0.220000
  1
(mm)
  7
TQS_CALIBRI
  0
TEXT
  8
1
  6
CONTINUOUS
 10
15.517199
 20
77.868560
 40
0.220000
  1
(m)
  7
TQS_CALIBRI
  0
TEXT
  8
1
  6
CONTINUOUS
 10
23.007740
 20
77.868560
 40
0.220000
  1
(mm)
  7
TQS_CALIBRI
  0
TEXT
  8
1
  6
CONTINUOUS
 10
5.438064
 20
76.868560
 40
0.220000
  1
C1 A C2
  7
TQS_CALIBRI
  0
TEXT
  8
1
  6
CONTINUOUS
 10
7.791545
 20
76.868560
 40
0.220000
  1
3 %%c 12.7
  7
TQS_CALIBRI
  0
TEXT
  8
1
  6
CONTINUOUS
 10
10.005942
 20
76.868560
 40
0.220000
  1
2
  7
TQS_CALIBRI
  0
TEXT
  8
1
  6
CONTINUOUS
 10
12.242525
 20
76.868560
 40
0.220000
  1
25.8
  7
TQS_CALIBRI
  0
TEXT
  8
1
  6
CONTINUOUS
 10
15.519358
 20
76.868560
 40
0.220000
  1
155.1
  7
TQS_CALIBRI
  0
TEXT
  8
1
  6
CONTINUOUS
 10
18.497330
 20
76.868560
 40
0.220000
  1
6
  7
TQS_CALIBRI
  0
TEXT
  8
1
  6
CONTINUOUS
 10
19.542146
 20
76.868560
 40
0.220000
  1
6
  7
TQS_CALIBRI
  0
TEXT
  8
1
  6
CONTINUOUS
 10
21.578969
 20
76.868560
 40
0.220000
  1
0
  7
TQS_CALIBRI
  0
TEXT
  8
1
  6
CONTINUOUS
 10
23.146193
 20
76.868560
 40
0.220000
  1
176
  7
TQS_CALIBRI
  0
TEXT
  8
1
  6
CONTINUOUS
 10
5.438064
 20
76.368559
 40
0.220000
  1
C3 A C6
  7
TQS_CALIBRI
  0
TEXT
  8
1
  6
CONTINUOUS
 10
7.791545
 20
76.368559
 40
0.220000
  1
4 %%c 12.7
  7
TQS_CALIBRI
  0
TEXT
  8
1
  6
CONTINUOUS
 10
10.005942
 20
76.368559
 40
0.220000
  1
4
  7
TQS_CALIBRI
  0
TEXT
  8
1
  6
CONTINUOUS
 10
12.242525
 20
76.368559
 40
0.220000
  1
25.8
  7
TQS_CALIBRI
  0
TEXT
  8
1
  6
CONTINUOUS
 10
15.519358
 20
76.368559
 40
0.220000
  1
412.6
  7
TQS_CALIBRI
  0
TEXT
  8
1
  6
CONTINUOUS
 10
18.497330
 20
76.368559
 40
0.220000
  1
16
  7
TQS_CALIBRI
  0
TEXT
  8
1
  6
CONTINUOUS
 10
19.542146
 20
76.368559
 40
0.220000
  1
16
  7
TQS_CALIBRI
  0
TEXT
  8
1
  6
CONTINUOUS
 10
21.578969
 20
76.368559
 40
0.220000
  1
0
  7
TQS_CALIBRI
  0
TEXT
  8
1
  6
CONTINUOUS
 10
23.146193
 20
76.368559
 40
0.220000
  1
172
  7
TQS_CALIBRI
  0
TEXT
  8
1
  6
CONTINUOUS
 10
5.438064
 20
75.868558
 40
0.220000
  1
C7 A C11
  7
TQS_CALIBRI
  0
TEXT
  8
1
  6
CONTINUOUS
 10
7.791545
 20
75.868558
 40
0.220000
  1
   "
  7
TQS_CALIBRI
  0
TEXT
  8
1
  6
CONTINUOUS
 10
10.005942
 20
75.868558
 40
0.220000
  1
5
  7
TQS_CALIBRI
  0
TEXT
  8
1
  6
CONTINUOUS
 10
12.242525
 20
75.868558
 40
0.220000
  1
25.8
  7
TQS_CALIBRI
  0
TEXT
  8
1
  6
CONTINUOUS
 10
15.519358
 20
75.868558
 40
0.220000
  1
515.8
  7
TQS_CALIBRI
  0
TEXT
  8
1
  6
CONTINUOUS
 10
18.497330
 20
75.868558
 40
0.220000
  1
20
  7
TQS_CALIBRI
  0
TEXT
  8
1
  6
CONTINUOUS
 10
19.542146
 20
75.868558
 40
0.220000
  1
20
  7
TQS_CALIBRI
  0
TEXT
  8
1
  6
CONTINUOUS
 10
21.578969
 20
75.868558
 40
0.220000
  1
0
  7
TQS_CALIBRI
  0
TEXT
  8
1
  6
CONTINUOUS
 10
23.146193
 20
75.868558
 40
0.220000
  1
172
  7
TQS_CALIBRI
  0
TEXT
  8
1
  6
CONTINUOUS
 10
5.438064
 20
75.368557
 40
0.220000
  1
C12 A C17
  7
TQS_CALIBRI
  0
TEXT
  8
1
  6
CONTINUOUS
 10
7.791545
 20
75.368557
 40
0.220000
  1
3 %%c 12.7
  7
TQS_CALIBRI
  0
TEXT
  8
1
  6
CONTINUOUS
 10
10.005942
 20
75.368557
 40
0.220000
  1
6
  7
TQS_CALIBRI
  0
TEXT
  8
1
  6
CONTINUOUS
 10
12.242525
 20
75.368557
 40
0.220000
  1
26.1
  7
TQS_CALIBRI
  0
TEXT
  8
1
  6
CONTINUOUS
 10
15.519358
 20
75.368557
 40
0.220000
  1
469.8
  7
TQS_CALIBRI
  0
TEXT
  8
1
  6
CONTINUOUS
 10
18.497330
 20
75.368557
 40
0.220000
  1
18
  7
TQS_CALIBRI
  0
TEXT
  8
1
  6
CONTINUOUS
 10
19.542146
 20
75.368557
 40
0.220000
  1
18
  7
TQS_CALIBRI
  0
TEXT
  8
1
  6
CONTINUOUS
 10
21.578969
 20
75.368557
 40
0.220000
  1
0
  7
TQS_CALIBRI
  0
TEXT
  8
1
  6
CONTINUOUS
 10
23.146193
 20
75.368557
 40
0.220000
  1
173
  7
TQS_CALIBRI
  0
TEXT
  8
1
  6
CONTINUOUS
 10
5.438064
 20
74.868557
 40
0.220000
  1
C18 A C22
  7
TQS_CALIBRI
  0
TEXT
  8
1
  6
CONTINUOUS
 10
7.791545
 20
74.868557
 40
0.220000
  1
4 %%c 12.7
  7
TQS_CALIBRI
  0
TEXT
  8
1
  6
CONTINUOUS
 10
10.005942
 20
74.868557
 40
0.220000
  1
5
  7
TQS_CALIBRI
  0
TEXT
  8
1
  6
CONTINUOUS
 10
12.242525
 20
74.868557
 40
0.220000
  1
26.1
  7
TQS_CALIBRI
  0
TEXT
  8
1
  6
CONTINUOUS
 10
15.519358
 20
74.868557
 40
0.220000
  1
522
  7
TQS_CALIBRI
  0
TEXT
  8
1
  6
CONTINUOUS
 10
18.497330
 20
74.868557
 40
0.220000
  1
20
  7
TQS_CALIBRI
  0
TEXT
  8
1
  6
CONTINUOUS
 10
19.542146
 20
74.868557
 40
0.220000
  1
20
  7
TQS_CALIBRI
  0
TEXT
  8
1
  6
CONTINUOUS
 10
21.578969
 20
74.868557
 40
0.220000
  1
0
  7
TQS_CALIBRI
  0
TEXT
  8
1
  6
CONTINUOUS
 10
23.146193
 20
74.868557
 40
0.220000
  1
173
  7
TQS_CALIBRI
  0
TEXT
  8
1
  6
CONTINUOUS
 10
5.438064
 20
74.368556
 40
0.220000
  1
C23 A C27
  7
TQS_CALIBRI
  0
TEXT
  8
1
  6
CONTINUOUS
 10
7.791545
 20
74.368556
 40
0.220000
  1
   "
  7
TQS_CALIBRI
  0
TEXT
  8
1
  6
CONTINUOUS
 10
10.005942
 20
74.368556
 40
0.220000
  1
5
  7
TQS_CALIBRI
  0
TEXT
  8
1
  6
CONTINUOUS
 10
12.242525
 20
74.368556
 40
0.220000
  1
26.1
  7
TQS_CALIBRI
  0
TEXT
  8
1
  6
CONTINUOUS
 10
15.519358
 20
74.368556
 40
0.220000
  1
522
  7
TQS_CALIBRI
  0
TEXT
  8
1
  6
CONTINUOUS
 10
18.497330
 20
74.368556
 40
0.220000
  1
20
  7
TQS_CALIBRI
  0
TEXT
  8
1
  6
CONTINUOUS
 10
19.542146
 20
74.368556
 40
0.220000
  1
20
  7
TQS_CALIBRI
  0
TEXT
  8
1
  6
CONTINUOUS
 10
21.578969
 20
74.368556
 40
0.220000
  1
0
  7
TQS_CALIBRI
  0
TEXT
  8
1
  6
CONTINUOUS
 10
23.146193
 20
74.368556
 40
0.220000
  1
174
  7
TQS_CALIBRI
  0
TEXT
  8
1
  6
CONTINUOUS
 10
5.438064
 20
73.868555
 40
0.220000
  1
C28 A C30
  7
TQS_CALIBRI
  0
TEXT
  8
1
  6
CONTINUOUS
 10
7.791545
 20
73.868555
 40
0.220000
  1
   "
  7
TQS_CALIBRI
  0
TEXT
  8
1
  6
CONTINUOUS
 10
10.005942
 20
73.868555
 40
0.220000
  1
3
  7
TQS_CALIBRI
  0
TEXT
  8
1
  6
CONTINUOUS
 10
12.242525
 20
73.868555
 40
0.220000
  1
26.1
  7
TQS_CALIBRI
  0
TEXT
  8
1
  6
CONTINUOUS
 10
15.519358
 20
73.868555
 40
0.220000
  1
313.2
  7
TQS_CALIBRI
  0
TEXT
  8
1
  6
CONTINUOUS
 10
18.497330
 20
73.868555
 40
0.220000
  1
12
  7
TQS_CALIBRI
  0
TEXT
  8
1
  6
CONTINUOUS
 10
19.542146
 20
73.868555
 40
0.220000
  1
12
  7
TQS_CALIBRI
  0
TEXT
  8
1
  6
CONTINUOUS
 10
21.578969
 20
73.868555
 40
0.220000
  1
0
  7
TQS_CALIBRI
  0
TEXT
  8
1
  6
CONTINUOUS
 10
23.146193
 20
73.868555
 40
0.220000
  1
173
  7
TQS_CALIBRI
  0
TEXT
  8
1
  6
CONTINUOUS
 10
5.924205
 20
70.868555
 40
0.220000
  1
%%c
  7
TQS_CALIBRI
  0
TEXT
  8
1
  6
CONTINUOUS
 10
9.497743
 20
71.368555
 40
0.220000
  1
CABO
  7
TQS_CALIBRI
  0
TEXT
  8
1
  6
CONTINUOUS
 10
15.682303
 20
70.618555
 40
0.220000
  1
A
  7
TQS_CALIBRI
  0
TEXT
  8
1
  6
CONTINUOUS
 10
16.727118
 20
70.618555
 40
0.220000
  1
P
  7
TQS_CALIBRI
  0
TEXT
  8
1
  6
CONTINUOUS
 10
17.771935
 20
70.618555
 40
0.220000
  1
I
  7
TQS_CALIBRI
  0
TEXT
  8
1
  6
CONTINUOUS
 10
11.993502
 20
70.868555
 40
0.220000
  1
PESO
  7
TQS_CALIBRI
  0
TEXT
  8
1
  6
CONTINUOUS
 10
15.752482
 20
71.368555
 40
0.220000
  1
ANCORAGENS
  7
TQS_CALIBRI
  0
TEXT
  8
1
  6
CONTINUOUS
 10
7.831262
 20
72.451887
 40
0.400000
  1
RESUMO DE PROTENSÃO
  7
TQS_CALIBRI
  0
TEXT
  8
1
  6
CONTINUOUS
 10
7.369399
 20
71.889188
 40
0.300000
  1
Monocordoalhas não aderentes
  7
TQS_CALIBRI
  0
TEXT
  8
1
  6
CONTINUOUS
 10
7.760500
 20
70.868555
 40
0.220000
  1
COMPR
  7
TQS_CALIBRI
  0
TEXT
  8
1
  6
CONTINUOUS
 10
9.610288
 20
70.368555
 40
0.220000
  1
kgf/m
  7
TQS_CALIBRI
  0
TEXT
  8
1
  6
CONTINUOUS
 10
11.762065
 20
70.368555
 40
0.220000
  1
kgf
  7
TQS_CALIBRI
  0
TEXT
  8
1
  6
CONTINUOUS
 10
13.576457
 20
70.368555
 40
0.220000
  1
kgf+4%
  7
TQS_CALIBRI
  0
TEXT
  8
1
  6
CONTINUOUS
 10
7.765046
 20
70.368555
 40
0.220000
  1
m
  7
TQS_CALIBRI
  0
TEXT
  8
1
  6
CONTINUOUS
 10
5.902585
 20
70.368555
 40
0.220000
  1
mm
  7
TQS_CALIBRI
  0
TEXT
  8
1
  6
CONTINUOUS
 10
7.490362
 20
69.868554
 40
0.220000
  1
625
  7
TQS_CALIBRI
  0
TEXT
  8
1
  6
CONTINUOUS
 10
16.535959
 20
69.868555
 40
0.220000
  1
24
  7
TQS_CALIBRI
  0
TEXT
  8
1
  6
CONTINUOUS
 10
15.491142
 20
69.868555
 40
0.220000
  1
24
  7
TQS_CALIBRI
  0
TEXT
  8
1
  6
CONTINUOUS
 10
9.610288
 20
69.868554
 40
0.220000
  1
0.886
  7
TQS_CALIBRI
  0
TEXT
  8
1
  6
CONTINUOUS
 10
11.199617
 20
69.868554
 40
0.220000
  1
554
  7
TQS_CALIBRI
  0
TEXT
  8
1
  6
CONTINUOUS
 10
13.259615
 20
69.868554
 40
0.220000
  1
576
  7
TQS_CALIBRI
  0
TEXT
  8
1
  6
CONTINUOUS
 10
5.302429
 20
69.868554
 40
0.220000
  1
3 %%c 12.7
  7
TQS_CALIBRI
  0
TEXT
  8
1
  6
CONTINUOUS
 10
7.490362
 20
69.368553
 40
0.220000
  1
2286
  7
TQS_CALIBRI
  0
TEXT
  8
1
  6
CONTINUOUS
 10
16.535959
 20
69.368554
 40
0.220000
  1
88
  7
TQS_CALIBRI
  0
TEXT
  8
1
  6
CONTINUOUS
 10
15.491142
 20
69.368554
 40
0.220000
  1
88
  7
TQS_CALIBRI
  0
TEXT
  8
1
  6
CONTINUOUS
 10
9.610288
 20
69.368553
 40
0.220000
  1
0.886
  7
TQS_CALIBRI
  0
TEXT
  8
1
  6
CONTINUOUS
 10
11.199617
 20
69.368553
 40
0.220000
  1
2025
  7
TQS_CALIBRI
  0
TEXT
  8
1
  6
CONTINUOUS
 10
13.259615
 20
69.368553
 40
0.220000
  1
2106
  7
TQS_CALIBRI
  0
TEXT
  8
1
  6
CONTINUOUS
 10
5.302429
 20
69.368553
 40
0.220000
  1
4 %%c 12.7
  7
TQS_CALIBRI
  0
TEXT
  8
1
  6
CONTINUOUS
 10
101.932386
 20
23.396411
 40
0.350000
  1
NOTAS:
  7
TQS_CALIBRI
  0
TEXT
  8
2
  6
CONTINUOUS
 10
101.965840
 20
22.812661
 40
0.240000
  1
1) CONFERIR INFORMAÇÕES DA TABELA ACIMA (TABELA DE FERRERAGEM) NA OBRA
  7
TQS_CALIBRI
  0
TEXT
  8
2
  6
CONTINUOUS
 10
101.965840
 20
22.343353
 40
0.240000
  1
ANTES DA COMPRA DAS ARMADURAS.
  7
TQS_CALIBRI
  0
TEXT
  8
1
  6
CONTINUOUS
 10
102.073109
 20
8.835799
 40
0.455000
  1
ENGENHARIA
  7
TQS_CALIBRI
  0
TEXT
  8
1
  6
CONTINUOUS
 10
101.876737
 20
16.222571
 40
0.250000
  1
REV
  7
TQS_CALIBRI
  0
TEXT
  8
1
  6
CONTINUOUS
 10
103.356169
 20
16.222571
 40
0.250000
  1
DATA
  7
TQS_CALIBRI
  0
TEXT
  8
1
  6
CONTINUOUS
 10
105.030516
 20
16.222571
 40
0.250000
  1
ASSUNTO
  7
TQS_CALIBRI
  0
TEXT
  8
1
  6
CONTINUOUS
 10
101.832253
 20
14.047181
 40
0.250000
  1
PROPRIETÁRIO - 
  7
TQS_CALIBRI
  0
TEXT
  8
1
  6
CONTINUOUS
 10
108.042444
 20
2.579059
 40
0.250000
  1
ENGENHEIRO:
  7
TQS_CALIBRI
  0
TEXT
  8
1
  6
CONTINUOUS
 10
108.046365
 20
2.149652
 40
0.250000
  1
CREA REG.:
  7
TQS_CALIBRI
  0
TEXT
  8
1
  6
CONTINUOUS
 10
110.430567
 20
2.160333
 40
0.250000
  1
020930945-8
  7
TQS_CALIBRI
  0
TEXT
  8
1
  6
CONTINUOUS
 10
103.739739
 20
9.759850
 40
1.000000
  1
VGF
  7
TQS_CALIBRI
  0
TEXT
  8
1
  6
CONTINUOUS
 10
101.832253
 20
12.147181
 40
0.250000
  1
PROJETO              Eng. Civil - CREA:020930945-8
  7
TQS_CALIBRI
  0
TEXT
  8
1
  6
CONTINUOUS
 10
101.800510
 20
2.752624
 40
0.150000
  1
DATA:
  7
TQS_CALIBRI
  0
TEXT
  8
1
  6
CONTINUOUS
 10
101.788178
 20
1.752624
 40
0.150000
  1
FASE:
  7
TQS_CALIBRI
  0
TEXT
  8
1
  6
CONTINUOUS
 10
105.124829
 20
2.752624
 40
0.150000
  1
ESCALA:
  7
TQS_CALIBRI
  0
TEXT
  8
1
  6
CONTINUOUS
 10
105.112497
 20
1.752624
 40
0.150000
  1
PLANTA:
  7
TQS_CALIBRI
  0
TEXT
  8
1
  6
CONTINUOUS
 10
101.800510
 20
6.352624
 40
0.150000
  1
TÍTULO:
  7
TQS_CALIBRI
  0
TEXT
  8
1
  6
CONTINUOUS
 10
101.787482
 20
5.577767
 40
0.150000
  1
ELEMENTOS DA PRANCHA:
  7
TQS_CALIBRI
  0
TEXT
  8
1
  6
CONTINUOUS
 10
101.800510
 20
8.252624
 40
0.150000
  1
EMPREENDIMENTO/LOCAL:
  7
TQS_CALIBRI
  0
TEXT
  8
1
  6
CONTINUOUS
 10
106.761120
 20
11.025301
 40
0.150000
  1
CONTATOS:
  7
TQS_CALIBRI
  0
TEXT
  8
1
  6
CONTINUOUS
 10
114.224829
 20
2.752624
 40
0.150000
  1
PLANTA-REVISÃO:
  7
TQS_CALIBRI
  0
TEXT
  8
1
  6
CONTINUOUS
 10
102.041441
 20
16.843956
 40
0.200000
  1
00
  7
TQS_CALIBRI
  0
TEXT
  8
1
  6
CONTINUOUS
 10
102.041441
 20
17.343956
 40
0.200000
  1
01
  7
TQS_CALIBRI
  0
TEXT
  8
1
  6
CONTINUOUS
 10
102.041441
 20
17.843956
 40
0.200000
  1
02
  7
TQS_CALIBRI
  0
TEXT
  8
1
  6
CONTINUOUS
 10
102.041441
 20
18.343956
 40
0.200000
  1
03
  7
TQS_CALIBRI
  0
TEXT
  8
1
  6
CONTINUOUS
 10
102.041441
 20
18.843956
 40
0.200000
  1
04
  7
TQS_CALIBRI
  0
TEXT
  8
1
  6
CONTINUOUS
 10
102.041441
 20
19.343956
 40
0.200000
  1
05
  7
TQS_CALIBRI
  0
TEXT
  8
1
  6
CONTINUOUS
 10
102.041441
 20
19.843956
 40
0.200000
  1
06
  7
TQS_CALIBRI
  0
TEXT
  8
1
  6
CONTINUOUS
 10
102.041441
 20
20.343956
 40
0.200000
  1
07
  7
TQS_CALIBRI
  0
TEXT
  8
1
  6
CONTINUOUS
 10
102.041441
 20
20.843956
 40
0.200000
  1
08
  7
TQS_CALIBRI
  0
TEXT
  8
1
  6
CONTINUOUS
 10
102.041441
 20
21.343956
 40
0.200000
  1
09
  7
TQS_CALIBRI
  0
TEXT
  8
1
  6
CONTINUOUS
 10
102.041441
 20
21.843956
 40
0.200000
  1
10
  7
TQS_CALIBRI
  0
TEXT
  8
1
  6
CONTINUOUS
 10
116.437973
 20
16.222571
 40
0.250000
  1
AUTOR
  7
TQS_CALIBRI
  0
TEXT
  8
1
  6
CONTINUOUS
 10
106.749019
 20
10.335784
 40
0.195000
  1
Tel: 99928-2128
  7
TQS_CALIBRI
  0
TEXT
  8
1
  6
CONTINUOUS
 10
106.749019
 20
10.012284
 40
0.195000
  1
franciscogonca@hotmail.com 
  7
TQS_CALIBRI
  0
TEXT
  8
1
  6
CONTINUOUS
 10
106.749019
 20
9.680784
 40
0.195000
  1
Tel: 99981-6458
  7
TQS_CALIBRI
  0
TEXT
  8
1
  6
CONTINUOUS
 10
106.749019
 20
9.357284
 40
0.195000
  1
tiago@vgfengenharia.com.br 
  7
TQS_CALIBRI
  0
TEXT
  8
1
  6
CONTINUOUS
 10
106.749019
 20
9.025784
 40
0.195000
  1
Tel: 99912-8379
  7
TQS_CALIBRI
  0
TEXT
  8
1
  6
CONTINUOUS
 10
110.809443
 20
11.052624
 40
0.150000
  1
CLIENTE:
  7
TQS_CALIBRI
  0
TEXT
  8
1
  6
CONTINUOUS
 10
116.009770
 20
1.647683
 40
0.500000
  1
-R
  7
TQS_CALIBRI
  0
TEXT
  8
1
  6
CONTINUOUS
 10
101.832253
 20
12.547181
 40
0.250000
  1
RESPONSÁVEL -  Diego de Vasconcelos Gonçalves Ferreira
  7
TQS_CALIBRI
  0
TEXT
  8
1
  6
CONTINUOUS
 10
110.422141
 20
2.578345
 40
0.250000
  1
Diego Vasconcelos
  7
TQS_CALIBRI
  0
TEXT
  8
1
  6
CONTINUOUS
 10
106.749019
 20
10.667284
 40
0.195000
  1
diego@vgfengenharia.com.br 
  7
TQS_CALIBRI
  0
TEXT
  8
1
  6
CONTINUOUS
 10
104.982892
 20
16.853163
 40
0.200000
  1
Emissão inicial.
  7
TQS_CALIBRI
  0
TEXT
  8
1
  6
CONTINUOUS
 10
101.795719
 20
7.825700
 40
0.250000
  1
Assembléia Legislativa de Alagoas
  7
TQS_CALIBRI
  0
TEXT
  8
1
  6
CONTINUOUS
 10
104.517953
 20
14.045361
 40
0.250000
  1
ALA
  7
TQS_CALIBRI
  0
TEXT
  8
1
  6
CONTINUOUS
 10
101.789281
 20
2.263237
 40
0.250000
  1
27/02/2024
  7
TQS_CALIBRI
  0
TEXT
  8
1
  6
CONTINUOUS
 10
102.992347
 20
16.854551
 40
0.200000
  1
27/02/24
  7
TQS_CALIBRI
  0
TEXT
  8
1
  6
CONTINUOUS
 10
101.787954
 20
7.415393
 40
0.200000
  1
RUA SÁ E ALBUQUERQUE, NÚMERO 807, JARAGUÁ - MACEIÓ-AL
  7
TQS_CALIBRI
  0
TEXT
  8
1
  6
CONTINUOUS
 10
101.789859
 20
1.251887
 40
0.250000
  1
PE
  7
TQS_CALIBRI
  0
TEXT
  8
1
  6
CONTINUOUS
 10
105.114178
 20
1.251887
 40
0.250000
  1
CLA-EEM-EST-PE-0636-ARM-R00
  7
TQS_CALIBRI
  0
TEXT
  8
1
  6
CONTINUOUS
 10
116.547332
 20
16.842370
 40
0.200000
  1
DIEGO
  7
TQS_CALIBRI
  0
TEXT
  8
1
  6
CONTINUOUS
 10
114.396264
 20
1.644018
 40
0.500000
  1
0636
  7
TQS_CALIBRI
  0
TEXT
  8
1
  6
CONTINUOUS
 10
116.689770
 20
1.647683
 40
0.500000
  1
00
  7
TQS_CALIBRI
  0
TEXT
  8
1
  6
CONTINUOUS
 10
110.802729
 20
10.513659
 40
0.400000
  1
ALA
  7
TQS_CALIBRI
  0
TEXT
  8
1
  6
CONTINUOUS
 10
101.762319
 20
5.951739
 40
0.250000
  1
ARM. PROTENSÃO HORIZONTAL (05-Rooftop) - 01 - J
  7
TQS_CALIBRI
  0
ENDSEC
  0
EOF
