  0
SECTION
  2
HEADER
  9
$ACADVER
  1
AC1002
  9
$USERI1
 70
0
  9
$INSBASE
 10
0.000000
 20
0.000000
  9
$EXTMIN
 10
0.000000
 20
0.000000
  9
$EXTMAX
 10
7.761771
 20
4.436620
  9
$LIMMIN
 10
0.000000
 20
0.000000
  9
$LIMMAX
 10
12.000000
 20
9.000000
  9
$VIEWCTR
 10
78.887138
 20
59.361758
  9
$VIEWSIZE
 40
127.522840
  9
$TEXTSIZE
 40
0.100000
  9
$TRACEWID
 40
0.010000
  9
$LTSCALE
 40
1.000000
  0
ENDSEC
  0
SECTION
  2
TABLES
  0
TABLE
  2
LTYPE
 70
     3
  0
LTYPE
  2
CONTINUOUS
 70
    64
  3
Solid line
 72
    65
 73
     0
 40
0.000000
  0
LTYPE
  2
ESTILO_TQS_0001
 70
    64
  3
-  -  -  -  -  -
 72
    65
 73
     2
 40
1.000000
 49
0.700000
 49
-0.300000
  0
LTYPE
  2
ESTILO_TQS_0002
 70
    64
  3
. . . . . . . .
 72
    65
 73
     2
 40
0.400000
 49
0.100000
 49
-0.300000
  0
LTYPE
  2
ESTILO_TQS_0003
 70
    64
  3
- . - . - . - .
 72
    65
 73
     4
 40
0.910000
 49
0.500000
 49
-0.200000
 49
0.010000
 49
-0.200000
  0
LTYPE
  2
ESTILO_TQS_0004
 70
    64
  3
- .. - .. - ..
 72
    65
 73
     6
 40
1.120000
 49
0.500000
 49
-0.200000
 49
0.010000
 49
-0.200000
 49
0.010000
 49
-0.200000
  0
LTYPE
  2
CONTINUOUS
 70
    64
  3
- - - - - - - -
 72
    65
 73
     2
 40
0.400000
 49
0.300000
 49
-0.100000
  0
ENDTAB
  0
TABLE
  2
LAYER
 70
    89
  0
LAYER
  2
0
 70
     0
 62
     7
  6
CONTINUOUS
  0
LAYER
  2
1
 70
     0
 62
     1
  6
CONTINUOUS
  0
LAYER
  2
2
 70
     0
 62
     2
  6
CONTINUOUS
  0
LAYER
  2
3
 70
     0
 62
     3
  6
CONTINUOUS
  0
LAYER
  2
4
 70
     0
 62
     4
  6
CONTINUOUS
  0
LAYER
  2
5
 70
     0
 62
     5
  6
CONTINUOUS
  0
LAYER
  2
6
 70
     0
 62
     6
  6
CONTINUOUS
  0
LAYER
  2
7
 70
     0
 62
     7
  6
CONTINUOUS
  0
LAYER
  2
8
 70
     0
 62
     8
  6
CONTINUOUS
  0
LAYER
  2
9
 70
     0
 62
     9
  6
CONTINUOUS
  0
LAYER
  2
10
 70
     0
 62
    10
  6
CONTINUOUS
  0
LAYER
  2
11
 70
     0
 62
    11
  6
CONTINUOUS
  0
LAYER
  2
12
 70
     0
 62
    12
  6
CONTINUOUS
  0
LAYER
  2
13
 70
     0
 62
    13
  6
CONTINUOUS
  0
LAYER
  2
14
 70
     0
 62
    14
  6
CONTINUOUS
  0
LAYER
  2
15
 70
     0
 62
    15
  6
CONTINUOUS
  0
LAYER
  2
16
 70
     0
 62
     7
  6
CONTINUOUS
  0
LAYER
  2
17
 70
     0
 62
     2
  6
CONTINUOUS
  0
LAYER
  2
18
 70
     0
 62
     4
  6
CONTINUOUS
  0
LAYER
  2
19
 70
     0
 62
     5
  6
CONTINUOUS
  0
LAYER
  2
20
 70
     0
 62
     4
  6
CONTINUOUS
  0
LAYER
  2
21
 70
     0
 62
     2
  6
CONTINUOUS
  0
LAYER
  2
22
 70
     0
 62
     1
  6
CONTINUOUS
  0
LAYER
  2
23
 70
     0
 62
     7
  6
CONTINUOUS
  0
LAYER
  2
24
 70
     0
 62
     6
  6
CONTINUOUS
  0
LAYER
  2
25
 70
     0
 62
     1
  6
CONTINUOUS
  0
LAYER
  2
26
 70
     0
 62
     3
  6
CONTINUOUS
  0
LAYER
  2
27
 70
     0
 62
     4
  6
CONTINUOUS
  0
LAYER
  2
28
 70
     0
 62
     4
  6
CONTINUOUS
  0
LAYER
  2
30
 70
     0
 62
     4
  6
CONTINUOUS
  0
LAYER
  2
100
 70
     0
 62
     1
  6
CONTINUOUS
  0
LAYER
  2
101
 70
     0
 62
     9
  6
CONTINUOUS
  0
LAYER
  2
102
 70
     0
 62
     7
  6
CONTINUOUS
  0
LAYER
  2
103
 70
     0
 62
     2
  6
CONTINUOUS
  0
LAYER
  2
104
 70
     0
 62
    11
  6
CONTINUOUS
  0
LAYER
  2
105
 70
     0
 62
     3
  6
CONTINUOUS
  0
LAYER
  2
106
 70
     0
 62
     5
  6
CONTINUOUS
  0
LAYER
  2
107
 70
     0
 62
     3
  6
CONTINUOUS
  0
LAYER
  2
108
 70
     0
 62
     5
  6
CONTINUOUS
  0
LAYER
  2
109
 70
     0
 62
     3
  6
CONTINUOUS
  0
LAYER
  2
197
 70
     0
 62
     3
  6
CONTINUOUS
  0
LAYER
  2
198
 70
     0
 62
     2
  6
CONTINUOUS
  0
LAYER
  2
199
 70
     0
 62
     6
  6
CONTINUOUS
  0
LAYER
  2
200
 70
     0
 62
     7
  6
ESTILO_TQS_0002
  0
LAYER
  2
201
 70
     0
 62
     7
  6
ESTILO_TQS_0001
  0
LAYER
  2
202
 70
     0
 62
     7
  6
CONTINUOUS
  0
LAYER
  2
203
 70
     0
 62
     7
  6
ESTILO_TQS_0001
  0
LAYER
  2
204
 70
     0
 62
     7
  6
ESTILO_TQS_0003
  0
LAYER
  2
205
 70
     0
 62
     5
  6
ESTILO_TQS_0004
  0
LAYER
  2
206
 70
     0
 62
    15
  6
CONTINUOUS
  0
LAYER
  2
207
 70
     0
 62
     2
  6
CONTINUOUS
  0
LAYER
  2
208
 70
     0
 62
     5
  6
CONTINUOUS
  0
LAYER
  2
210
 70
     0
 62
    15
  6
ESTILO_TQS_0002
  0
LAYER
  2
211
 70
     0
 62
     7
  6
ESTILO_TQS_0001
  0
LAYER
  2
214
 70
     0
 62
    15
  6
CONTINUOUS
  0
LAYER
  2
215
 70
     0
 62
     2
  6
CONTINUOUS
  0
LAYER
  2
216
 70
     0
 62
     3
  6
CONTINUOUS
  0
LAYER
  2
217
 70
     0
 62
     3
  6
CONTINUOUS
  0
LAYER
  2
218
 70
     0
 62
     2
  6
CONTINUOUS
  0
LAYER
  2
219
 70
     0
 62
    15
  6
CONTINUOUS
  0
LAYER
  2
220
 70
     0
 62
    10
  6
CONTINUOUS
  0
LAYER
  2
221
 70
     0
 62
    11
  6
CONTINUOUS
  0
LAYER
  2
222
 70
     0
 62
    12
  6
CONTINUOUS
  0
LAYER
  2
223
 70
     0
 62
     6
  6
CONTINUOUS
  0
LAYER
  2
224
 70
     0
 62
     1
  6
CONTINUOUS
  0
LAYER
  2
225
 70
     0
 62
    15
  6
CONTINUOUS
  0
LAYER
  2
226
 70
     0
 62
     2
  6
CONTINUOUS
  0
LAYER
  2
227
 70
     0
 62
    10
  6
CONTINUOUS
  0
LAYER
  2
228
 70
     0
 62
    11
  6
CONTINUOUS
  0
LAYER
  2
229
 70
     0
 62
    12
  6
CONTINUOUS
  0
LAYER
  2
230
 70
     0
 62
     6
  6
CONTINUOUS
  0
LAYER
  2
231
 70
     0
 62
     3
  6
CONTINUOUS
  0
LAYER
  2
232
 70
     0
 62
    12
  6
CONTINUOUS
  0
LAYER
  2
233
 70
     0
 62
     4
  6
CONTINUOUS
  0
LAYER
  2
234
 70
     0
 62
    13
  6
CONTINUOUS
  0
LAYER
  2
235
 70
     0
 62
     5
  6
CONTINUOUS
  0
LAYER
  2
236
 70
     0
 62
     2
  6
CONTINUOUS
  0
LAYER
  2
237
 70
     0
 62
     6
  6
CONTINUOUS
  0
LAYER
  2
238
 70
     0
 62
    12
  6
CONTINUOUS
  0
LAYER
  2
239
 70
     0
 62
    11
  6
CONTINUOUS
  0
LAYER
  2
240
 70
     0
 62
    11
  6
CONTINUOUS
  0
LAYER
  2
241
 70
     0
 62
    12
  6
CONTINUOUS
  0
ENDTAB
  0
TABLE
  2
STYLE
 70
     1
  0
STYLE
  2
STANDARD
 70
    64
 40
0.000000
 41
1.000000
 50
0.000000
 71
     0
 42
0.200000
  3
ROMANS.SHX
  4

  0
STYLE
  2
TQS_CALIBRI
 70
     0
 40
0.000000
 41
1.000000
 50
0.000000
 71
     0
 42
0.200000
  3
calibri.ttf
  0
STYLE
  2
TQS_CALIBRI_U
 70
     0
 40
0.000000
 41
1.000000
 50
0.000000
 71
     0
 42
0.200000
  3
calibri.ttf
  0
STYLE
  2
TQS_CALIBRI_I
 70
     0
 40
0.000000
 41
1.000000
 50
0.000000
 71
     0
 42
0.200000
  3
calibri.ttf
  0
STYLE
  2
TQS_CALIBRI_I_U
 70
     0
 40
0.000000
 41
1.000000
 50
0.000000
 71
     0
 42
0.200000
  3
calibri.ttf
  0
STYLE
  2
TQS_CALIBRI_B
 70
     0
 40
0.000000
 41
1.000000
 50
0.000000
 71
     0
 42
0.200000
  3
calibri.ttf
  0
STYLE
  2
TQS_CALIBRI_B_U
 70
     0
 40
0.000000
 41
1.000000
 50
0.000000
 71
     0
 42
0.200000
  3
calibri.ttf
  0
STYLE
  2
TQS_CALIBRI_B_I
 70
     0
 40
0.000000
 41
1.000000
 50
0.000000
 71
     0
 42
0.200000
  3
calibri.ttf
  0
STYLE
  2
TQS_CALIBRI_B_I_U
 70
     0
 40
0.000000
 41
1.000000
 50
0.000000
 71
     0
 42
0.200000
  3
calibri.ttf
  0
ENDTAB
  0
TABLE
  2
VIEW
 70
     0
  0
ENDTAB
  0
ENDSEC
  0
SECTION
  2
BLOCKS
  0
BLOCK
  8
0
  2
_PLWTQS
 70
    64
 10
0.000000
 20
0.000000
  0
TEXT
  8
0
  6
CONTINUOUS
 10
0.000000
 20
0.000000
 40
0.200000
  1
$PLWDWGGlBMVwAAAAAAAChABAAAAM6yCb6hufiVc4Ho9MHTpD3ndKoxV0HbZbet9V7C56Y7SoYNhMZUiyS8lFq92yKvW6V9BcmencYslISZaUg62OkjBSmc2yaoIe1Cq42tjf764MG29gPbdnqPfnYd4YQnhlNjZ7Gk/d/LqFsnNrC/iW8=
  7
TQS_CALIBRI
  0
TEXT
  8
0
  6
CONTINUOUS
 10
0.000000
 20
-0.250000
 40
0.200000
  1
$PLWDWGq2HT+7BioP9Uzol1NddrN4hfCRQ/5NQ9ZHJKJ+WNabgBuw+6ZE7mVYj4H+JHQ2WBhIfTXyuVSRPQ2VxGahhfX4k+SouOvj59fPPAuBgWyIJZQDCoUw/jYMtWN58GWUk+bMxJrpdMzmbj/d0jWXqtl9aEGgkIgy+atgv/BYdpQC0=
  7
TQS_CALIBRI
  0
TEXT
  8
0
  6
CONTINUOUS
 10
0.000000
 20
-0.500000
 40
0.200000
  1
$PLWDWGif+4kxf5aHnCUCYunsbIhxyzfomlrBxTS6UwRWHlY0VDRWrQpyk7SXLIojAS8PF7sl50kIdfaFRPWpFTakyQLEqpKMU3pxVZl+hM4ScvkEl4HVLKQgyzD+bP69F/J+q7OWllysqLFtauuim+BejKnRpAYl1x23WafEpuEyRmNwk=
  7
TQS_CALIBRI
  0
TEXT
  8
0
  6
CONTINUOUS
 10
0.000000
 20
-0.750000
 40
0.200000
  1
$PLWDWGpG1iLkWc1IiRVlMB1vsvUYjc5t0MK4GU0ywNCZo29V34K9nSH+l8lKVXgwiS64UxCTn4mJDGHugAibfAhzDGzZr/vCwuoPwFTvPeaKEdEHtEDqY0i56fLP5PSMR8Viwyga3WhYV/Zz8oNo160tsuJ94x0xSNjPUPka8AuBuoHls=
  7
TQS_CALIBRI
  0
TEXT
  8
0
  6
CONTINUOUS
 10
0.000000
 20
-1.000000
 40
0.200000
  1
$PLWDWGYGoRSf6BKpUQRnbDQxAWD+fnWhhCyZKiiFvmKoPvgYhSm1htKgnqnYFSTeU5KABXQBNrL3wgVs2J1k8DR/p/2GTKsBNsfgk4S2NqMN7w5plNq9r1EonIImxQlJUXKPOkxap03eZebUZSSVcMyIzlbY+uIgsR9NTbDcimNyg5xvs=
  7
TQS_CALIBRI
  0
TEXT
  8
0
  6
CONTINUOUS
 10
0.000000
 20
-1.250000
 40
0.200000
  1
$PLWDWGuUjMkm/IzCzNwh/2kxs3JeQFVOxtZSafjEtjA7o2y9KtPM4YtxRKA0mneWsxhxOr3lxujUEl1wblncNNIQashVwp9AfZ/3KvryaRkKi1EnTX9prgB478FqvlrK1WoM3GmJryi0B/jRUUrHWFMh4oKf3i18s3IURMECY8rVmLpME=
  7
TQS_CALIBRI
  0
TEXT
  8
0
  6
CONTINUOUS
 10
0.000000
 20
-1.500000
 40
0.200000
  1
$PLWDWGoTKyynPL99HCUZFMczTzqvRJn5L1gdw8UMw8se2C2zMltIt3kI/osO6DRhvs+hH9t6jGSo9mrKr0r/8/LvjPXVwnPV1/nRnBlH/kj3kfDmUjjFWtbboi6hgGEi0jyWM92mtAq8KDqO+HTeCrIBfNt3MtvMcU6f0BneOYvq7tWTI=
  7
TQS_CALIBRI
  0
TEXT
  8
0
  6
CONTINUOUS
 10
0.000000
 20
-1.750000
 40
0.200000
  1
$PLWDWGG0yMUmpToXhV+F7UxQpAFMbNDSIK2Vl+TJ/iyUDPDIOHiX8sliUlnGdwEUCdoY9lmsHNUkysCTcAAAAAgPeKR/Sx/s0NMeaga7kPeJrBzVJMrAk3AAAAAA==
  7
TQS_CALIBRI
  0
ENDBLK
  8
0
  0
ENDSEC
  0
SECTION
  2
ENTITIES
  0
SOLID
  8
13
  6
CONTINUOUS
 10
102.095046
 20
10.244446
 11
102.095046
 21
9.498246
 12
101.971546
 22
9.498246
 13
101.971546
 23
9.498246
  0
SOLID
  8
13
  6
CONTINUOUS
 10
102.095046
 20
10.244446
 11
101.971546
 21
9.498246
 12
101.971546
 22
11.162246
 13
101.971546
 23
11.162246
  0
SOLID
  8
13
  6
CONTINUOUS
 10
102.095046
 20
10.244446
 11
101.971546
 21
11.162246
 12
102.095046
 22
11.162246
 13
102.095046
 23
11.162246
  0
SOLID
  8
13
  6
CONTINUOUS
 10
102.095046
 20
10.244446
 11
102.095046
 21
11.162246
 12
102.095046
 22
10.244446
 13
102.095046
 23
10.244446
  0
SOLID
  8
13
  6
CONTINUOUS
 10
102.522746
 20
10.230979
 11
102.522746
 21
9.498246
 12
102.095046
 22
9.498246
 13
102.095046
 23
9.498246
  0
SOLID
  8
13
  6
CONTINUOUS
 10
102.522746
 20
10.230979
 11
102.095046
 21
9.498246
 12
102.095046
 22
10.244446
 13
102.095046
 23
10.244446
  0
SOLID
  8
13
  6
CONTINUOUS
 10
102.522746
 20
10.230979
 11
102.095046
 21
10.244446
 12
102.143544
 22
10.248642
 13
102.143544
 23
10.248642
  0
SOLID
  8
13
  6
CONTINUOUS
 10
102.522746
 20
10.230979
 11
102.143544
 21
10.248642
 12
102.211078
 22
10.252071
 13
102.211078
 23
10.252071
  0
SOLID
  8
13
  6
CONTINUOUS
 10
102.522746
 20
10.230979
 11
102.211078
 21
10.252071
 12
102.259959
 22
10.252484
 13
102.259959
 23
10.252484
  0
SOLID
  8
13
  6
CONTINUOUS
 10
102.522746
 20
10.230979
 11
102.259959
 21
10.252484
 12
102.290321
 22
10.252141
 13
102.290321
 23
10.252141
  0
SOLID
  8
13
  6
CONTINUOUS
 10
102.522746
 20
10.230979
 11
102.290321
 21
10.252141
 12
102.334203
 22
10.250668
 13
102.334203
 23
10.250668
  0
SOLID
  8
13
  6
CONTINUOUS
 10
102.522746
 20
10.230979
 11
102.334203
 21
10.250668
 12
102.394518
 22
10.246747
 13
102.394518
 23
10.246747
  0
SOLID
  8
13
  6
CONTINUOUS
 10
102.522746
 20
10.230979
 11
102.394518
 21
10.246747
 12
102.446340
 22
10.241621
 13
102.446340
 23
10.241621
  0
SOLID
  8
13
  6
CONTINUOUS
 10
102.522746
 20
10.230979
 11
102.446340
 21
10.241621
 12
102.490083
 22
10.235974
 13
102.490083
 23
10.235974
  0
SOLID
  8
13
  6
CONTINUOUS
 10
102.522746
 20
10.230979
 11
102.490083
 21
10.235974
 12
102.522746
 22
10.230979
 13
102.522746
 23
10.230979
  0
SOLID
  8
13
  6
CONTINUOUS
 10
102.594246
 20
10.217654
 11
102.594246
 21
9.498246
 12
103.021946
 22
9.498246
 13
103.021946
 23
9.498246
  0
SOLID
  8
13
  6
CONTINUOUS
 10
102.594246
 20
10.217654
 11
103.021946
 21
9.498246
 12
103.021946
 22
10.064184
 13
103.021946
 23
10.064184
  0
SOLID
  8
13
  6
CONTINUOUS
 10
102.594246
 20
10.217654
 11
103.021946
 21
10.064184
 12
103.003898
 22
10.073542
 13
103.003898
 23
10.073542
  0
SOLID
  8
13
  6
CONTINUOUS
 10
102.594246
 20
10.217654
 11
103.003898
 21
10.073542
 12
102.981716
 22
10.084501
 13
102.981716
 23
10.084501
  0
SOLID
  8
13
  6
CONTINUOUS
 10
102.594246
 20
10.217654
 11
102.981716
 21
10.084501
 12
102.953307
 22
10.098271
 13
102.953307
 23
10.098271
  0
SOLID
  8
13
  6
CONTINUOUS
 10
102.594246
 20
10.217654
 11
102.953307
 21
10.098271
 12
102.912865
 22
10.116383
 13
102.912865
 23
10.116383
  0
SOLID
  8
13
  6
CONTINUOUS
 10
102.594246
 20
10.217654
 11
102.912865
 21
10.116383
 12
102.885024
 22
10.128001
 13
102.885024
 23
10.128001
  0
SOLID
  8
13
  6
CONTINUOUS
 10
102.594246
 20
10.217654
 11
102.885024
 21
10.128001
 12
102.844071
 22
10.144755
 13
102.844071
 23
10.144755
  0
SOLID
  8
13
  6
CONTINUOUS
 10
102.594246
 20
10.217654
 11
102.844071
 21
10.144755
 12
102.813490
 22
10.155923
 13
102.813490
 23
10.155923
  0
SOLID
  8
13
  6
CONTINUOUS
 10
102.594246
 20
10.217654
 11
102.813490
 21
10.155923
 12
102.778388
 22
10.168156
 13
102.778388
 23
10.168156
  0
SOLID
  8
13
  6
CONTINUOUS
 10
102.594246
 20
10.217654
 11
102.778388
 21
10.168156
 12
102.744083
 22
10.178793
 13
102.744083
 23
10.178793
  0
SOLID
  8
13
  6
CONTINUOUS
 10
102.594246
 20
10.217654
 11
102.744083
 21
10.178793
 12
102.703465
 22
10.191172
 13
102.703465
 23
10.191172
  0
SOLID
  8
13
  6
CONTINUOUS
 10
102.594246
 20
10.217654
 11
102.703465
 21
10.191172
 12
102.665141
 22
10.201162
 13
102.665141
 23
10.201162
  0
SOLID
  8
13
  6
CONTINUOUS
 10
102.594246
 20
10.217654
 11
102.665141
 21
10.201162
 12
102.624819
 22
10.210970
 13
102.624819
 23
10.210970
  0
SOLID
  8
13
  6
CONTINUOUS
 10
102.594246
 20
10.217654
 11
102.624819
 21
10.210970
 12
102.594246
 22
10.217654
 13
102.594246
 23
10.217654
  0
SOLID
  8
13
  6
CONTINUOUS
 10
103.093446
 20
10.024343
 11
103.093446
 21
9.498246
 12
103.521146
 22
9.498246
 13
103.521146
 23
9.498246
  0
SOLID
  8
13
  6
CONTINUOUS
 10
103.093446
 20
10.024343
 11
103.521146
 21
9.498246
 12
103.521146
 22
9.661030
 13
103.521146
 23
9.661030
  0
SOLID
  8
13
  6
CONTINUOUS
 10
103.093446
 20
10.024343
 11
103.521146
 21
9.661030
 12
103.507797
 22
9.676793
 13
103.507797
 23
9.676793
  0
SOLID
  8
13
  6
CONTINUOUS
 10
103.093446
 20
10.024343
 11
103.507797
 21
9.676793
 12
103.495964
 22
9.690528
 13
103.495964
 23
9.690528
  0
SOLID
  8
13
  6
CONTINUOUS
 10
103.093446
 20
10.024343
 11
103.495964
 21
9.690528
 12
103.473877
 22
9.715277
 13
103.473877
 23
9.715277
  0
SOLID
  8
13
  6
CONTINUOUS
 10
103.093446
 20
10.024343
 11
103.473877
 21
9.715277
 12
103.454164
 22
9.736530
 13
103.454164
 23
9.736530
  0
SOLID
  8
13
  6
CONTINUOUS
 10
103.093446
 20
10.024343
 11
103.454164
 21
9.736530
 12
103.434048
 22
9.757502
 13
103.434048
 23
9.757502
  0
SOLID
  8
13
  6
CONTINUOUS
 10
103.093446
 20
10.024343
 11
103.434048
 21
9.757502
 12
103.410015
 22
9.781535
 13
103.410015
 23
9.781535
  0
SOLID
  8
13
  6
CONTINUOUS
 10
103.093446
 20
10.024343
 11
103.410015
 21
9.781535
 12
103.399294
 22
9.791943
 13
103.399294
 23
9.791943
  0
SOLID
  8
13
  6
CONTINUOUS
 10
103.093446
 20
10.024343
 11
103.399294
 21
9.791943
 12
103.388429
 22
9.802406
 13
103.388429
 23
9.802406
  0
SOLID
  8
13
  6
CONTINUOUS
 10
103.093446
 20
10.024343
 11
103.388429
 21
9.802406
 12
103.359952
 22
9.828752
 13
103.359952
 23
9.828752
  0
SOLID
  8
13
  6
CONTINUOUS
 10
103.093446
 20
10.024343
 11
103.359952
 21
9.828752
 12
103.325139
 22
9.859181
 13
103.325139
 23
9.859181
  0
SOLID
  8
13
  6
CONTINUOUS
 10
103.093446
 20
10.024343
 11
103.325139
 21
9.859181
 12
103.286846
 22
9.890826
 13
103.286846
 23
9.890826
  0
SOLID
  8
13
  6
CONTINUOUS
 10
103.093446
 20
10.024343
 11
103.286846
 21
9.890826
 12
103.251036
 22
9.918745
 13
103.251036
 23
9.918745
  0
SOLID
  8
13
  6
CONTINUOUS
 10
103.093446
 20
10.024343
 11
103.251036
 21
9.918745
 12
103.200839
 22
9.955427
 13
103.200839
 23
9.955427
  0
SOLID
  8
13
  6
CONTINUOUS
 10
103.093446
 20
10.024343
 11
103.200839
 21
9.955427
 12
103.134352
 22
9.999676
 13
103.134352
 23
9.999676
  0
SOLID
  8
13
  6
CONTINUOUS
 10
103.093446
 20
10.024343
 11
103.134352
 21
9.999676
 12
103.093446
 22
10.024343
 13
103.093446
 23
10.024343
  0
SOLID
  8
13
  6
CONTINUOUS
 10
102.522746
 20
10.635283
 11
102.522746
 21
11.162246
 12
102.095046
 22
11.162246
 13
102.095046
 23
11.162246
  0
SOLID
  8
13
  6
CONTINUOUS
 10
102.522746
 20
10.635283
 11
102.095046
 21
11.162246
 12
102.095046
 22
10.995122
 13
102.095046
 23
10.995122
  0
SOLID
  8
13
  6
CONTINUOUS
 10
102.522746
 20
10.635283
 11
102.095046
 21
10.995122
 12
102.153689
 22
10.929235
 13
102.153689
 23
10.929235
  0
SOLID
  8
13
  6
CONTINUOUS
 10
102.522746
 20
10.635283
 11
102.153689
 21
10.929235
 12
102.237359
 22
10.846559
 13
102.237359
 23
10.846559
  0
SOLID
  8
13
  6
CONTINUOUS
 10
102.522746
 20
10.635283
 11
102.237359
 21
10.846559
 12
102.308389
 22
10.784730
 13
102.308389
 23
10.784730
  0
SOLID
  8
13
  6
CONTINUOUS
 10
102.522746
 20
10.635283
 11
102.308389
 21
10.784730
 12
102.366624
 22
10.739274
 13
102.366624
 23
10.739274
  0
SOLID
  8
13
  6
CONTINUOUS
 10
102.522746
 20
10.635283
 11
102.366624
 21
10.739274
 12
102.406322
 22
10.710064
 13
102.406322
 23
10.710064
  0
SOLID
  8
13
  6
CONTINUOUS
 10
102.522746
 20
10.635283
 11
102.406322
 21
10.710064
 12
102.455827
 22
10.676682
 13
102.455827
 23
10.676682
  0
SOLID
  8
13
  6
CONTINUOUS
 10
102.522746
 20
10.635283
 11
102.455827
 21
10.676682
 12
102.493954
 22
10.652515
 13
102.493954
 23
10.652515
  0
SOLID
  8
13
  6
CONTINUOUS
 10
102.522746
 20
10.635283
 11
102.493954
 21
10.652515
 12
102.522746
 22
10.635283
 13
102.522746
 23
10.635283
  0
SOLID
  8
13
  6
CONTINUOUS
 10
103.021946
 20
10.443678
 11
103.021946
 21
11.162246
 12
102.594246
 22
11.162246
 13
102.594246
 23
11.162246
  0
SOLID
  8
13
  6
CONTINUOUS
 10
103.021946
 20
10.443678
 11
102.594246
 21
11.162246
 12
102.594246
 22
10.595859
 13
102.594246
 23
10.595859
  0
SOLID
  8
13
  6
CONTINUOUS
 10
103.021946
 20
10.443678
 11
102.594246
 21
10.595859
 12
102.663800
 22
10.561766
 13
102.663800
 23
10.561766
  0
SOLID
  8
13
  6
CONTINUOUS
 10
103.021946
 20
10.443678
 11
102.663800
 21
10.561766
 12
102.744359
 22
10.527375
 13
102.744359
 23
10.527375
  0
SOLID
  8
13
  6
CONTINUOUS
 10
103.021946
 20
10.443678
 11
102.744359
 21
10.527375
 12
102.812197
 22
10.501464
 13
102.812197
 23
10.501464
  0
SOLID
  8
13
  6
CONTINUOUS
 10
103.021946
 20
10.443678
 11
102.812197
 21
10.501464
 12
102.889458
 22
10.476967
 13
102.889458
 23
10.476967
  0
SOLID
  8
13
  6
CONTINUOUS
 10
103.021946
 20
10.443678
 11
102.889458
 21
10.476967
 12
102.950702
 22
10.460007
 13
102.950702
 23
10.460007
  0
SOLID
  8
13
  6
CONTINUOUS
 10
103.021946
 20
10.443678
 11
102.950702
 21
10.460007
 12
103.021946
 22
10.443678
 13
103.021946
 23
10.443678
  0
SOLID
  8
13
  6
CONTINUOUS
 10
103.093446
 20
10.430307
 11
103.093446
 21
11.162246
 12
103.521146
 22
11.162246
 13
103.521146
 23
11.162246
  0
SOLID
  8
13
  6
CONTINUOUS
 10
103.093446
 20
10.430307
 11
103.521146
 21
11.162246
 12
103.521146
 22
10.417580
 13
103.521146
 23
10.417580
  0
SOLID
  8
13
  6
CONTINUOUS
 10
103.093446
 20
10.430307
 11
103.521146
 21
10.417580
 12
103.476372
 22
10.413637
 13
103.476372
 23
10.413637
  0
SOLID
  8
13
  6
CONTINUOUS
 10
103.093446
 20
10.430307
 11
103.476372
 21
10.413637
 12
103.416577
 22
10.410480
 13
103.416577
 23
10.410480
  0
SOLID
  8
13
  6
CONTINUOUS
 10
103.093446
 20
10.430307
 11
103.416577
 21
10.410480
 12
103.366788
 22
10.409453
 13
103.366788
 23
10.409453
  0
SOLID
  8
13
  6
CONTINUOUS
 10
103.093446
 20
10.430307
 11
103.366788
 21
10.409453
 12
103.336830
 22
10.409453
 13
103.336830
 23
10.409453
  0
SOLID
  8
13
  6
CONTINUOUS
 10
103.093446
 20
10.430307
 11
103.336830
 21
10.409453
 12
103.286182
 22
10.410821
 13
103.286182
 23
10.410821
  0
SOLID
  8
13
  6
CONTINUOUS
 10
103.093446
 20
10.430307
 11
103.286182
 21
10.410821
 12
103.241261
 22
10.413321
 13
103.241261
 23
10.413321
  0
SOLID
  8
13
  6
CONTINUOUS
 10
103.093446
 20
10.430307
 11
103.241261
 21
10.413321
 12
103.205545
 22
10.416539
 13
103.205545
 23
10.416539
  0
SOLID
  8
13
  6
CONTINUOUS
 10
103.093446
 20
10.430307
 11
103.205545
 21
10.416539
 12
103.155349
 22
10.421044
 13
103.155349
 23
10.421044
  0
SOLID
  8
13
  6
CONTINUOUS
 10
103.093446
 20
10.430307
 11
103.155349
 21
10.421044
 12
103.093446
 22
10.430307
 13
103.093446
 23
10.430307
  0
SOLID
  8
13
  6
CONTINUOUS
 10
102.594246
 20
9.498246
 11
102.594246
 21
11.162246
 12
102.522746
 22
11.162246
 13
102.522746
 23
11.162246
  0
SOLID
  8
13
  6
CONTINUOUS
 10
102.594246
 20
9.498246
 11
102.522746
 21
11.162246
 12
102.522746
 22
9.498246
 13
102.522746
 23
9.498246
  0
SOLID
  8
13
  6
CONTINUOUS
 10
102.594246
 20
9.498246
 11
102.522746
 21
9.498246
 12
102.522746
 22
9.498246
 13
102.522746
 23
9.498246
  0
SOLID
  8
13
  6
CONTINUOUS
 10
103.021946
 20
11.162246
 11
103.093446
 21
11.162246
 12
103.093446
 22
9.498246
 13
103.093446
 23
9.498246
  0
SOLID
  8
13
  6
CONTINUOUS
 10
103.021946
 20
11.162246
 11
103.093446
 21
9.498246
 12
103.021946
 22
9.498246
 13
103.021946
 23
9.498246
  0
SOLID
  8
13
  6
CONTINUOUS
 10
103.021946
 20
11.162246
 11
103.021946
 21
9.498246
 12
103.021946
 22
11.162246
 13
103.021946
 23
11.162246
  0
SOLID
  8
13
  6
CONTINUOUS
 10
103.521146
 20
9.498246
 11
103.635546
 21
9.498246
 12
103.635546
 22
11.162246
 13
103.635546
 23
11.162246
  0
SOLID
  8
13
  6
CONTINUOUS
 10
103.521146
 20
9.498246
 11
103.635546
 21
11.162246
 12
103.521146
 22
11.162246
 13
103.521146
 23
11.162246
  0
SOLID
  8
13
  6
CONTINUOUS
 10
103.521146
 20
9.498246
 11
103.521146
 21
11.162246
 12
103.521146
 22
9.498246
 13
103.521146
 23
9.498246
  0
POLYLINE
  8
1
  6
CONTINUOUS
 66
     1
  0
VERTEX
  8
1
  6
CONTINUOUS
 10
96.654077
 20
45.426316
  0
VERTEX
  8
1
  6
CONTINUOUS
 10
97.979343
 20
45.314153
  0
SEQEND
  8
1
  6
CONTINUOUS
  0
POLYLINE
  8
1
  6
CONTINUOUS
 66
     1
  0
VERTEX
  8
1
  6
CONTINUOUS
 10
98.021510
 20
45.812372
  0
VERTEX
  8
1
  6
CONTINUOUS
 10
96.696160
 20
45.924542
  0
SEQEND
  8
1
  6
CONTINUOUS
  0
POLYLINE
  8
1
  6
CONTINUOUS
 66
     1
  0
VERTEX
  8
1
  6
CONTINUOUS
 10
86.822711
 20
46.258387
  0
VERTEX
  8
1
  6
CONTINUOUS
 10
95.491567
 20
45.524704
  0
SEQEND
  8
1
  6
CONTINUOUS
  0
POLYLINE
  8
1
  6
CONTINUOUS
 66
     1
  0
VERTEX
  8
1
  6
CONTINUOUS
 10
95.533649
 20
46.022930
  0
VERTEX
  8
1
  6
CONTINUOUS
 10
86.864793
 20
46.756612
  0
SEQEND
  8
1
  6
CONTINUOUS
  0
POLYLINE
  8
1
  6
CONTINUOUS
 66
     1
  0
VERTEX
  8
1
  6
CONTINUOUS
 10
76.027970
 20
47.171992
  0
VERTEX
  8
1
  6
CONTINUOUS
 10
86.324492
 20
46.300553
  0
SEQEND
  8
1
  6
CONTINUOUS
  0
POLYLINE
  8
1
  6
CONTINUOUS
 66
     1
  0
VERTEX
  8
1
  6
CONTINUOUS
 10
86.366574
 20
46.798779
  0
VERTEX
  8
1
  6
CONTINUOUS
 10
76.070052
 20
47.670218
  0
SEQEND
  8
1
  6
CONTINUOUS
  0
POLYLINE
  8
1
  6
CONTINUOUS
 66
     1
  0
VERTEX
  8
1
  6
CONTINUOUS
 10
66.893958
 20
47.945042
  0
VERTEX
  8
1
  6
CONTINUOUS
 10
75.529751
 20
47.214158
  0
SEQEND
  8
1
  6
CONTINUOUS
  0
POLYLINE
  8
1
  6
CONTINUOUS
 66
     1
  0
VERTEX
  8
1
  6
CONTINUOUS
 10
75.571833
 20
47.712384
  0
VERTEX
  8
1
  6
CONTINUOUS
 10
66.936041
 20
48.443268
  0
SEQEND
  8
1
  6
CONTINUOUS
  0
POLYLINE
  8
1
  6
CONTINUOUS
 66
     1
  0
VERTEX
  8
1
  6
CONTINUOUS
 10
58.965204
 20
48.616087
  0
VERTEX
  8
1
  6
CONTINUOUS
 10
66.395739
 20
47.987209
  0
SEQEND
  8
1
  6
CONTINUOUS
  0
POLYLINE
  8
1
  6
CONTINUOUS
 66
     1
  0
VERTEX
  8
1
  6
CONTINUOUS
 10
66.437822
 20
48.485434
  0
VERTEX
  8
1
  6
CONTINUOUS
 10
59.007286
 20
49.114312
  0
SEQEND
  8
1
  6
CONTINUOUS
  0
POLYLINE
  8
1
  6
CONTINUOUS
 66
     1
  0
VERTEX
  8
1
  6
CONTINUOUS
 10
54.194776
 20
49.019828
  0
VERTEX
  8
1
  6
CONTINUOUS
 10
57.802693
 20
48.714475
  0
SEQEND
  8
1
  6
CONTINUOUS
  0
POLYLINE
  8
1
  6
CONTINUOUS
 66
     1
  0
VERTEX
  8
1
  6
CONTINUOUS
 10
57.844775
 20
49.212701
  0
VERTEX
  8
1
  6
CONTINUOUS
 10
54.049192
 20
49.533937
  0
SEQEND
  8
1
  6
CONTINUOUS
  0
POLYLINE
  8
1
  6
CONTINUOUS
 66
     1
  0
VERTEX
  8
1
  6
CONTINUOUS
 10
46.111442
 20
49.703955
  0
VERTEX
  8
1
  6
CONTINUOUS
 10
53.861442
 20
49.048040
  0
SEQEND
  8
1
  6
CONTINUOUS
  0
POLYLINE
  8
1
  6
CONTINUOUS
 66
     1
  0
VERTEX
  8
1
  6
CONTINUOUS
 10
54.049192
 20
49.533937
  0
VERTEX
  8
1
  6
CONTINUOUS
 10
45.965859
 20
50.218064
  0
SEQEND
  8
1
  6
CONTINUOUS
  0
POLYLINE
  8
1
  6
CONTINUOUS
 66
     1
  0
VERTEX
  8
1
  6
CONTINUOUS
 10
37.867732
 20
50.401656
  0
VERTEX
  8
1
  6
CONTINUOUS
 10
45.778109
 20
49.732167
  0
SEQEND
  8
1
  6
CONTINUOUS
  0
POLYLINE
  8
1
  6
CONTINUOUS
 66
     1
  0
VERTEX
  8
1
  6
CONTINUOUS
 10
45.965859
 20
50.218064
  0
VERTEX
  8
1
  6
CONTINUOUS
 10
37.722148
 20
50.915765
  0
SEQEND
  8
1
  6
CONTINUOUS
  0
POLYLINE
  8
1
  6
CONTINUOUS
 66
     1
  0
VERTEX
  8
1
  6
CONTINUOUS
 10
35.442651
 20
50.606901
  0
VERTEX
  8
1
  6
CONTINUOUS
 10
37.534399
 20
50.429867
  0
SEQEND
  8
1
  6
CONTINUOUS
  0
POLYLINE
  8
1
  6
CONTINUOUS
 66
     1
  0
VERTEX
  8
1
  6
CONTINUOUS
 10
37.722148
 20
50.915765
  0
VERTEX
  8
1
  6
CONTINUOUS
 10
35.484733
 20
51.105127
  0
SEQEND
  8
1
  6
CONTINUOUS
  0
POLYLINE
  8
1
  6
CONTINUOUS
 66
     1
  0
VERTEX
  8
1
  6
CONTINUOUS
 10
29.701065
 20
51.092836
  0
VERTEX
  8
1
  6
CONTINUOUS
 10
34.280140
 20
50.705289
  0
SEQEND
  8
1
  6
CONTINUOUS
  0
POLYLINE
  8
1
  6
CONTINUOUS
 66
     1
  0
VERTEX
  8
1
  6
CONTINUOUS
 10
34.322222
 20
51.203515
  0
VERTEX
  8
1
  6
CONTINUOUS
 10
29.555482
 20
51.606945
  0
SEQEND
  8
1
  6
CONTINUOUS
  0
POLYLINE
  8
1
  6
CONTINUOUS
 66
     1
  0
VERTEX
  8
1
  6
CONTINUOUS
 10
25.976493
 20
51.408062
  0
VERTEX
  8
1
  6
CONTINUOUS
 10
29.367732
 20
51.121047
  0
SEQEND
  8
1
  6
CONTINUOUS
  0
POLYLINE
  8
1
  6
CONTINUOUS
 66
     1
  0
VERTEX
  8
1
  6
CONTINUOUS
 10
29.555482
 20
51.606945
  0
VERTEX
  8
1
  6
CONTINUOUS
 10
26.018575
 20
51.906288
  0
SEQEND
  8
1
  6
CONTINUOUS
  0
POLYLINE
  8
1
  6
CONTINUOUS
 66
     1
  0
VERTEX
  8
1
  6
CONTINUOUS
 10
16.391798
 20
52.219256
  0
VERTEX
  8
1
  6
CONTINUOUS
 10
25.478274
 20
51.450229
  0
SEQEND
  8
1
  6
CONTINUOUS
  0
POLYLINE
  8
1
  6
CONTINUOUS
 66
     1
  0
VERTEX
  8
1
  6
CONTINUOUS
 10
25.520357
 20
51.948455
  0
VERTEX
  8
1
  6
CONTINUOUS
 10
16.433880
 20
52.717482
  0
SEQEND
  8
1
  6
CONTINUOUS
  0
POLYLINE
  8
1
  6
CONTINUOUS
 66
     1
  0
VERTEX
  8
1
  6
CONTINUOUS
 10
7.589932
 20
52.964196
  0
VERTEX
  8
1
  6
CONTINUOUS
 10
15.893579
 20
52.261422
  0
SEQEND
  8
1
  6
CONTINUOUS
  0
POLYLINE
  8
1
  6
CONTINUOUS
 66
     1
  0
VERTEX
  8
1
  6
CONTINUOUS
 10
15.935661
 20
52.759648
  0
VERTEX
  8
1
  6
CONTINUOUS
 10
7.632014
 20
53.462422
  0
SEQEND
  8
1
  6
CONTINUOUS
  0
POLYLINE
  8
1
  6
CONTINUOUS
 66
     1
  0
VERTEX
  8
1
  6
CONTINUOUS
 10
5.347236
 20
53.154005
  0
VERTEX
  8
1
  6
CONTINUOUS
 10
6.427421
 20
53.062584
  0
SEQEND
  8
1
  6
CONTINUOUS
  0
POLYLINE
  8
1
  6
CONTINUOUS
 66
     1
  0
VERTEX
  8
1
  6
CONTINUOUS
 10
6.469504
 20
53.560810
  0
VERTEX
  8
1
  6
CONTINUOUS
 10
4.848300
 20
53.698019
  0
SEQEND
  8
1
  6
CONTINUOUS
  0
POLYLINE
  8
1
  6
CONTINUOUS
 66
     1
  0
VERTEX
  8
1
  6
CONTINUOUS
 10
97.979343
 20
45.314153
  0
VERTEX
  8
1
  6
CONTINUOUS
 10
98.021510
 20
45.812372
  0
SEQEND
  8
1
  6
CONTINUOUS
  0
POLYLINE
  8
1
  6
CONTINUOUS
 66
     1
  0
VERTEX
  8
1
  6
CONTINUOUS
 10
4.804483
 20
31.301854
  0
VERTEX
  8
1
  6
CONTINUOUS
 10
4.786158
 20
21.935205
  0
SEQEND
  8
1
  6
CONTINUOUS
  0
POLYLINE
  8
1
  6
CONTINUOUS
 66
     1
  0
VERTEX
  8
1
  6
CONTINUOUS
 10
5.286157
 20
21.934228
  0
VERTEX
  8
1
  6
CONTINUOUS
 10
5.304482
 20
31.300877
  0
SEQEND
  8
1
  6
CONTINUOUS
  0
POLYLINE
  8
1
  6
CONTINUOUS
 66
     1
  0
VERTEX
  8
1
  6
CONTINUOUS
 10
4.819743
 20
39.101839
  0
VERTEX
  8
1
  6
CONTINUOUS
 10
4.805461
 20
31.801853
  0
SEQEND
  8
1
  6
CONTINUOUS
  0
POLYLINE
  8
1
  6
CONTINUOUS
 66
     1
  0
VERTEX
  8
1
  6
CONTINUOUS
 10
5.305460
 20
31.800876
  0
VERTEX
  8
1
  6
CONTINUOUS
 10
5.319742
 20
39.100862
  0
SEQEND
  8
1
  6
CONTINUOUS
  0
POLYLINE
  8
1
  6
CONTINUOUS
 66
     1
  0
VERTEX
  8
1
  6
CONTINUOUS
 10
4.844036
 20
51.518482
  0
VERTEX
  8
1
  6
CONTINUOUS
 10
4.820722
 20
39.601838
  0
SEQEND
  8
1
  6
CONTINUOUS
  0
POLYLINE
  8
1
  6
CONTINUOUS
 66
     1
  0
VERTEX
  8
1
  6
CONTINUOUS
 10
5.320721
 20
39.600861
  0
VERTEX
  8
1
  6
CONTINUOUS
 10
5.344035
 20
51.517505
  0
SEQEND
  8
1
  6
CONTINUOUS
  0
POLYLINE
  8
1
  6
CONTINUOUS
 66
     1
  0
VERTEX
  8
1
  6
CONTINUOUS
 10
4.848300
 20
53.698019
  0
VERTEX
  8
1
  6
CONTINUOUS
 10
4.845014
 20
52.018481
  0
SEQEND
  8
1
  6
CONTINUOUS
  0
POLYLINE
  8
1
  6
CONTINUOUS
 66
     1
  0
VERTEX
  8
1
  6
CONTINUOUS
 10
5.345013
 20
52.017504
  0
VERTEX
  8
1
  6
CONTINUOUS
 10
5.347236
 20
53.154005
  0
SEQEND
  8
1
  6
CONTINUOUS
  0
POLYLINE
  8
1
  6
CONTINUOUS
 66
     1
  0
VERTEX
  8
1
  6
CONTINUOUS
 10
5.299590
 20
11.720378
  0
VERTEX
  8
1
  6
CONTINUOUS
 10
5.298102
 20
10.959650
  0
SEQEND
  8
1
  6
CONTINUOUS
  0
POLYLINE
  8
1
  6
CONTINUOUS
 66
     1
  0
VERTEX
  8
1
  6
CONTINUOUS
 10
5.765608
 20
11.388407
  0
VERTEX
  8
1
  6
CONTINUOUS
 10
5.766255
 20
11.719466
  0
SEQEND
  8
1
  6
CONTINUOUS
  0
POLYLINE
  8
1
  6
CONTINUOUS
 66
     1
  0
VERTEX
  8
1
  6
CONTINUOUS
 10
5.317535
 20
20.900832
  0
VERTEX
  8
1
  6
CONTINUOUS
 10
5.300567
 20
12.220377
  0
SEQEND
  8
1
  6
CONTINUOUS
  0
POLYLINE
  8
1
  6
CONTINUOUS
 66
     1
  0
VERTEX
  8
1
  6
CONTINUOUS
 10
5.767233
 20
12.219465
  0
VERTEX
  8
1
  6
CONTINUOUS
 10
5.784201
 20
20.899919
  0
SEQEND
  8
1
  6
CONTINUOUS
  0
POLYLINE
  8
1
  6
CONTINUOUS
 66
     1
  0
VERTEX
  8
1
  6
CONTINUOUS
 10
54.008425
 20
6.835804
  0
VERTEX
  8
1
  6
CONTINUOUS
 10
59.158452
 20
6.399800
  0
SEQEND
  8
1
  6
CONTINUOUS
  0
POLYLINE
  8
1
  6
CONTINUOUS
 66
     1
  0
VERTEX
  8
1
  6
CONTINUOUS
 10
59.197810
 20
6.864804
  0
VERTEX
  8
1
  6
CONTINUOUS
 10
54.194776
 20
7.288364
  0
SEQEND
  8
1
  6
CONTINUOUS
  0
POLYLINE
  8
1
  6
CONTINUOUS
 66
     1
  0
VERTEX
  8
1
  6
CONTINUOUS
 10
49.791872
 20
7.192780
  0
VERTEX
  8
1
  6
CONTINUOUS
 10
54.008425
 20
6.835804
  0
SEQEND
  8
1
  6
CONTINUOUS
  0
POLYLINE
  8
1
  6
CONTINUOUS
 66
     1
  0
VERTEX
  8
1
  6
CONTINUOUS
 10
53.861442
 20
7.316584
  0
VERTEX
  8
1
  6
CONTINUOUS
 10
49.831230
 20
7.657784
  0
SEQEND
  8
1
  6
CONTINUOUS
  0
POLYLINE
  8
1
  6
CONTINUOUS
 66
     1
  0
VERTEX
  8
1
  6
CONTINUOUS
 10
45.925092
 20
7.520144
  0
VERTEX
  8
1
  6
CONTINUOUS
 10
48.961509
 20
7.263079
  0
SEQEND
  8
1
  6
CONTINUOUS
  0
POLYLINE
  8
1
  6
CONTINUOUS
 66
     1
  0
VERTEX
  8
1
  6
CONTINUOUS
 10
49.000867
 20
7.728083
  0
VERTEX
  8
1
  6
CONTINUOUS
 10
46.111442
 20
7.972704
  0
SEQEND
  8
1
  6
CONTINUOUS
  0
POLYLINE
  8
1
  6
CONTINUOUS
 66
     1
  0
VERTEX
  8
1
  6
CONTINUOUS
 10
39.553702
 20
8.059550
  0
VERTEX
  8
1
  6
CONTINUOUS
 10
45.925092
 20
7.520144
  0
SEQEND
  8
1
  6
CONTINUOUS
  0
POLYLINE
  8
1
  6
CONTINUOUS
 66
     1
  0
VERTEX
  8
1
  6
CONTINUOUS
 10
45.778109
 20
8.000924
  0
VERTEX
  8
1
  6
CONTINUOUS
 10
39.593060
 20
8.524554
  0
SEQEND
  8
1
  6
CONTINUOUS
  0
POLYLINE
  8
1
  6
CONTINUOUS
 66
     1
  0
VERTEX
  8
1
  6
CONTINUOUS
 10
37.681381
 20
8.218062
  0
VERTEX
  8
1
  6
CONTINUOUS
 10
38.723339
 20
8.129849
  0
SEQEND
  8
1
  6
CONTINUOUS
  0
POLYLINE
  8
1
  6
CONTINUOUS
 66
     1
  0
VERTEX
  8
1
  6
CONTINUOUS
 10
38.762697
 20
8.594853
  0
VERTEX
  8
1
  6
CONTINUOUS
 10
37.867732
 20
8.670621
  0
SEQEND
  8
1
  6
CONTINUOUS
  0
POLYLINE
  8
1
  6
CONTINUOUS
 66
     1
  0
VERTEX
  8
1
  6
CONTINUOUS
 10
29.786695
 20
8.886431
  0
VERTEX
  8
1
  6
CONTINUOUS
 10
37.681381
 20
8.218062
  0
SEQEND
  8
1
  6
CONTINUOUS
  0
POLYLINE
  8
1
  6
CONTINUOUS
 66
     1
  0
VERTEX
  8
1
  6
CONTINUOUS
 10
37.534399
 20
8.698841
  0
VERTEX
  8
1
  6
CONTINUOUS
 10
29.826053
 20
9.351435
  0
SEQEND
  8
1
  6
CONTINUOUS
  0
POLYLINE
  8
1
  6
CONTINUOUS
 66
     1
  0
VERTEX
  8
1
  6
CONTINUOUS
 10
20.455355
 20
9.676428
  0
VERTEX
  8
1
  6
CONTINUOUS
 10
29.288477
 20
8.928610
  0
SEQEND
  8
1
  6
CONTINUOUS
  0
POLYLINE
  8
1
  6
CONTINUOUS
 66
     1
  0
VERTEX
  8
1
  6
CONTINUOUS
 10
29.327835
 20
9.393614
  0
VERTEX
  8
1
  6
CONTINUOUS
 10
20.494713
 20
10.141432
  0
SEQEND
  8
1
  6
CONTINUOUS
  0
POLYLINE
  8
1
  6
CONTINUOUS
 66
     1
  0
VERTEX
  8
1
  6
CONTINUOUS
 10
12.940571
 20
10.312634
  0
VERTEX
  8
1
  6
CONTINUOUS
 10
19.957137
 20
9.718607
  0
SEQEND
  8
1
  6
CONTINUOUS
  0
POLYLINE
  8
1
  6
CONTINUOUS
 66
     1
  0
VERTEX
  8
1
  6
CONTINUOUS
 10
19.996495
 20
10.183611
  0
VERTEX
  8
1
  6
CONTINUOUS
 10
12.979929
 20
10.777638
  0
SEQEND
  8
1
  6
CONTINUOUS
  0
POLYLINE
  8
1
  6
CONTINUOUS
 66
     1
  0
VERTEX
  8
1
  6
CONTINUOUS
 10
5.298102
 20
10.959650
  0
VERTEX
  8
1
  6
CONTINUOUS
 10
12.442353
 20
10.354814
  0
SEQEND
  8
1
  6
CONTINUOUS
  0
POLYLINE
  8
1
  6
CONTINUOUS
 66
     1
  0
VERTEX
  8
1
  6
CONTINUOUS
 10
12.481711
 20
10.819818
  0
VERTEX
  8
1
  6
CONTINUOUS
 10
5.765608
 20
11.388407
  0
SEQEND
  8
1
  6
CONTINUOUS
  0
POLYLINE
  8
1
  6
CONTINUOUS
 66
     1
  0
VERTEX
  8
1
  6
CONTINUOUS
 10
93.062202
 20
2.994338
  0
VERTEX
  8
1
  6
CONTINUOUS
 10
94.387454
 20
2.882151
  0
SEQEND
  8
1
  6
CONTINUOUS
  0
POLYLINE
  8
1
  6
CONTINUOUS
 66
     1
  0
VERTEX
  8
1
  6
CONTINUOUS
 10
94.429630
 20
3.380369
  0
VERTEX
  8
1
  6
CONTINUOUS
 10
93.104380
 20
3.492556
  0
SEQEND
  8
1
  6
CONTINUOUS
  0
POLYLINE
  8
1
  6
CONTINUOUS
 66
     1
  0
VERTEX
  8
1
  6
CONTINUOUS
 10
80.166028
 20
4.086035
  0
VERTEX
  8
1
  6
CONTINUOUS
 10
92.563984
 20
3.036513
  0
SEQEND
  8
1
  6
CONTINUOUS
  0
POLYLINE
  8
1
  6
CONTINUOUS
 66
     1
  0
VERTEX
  8
1
  6
CONTINUOUS
 10
92.606162
 20
3.534731
  0
VERTEX
  8
1
  6
CONTINUOUS
 10
80.208206
 20
4.584253
  0
SEQEND
  8
1
  6
CONTINUOUS
  0
POLYLINE
  8
1
  6
CONTINUOUS
 66
     1
  0
VERTEX
  8
1
  6
CONTINUOUS
 10
70.201667
 20
4.929546
  0
VERTEX
  8
1
  6
CONTINUOUS
 10
79.667810
 20
4.128211
  0
SEQEND
  8
1
  6
CONTINUOUS
  0
POLYLINE
  8
1
  6
CONTINUOUS
 66
     1
  0
VERTEX
  8
1
  6
CONTINUOUS
 10
79.709988
 20
4.626429
  0
VERTEX
  8
1
  6
CONTINUOUS
 10
70.243846
 20
5.427764
  0
SEQEND
  8
1
  6
CONTINUOUS
  0
POLYLINE
  8
1
  6
CONTINUOUS
 66
     1
  0
VERTEX
  8
1
  6
CONTINUOUS
 10
60.143108
 20
5.781032
  0
VERTEX
  8
1
  6
CONTINUOUS
 10
69.703449
 20
4.971722
  0
SEQEND
  8
1
  6
CONTINUOUS
  0
POLYLINE
  8
1
  6
CONTINUOUS
 66
     1
  0
VERTEX
  8
1
  6
CONTINUOUS
 10
69.745627
 20
5.469940
  0
VERTEX
  8
1
  6
CONTINUOUS
 10
60.185277
 20
6.279250
  0
SEQEND
  8
1
  6
CONTINUOUS
  0
POLYLINE
  8
1
  6
CONTINUOUS
 66
     1
  0
VERTEX
  8
1
  6
CONTINUOUS
 10
94.387454
 20
2.882151
  0
VERTEX
  8
1
  6
CONTINUOUS
 10
94.429630
 20
3.380369
  0
SEQEND
  8
1
  6
CONTINUOUS
  0
POLYLINE
  8
1
  6
ESTILO_TQS_0001
 66
     1
  0
VERTEX
  8
1
  6
ESTILO_TQS_0001
 10
53.861442
 20
49.048040
  0
VERTEX
  8
1
  6
ESTILO_TQS_0001
 10
53.861442
 20
7.316584
  0
SEQEND
  8
1
  6
ESTILO_TQS_0001
  0
POLYLINE
  8
1
  6
ESTILO_TQS_0001
 66
     1
  0
VERTEX
  8
1
  6
ESTILO_TQS_0001
 10
54.194776
 20
7.288364
  0
VERTEX
  8
1
  6
ESTILO_TQS_0001
 10
54.194776
 20
49.019828
  0
SEQEND
  8
1
  6
ESTILO_TQS_0001
  0
POLYLINE
  8
1
  6
CONTINUOUS
 66
     1
  0
VERTEX
  8
1
  6
CONTINUOUS
 10
54.194776
 20
7.288364
  0
VERTEX
  8
1
  6
CONTINUOUS
 10
53.861442
 20
7.316584
  0
SEQEND
  8
1
  6
CONTINUOUS
  0
POLYLINE
  8
1
  6
CONTINUOUS
 66
     1
  0
VERTEX
  8
1
  6
CONTINUOUS
 10
54.194776
 20
49.019828
  0
VERTEX
  8
1
  6
CONTINUOUS
 10
53.861442
 20
49.048040
  0
SEQEND
  8
1
  6
CONTINUOUS
  0
POLYLINE
  8
1
  6
CONTINUOUS
 66
     1
  0
VERTEX
  8
1
  6
CONTINUOUS
 10
46.111442
 20
7.972704
  0
VERTEX
  8
1
  6
CONTINUOUS
 10
45.778109
 20
8.000924
  0
SEQEND
  8
1
  6
CONTINUOUS
  0
POLYLINE
  8
1
  6
CONTINUOUS
 66
     1
  0
VERTEX
  8
1
  6
CONTINUOUS
 10
46.111442
 20
49.703955
  0
VERTEX
  8
1
  6
CONTINUOUS
 10
45.778109
 20
49.732167
  0
SEQEND
  8
1
  6
CONTINUOUS
  0
POLYLINE
  8
1
  6
CONTINUOUS
 66
     1
  0
VERTEX
  8
1
  6
CONTINUOUS
 10
37.867732
 20
8.670621
  0
VERTEX
  8
1
  6
CONTINUOUS
 10
37.534399
 20
8.698841
  0
SEQEND
  8
1
  6
CONTINUOUS
  0
POLYLINE
  8
1
  6
CONTINUOUS
 66
     1
  0
VERTEX
  8
1
  6
CONTINUOUS
 10
37.867732
 20
50.401656
  0
VERTEX
  8
1
  6
CONTINUOUS
 10
37.534399
 20
50.429867
  0
SEQEND
  8
1
  6
CONTINUOUS
  0
POLYLINE
  8
1
  6
CONTINUOUS
 66
     1
  0
VERTEX
  8
1
  6
CONTINUOUS
 10
29.701065
 20
51.092836
  0
VERTEX
  8
1
  6
CONTINUOUS
 10
29.367732
 20
51.121047
  0
SEQEND
  8
1
  6
CONTINUOUS
  0
LINE
  8
1
  6
CONTINUOUS
 10
94.429724
 20
3.380872
 11
97.979309
 21
45.314156
  0
LINE
  8
1
  6
CONTINUOUS
 10
5.318513
 20
21.400831
 11
5.285179
 21
21.400896
  0
LINE
  8
1
  6
CONTINUOUS
 10
5.285179
 20
21.400896
 11
5.285179
 21
21.434229
  0
LINE
  8
1
  6
CONTINUOUS
 10
59.687076
 20
6.321631
 11
59.653862
 21
6.324443
  0
LINE
  8
1
  6
CONTINUOUS
 10
59.653862
 20
6.324443
 11
59.656703
 21
6.357651
  0
LINE
  8
1
  6
CONTINUOUS
 10
76.711427
 20
15.334136
 11
76.711427
 21
15.334136
  0
POLYLINE
  8
1
  6
CONTINUOUS
 66
     1
  0
VERTEX
  8
1
  6
CONTINUOUS
 10
77.091469
 20
14.883813
  0
VERTEX
  8
1
  6
CONTINUOUS
 10
77.161751
 20
15.714177
  0
VERTEX
  8
1
  6
CONTINUOUS
 10
76.331386
 20
15.784459
  0
VERTEX
  8
1
  6
CONTINUOUS
 10
76.261104
 20
14.954095
  0
VERTEX
  8
1
  6
CONTINUOUS
 10
77.091469
 20
14.883813
  0
SEQEND
  8
1
  6
CONTINUOUS
  0
LINE
  8
1
  6
CONTINUOUS
 10
77.627403
 20
26.155095
 11
77.627403
 21
26.155095
  0
POLYLINE
  8
1
  6
CONTINUOUS
 66
     1
  0
VERTEX
  8
1
  6
CONTINUOUS
 10
78.007444
 20
25.704772
  0
VERTEX
  8
1
  6
CONTINUOUS
 10
78.077726
 20
26.535136
  0
VERTEX
  8
1
  6
CONTINUOUS
 10
77.247362
 20
26.605419
  0
VERTEX
  8
1
  6
CONTINUOUS
 10
77.177079
 20
25.775054
  0
VERTEX
  8
1
  6
CONTINUOUS
 10
78.007444
 20
25.704772
  0
SEQEND
  8
1
  6
CONTINUOUS
  0
LINE
  8
1
  6
CONTINUOUS
 10
78.503831
 20
36.508846
 11
78.503831
 21
36.508846
  0
POLYLINE
  8
1
  6
CONTINUOUS
 66
     1
  0
VERTEX
  8
1
  6
CONTINUOUS
 10
78.883872
 20
36.058522
  0
VERTEX
  8
1
  6
CONTINUOUS
 10
78.954154
 20
36.888887
  0
VERTEX
  8
1
  6
CONTINUOUS
 10
78.123790
 20
36.959169
  0
VERTEX
  8
1
  6
CONTINUOUS
 10
78.053508
 20
36.128805
  0
VERTEX
  8
1
  6
CONTINUOUS
 10
78.883872
 20
36.058522
  0
SEQEND
  8
1
  6
CONTINUOUS
  0
LINE
  8
1
  6
CONTINUOUS
 10
60.104153
 20
16.739909
 11
60.104153
 21
16.739909
  0
POLYLINE
  8
1
  6
CONTINUOUS
 66
     1
  0
VERTEX
  8
1
  6
CONTINUOUS
 10
60.484194
 20
16.289585
  0
VERTEX
  8
1
  6
CONTINUOUS
 10
60.554476
 20
17.119950
  0
VERTEX
  8
1
  6
CONTINUOUS
 10
59.724112
 20
17.190232
  0
VERTEX
  8
1
  6
CONTINUOUS
 10
59.653829
 20
16.359868
  0
VERTEX
  8
1
  6
CONTINUOUS
 10
60.484194
 20
16.289585
  0
SEQEND
  8
1
  6
CONTINUOUS
  0
LINE
  8
1
  6
CONTINUOUS
 10
61.193229
 20
27.629848
 11
61.193229
 21
27.629848
  0
POLYLINE
  8
1
  6
CONTINUOUS
 66
     1
  0
VERTEX
  8
1
  6
CONTINUOUS
 10
61.573270
 20
27.179525
  0
VERTEX
  8
1
  6
CONTINUOUS
 10
61.643552
 20
28.009889
  0
VERTEX
  8
1
  6
CONTINUOUS
 10
60.813188
 20
28.080171
  0
VERTEX
  8
1
  6
CONTINUOUS
 10
60.742906
 20
27.249807
  0
VERTEX
  8
1
  6
CONTINUOUS
 10
61.573270
 20
27.179525
  0
SEQEND
  8
1
  6
CONTINUOUS
  0
LINE
  8
1
  6
CONTINUOUS
 10
62.062629
 20
37.900562
 11
62.062629
 21
37.900562
  0
POLYLINE
  8
1
  6
CONTINUOUS
 66
     1
  0
VERTEX
  8
1
  6
CONTINUOUS
 10
62.442670
 20
37.450239
  0
VERTEX
  8
1
  6
CONTINUOUS
 10
62.512952
 20
38.280603
  0
VERTEX
  8
1
  6
CONTINUOUS
 10
61.682588
 20
38.350885
  0
VERTEX
  8
1
  6
CONTINUOUS
 10
61.612306
 20
37.520521
  0
VERTEX
  8
1
  6
CONTINUOUS
 10
62.442670
 20
37.450239
  0
SEQEND
  8
1
  6
CONTINUOUS
  0
LINE
  8
1
  6
CONTINUOUS
 10
43.620781
 20
17.633406
 11
43.620781
 21
17.633406
  0
POLYLINE
  8
1
  6
CONTINUOUS
 66
     1
  0
VERTEX
  8
1
  6
CONTINUOUS
 10
43.820693
 20
17.031067
  0
VERTEX
  8
1
  6
CONTINUOUS
 10
43.919088
 20
18.193577
  0
VERTEX
  8
1
  6
CONTINUOUS
 10
43.420869
 20
18.235746
  0
VERTEX
  8
1
  6
CONTINUOUS
 10
43.322474
 20
17.073236
  0
VERTEX
  8
1
  6
CONTINUOUS
 10
43.820693
 20
17.031067
  0
SEQEND
  8
1
  6
CONTINUOUS
  0
LINE
  8
1
  6
CONTINUOUS
 10
44.621095
 20
29.450803
 11
44.621095
 21
29.450803
  0
POLYLINE
  8
1
  6
CONTINUOUS
 66
     1
  0
VERTEX
  8
1
  6
CONTINUOUS
 10
44.821007
 20
28.848463
  0
VERTEX
  8
1
  6
CONTINUOUS
 10
44.919402
 20
30.010973
  0
VERTEX
  8
1
  6
CONTINUOUS
 10
44.421183
 20
30.053143
  0
VERTEX
  8
1
  6
CONTINUOUS
 10
44.322788
 20
28.890633
  0
VERTEX
  8
1
  6
CONTINUOUS
 10
44.821007
 20
28.848463
  0
SEQEND
  8
1
  6
CONTINUOUS
  0
LINE
  8
1
  6
CONTINUOUS
 10
45.497523
 20
39.804553
 11
45.497523
 21
39.804553
  0
POLYLINE
  8
1
  6
CONTINUOUS
 66
     1
  0
VERTEX
  8
1
  6
CONTINUOUS
 10
45.697435
 20
39.202213
  0
VERTEX
  8
1
  6
CONTINUOUS
 10
45.795830
 20
40.364723
  0
VERTEX
  8
1
  6
CONTINUOUS
 10
45.297612
 20
40.406893
  0
VERTEX
  8
1
  6
CONTINUOUS
 10
45.199216
 20
39.244383
  0
VERTEX
  8
1
  6
CONTINUOUS
 10
45.697435
 20
39.202213
  0
SEQEND
  8
1
  6
CONTINUOUS
  0
LINE
  8
1
  6
CONTINUOUS
 10
14.643717
 20
20.086233
 11
14.643717
 21
20.086233
  0
POLYLINE
  8
1
  6
CONTINUOUS
 66
     1
  0
VERTEX
  8
1
  6
CONTINUOUS
 10
14.843629
 20
19.483893
  0
VERTEX
  8
1
  6
CONTINUOUS
 10
14.942024
 20
20.646403
  0
VERTEX
  8
1
  6
CONTINUOUS
 10
14.443805
 20
20.688572
  0
VERTEX
  8
1
  6
CONTINUOUS
 10
14.345410
 20
19.526062
  0
VERTEX
  8
1
  6
CONTINUOUS
 10
14.843629
 20
19.483893
  0
SEQEND
  8
1
  6
CONTINUOUS
  0
LINE
  8
1
  6
CONTINUOUS
 10
15.644031
 20
31.903629
 11
15.644031
 21
31.903629
  0
POLYLINE
  8
1
  6
CONTINUOUS
 66
     1
  0
VERTEX
  8
1
  6
CONTINUOUS
 10
15.843942
 20
31.301290
  0
VERTEX
  8
1
  6
CONTINUOUS
 10
15.942338
 20
32.463800
  0
VERTEX
  8
1
  6
CONTINUOUS
 10
15.444119
 20
32.505969
  0
VERTEX
  8
1
  6
CONTINUOUS
 10
15.345724
 20
31.343459
  0
VERTEX
  8
1
  6
CONTINUOUS
 10
15.843942
 20
31.301290
  0
SEQEND
  8
1
  6
CONTINUOUS
  0
LINE
  8
1
  6
CONTINUOUS
 10
93.675513
 20
14.191657
 11
93.675513
 21
14.191657
  0
POLYLINE
  8
1
  6
CONTINUOUS
 66
     1
  0
VERTEX
  8
1
  6
CONTINUOUS
 10
93.979546
 20
13.831398
  0
VERTEX
  8
1
  6
CONTINUOUS
 10
94.035771
 20
14.495690
  0
VERTEX
  8
1
  6
CONTINUOUS
 10
93.371480
 20
14.551915
  0
VERTEX
  8
1
  6
CONTINUOUS
 10
93.315254
 20
13.887624
  0
VERTEX
  8
1
  6
CONTINUOUS
 10
93.979546
 20
13.831398
  0
SEQEND
  8
1
  6
CONTINUOUS
  0
LINE
  8
1
  6
CONTINUOUS
 10
94.546949
 20
24.487443
 11
94.546949
 21
24.487443
  0
POLYLINE
  8
1
  6
CONTINUOUS
 66
     1
  0
VERTEX
  8
1
  6
CONTINUOUS
 10
94.850981
 20
24.127185
  0
VERTEX
  8
1
  6
CONTINUOUS
 10
94.907207
 20
24.791476
  0
VERTEX
  8
1
  6
CONTINUOUS
 10
94.242916
 20
24.847702
  0
VERTEX
  8
1
  6
CONTINUOUS
 10
94.186690
 20
24.183411
  0
VERTEX
  8
1
  6
CONTINUOUS
 10
94.850981
 20
24.127185
  0
SEQEND
  8
1
  6
CONTINUOUS
  0
LINE
  8
1
  6
CONTINUOUS
 10
95.418446
 20
34.783959
 11
95.418446
 21
34.783959
  0
POLYLINE
  8
1
  6
CONTINUOUS
 66
     1
  0
VERTEX
  8
1
  6
CONTINUOUS
 10
95.722479
 20
34.423700
  0
VERTEX
  8
1
  6
CONTINUOUS
 10
95.778705
 20
35.087992
  0
VERTEX
  8
1
  6
CONTINUOUS
 10
95.114413
 20
35.144217
  0
VERTEX
  8
1
  6
CONTINUOUS
 10
95.058187
 20
34.479926
  0
VERTEX
  8
1
  6
CONTINUOUS
 10
95.722479
 20
34.423700
  0
SEQEND
  8
1
  6
CONTINUOUS
  0
LINE
  8
1
  6
CONTINUOUS
 10
12.711048
 20
10.565125
 11
12.711048
 21
10.565125
  0
POLYLINE
  8
1
  6
CONTINUOUS
 66
     1
  0
VERTEX
  8
1
  6
CONTINUOUS
 10
12.979836
 20
10.776542
  0
VERTEX
  8
1
  6
CONTINUOUS
 10
12.481617
 20
10.818712
  0
VERTEX
  8
1
  6
CONTINUOUS
 10
12.442259
 20
10.353708
  0
VERTEX
  8
1
  6
CONTINUOUS
 10
12.940478
 20
10.311538
  0
VERTEX
  8
1
  6
CONTINUOUS
 10
12.979836
 20
10.776542
  0
SEQEND
  8
1
  6
CONTINUOUS
  0
LINE
  8
1
  6
CONTINUOUS
 10
96.093862
 20
45.724609
 11
96.093862
 21
45.724609
  0
POLYLINE
  8
1
  6
CONTINUOUS
 66
     1
  0
VERTEX
  8
1
  6
CONTINUOUS
 10
96.654084
 20
45.426400
  0
VERTEX
  8
1
  6
CONTINUOUS
 10
96.696167
 20
45.924626
  0
VERTEX
  8
1
  6
CONTINUOUS
 10
95.533640
 20
46.022818
  0
VERTEX
  8
1
  6
CONTINUOUS
 10
95.491557
 20
45.524592
  0
VERTEX
  8
1
  6
CONTINUOUS
 10
96.654084
 20
45.426400
  0
SEQEND
  8
1
  6
CONTINUOUS
  0
LINE
  8
1
  6
CONTINUOUS
 10
86.594650
 20
46.528669
 11
86.594650
 21
46.528669
  0
POLYLINE
  8
1
  6
CONTINUOUS
 66
     1
  0
VERTEX
  8
1
  6
CONTINUOUS
 10
86.822722
 20
46.258515
  0
VERTEX
  8
1
  6
CONTINUOUS
 10
86.864804
 20
46.756741
  0
VERTEX
  8
1
  6
CONTINUOUS
 10
86.366578
 20
46.798824
  0
VERTEX
  8
1
  6
CONTINUOUS
 10
86.324496
 20
46.300598
  0
VERTEX
  8
1
  6
CONTINUOUS
 10
86.822722
 20
46.258515
  0
SEQEND
  8
1
  6
CONTINUOUS
  0
LINE
  8
1
  6
CONTINUOUS
 10
75.799910
 20
47.442284
 11
75.799910
 21
47.442284
  0
POLYLINE
  8
1
  6
CONTINUOUS
 66
     1
  0
VERTEX
  8
1
  6
CONTINUOUS
 10
76.027981
 20
47.172130
  0
VERTEX
  8
1
  6
CONTINUOUS
 10
76.070064
 20
47.670356
  0
VERTEX
  8
1
  6
CONTINUOUS
 10
75.571838
 20
47.712439
  0
VERTEX
  8
1
  6
CONTINUOUS
 10
75.529756
 20
47.214213
  0
VERTEX
  8
1
  6
CONTINUOUS
 10
76.027981
 20
47.172130
  0
SEQEND
  8
1
  6
CONTINUOUS
  0
LINE
  8
1
  6
CONTINUOUS
 10
66.665899
 20
48.215343
 11
66.665899
 21
48.215343
  0
POLYLINE
  8
1
  6
CONTINUOUS
 66
     1
  0
VERTEX
  8
1
  6
CONTINUOUS
 10
66.893971
 20
47.945189
  0
VERTEX
  8
1
  6
CONTINUOUS
 10
66.936053
 20
48.443415
  0
VERTEX
  8
1
  6
CONTINUOUS
 10
66.437827
 20
48.485498
  0
VERTEX
  8
1
  6
CONTINUOUS
 10
66.395745
 20
47.987272
  0
VERTEX
  8
1
  6
CONTINUOUS
 10
66.893971
 20
47.945189
  0
SEQEND
  8
1
  6
CONTINUOUS
  0
LINE
  8
1
  6
CONTINUOUS
 10
25.748438
 20
51.678415
 11
25.748438
 21
51.678415
  0
POLYLINE
  8
1
  6
CONTINUOUS
 66
     1
  0
VERTEX
  8
1
  6
CONTINUOUS
 10
25.976510
 20
51.408261
  0
VERTEX
  8
1
  6
CONTINUOUS
 10
26.018592
 20
51.906486
  0
VERTEX
  8
1
  6
CONTINUOUS
 10
25.520366
 20
51.948569
  0
VERTEX
  8
1
  6
CONTINUOUS
 10
25.478284
 20
51.450343
  0
VERTEX
  8
1
  6
CONTINUOUS
 10
25.976510
 20
51.408261
  0
SEQEND
  8
1
  6
CONTINUOUS
  0
LINE
  8
1
  6
CONTINUOUS
 10
16.163743
 20
52.489614
 11
16.163743
 21
52.489614
  0
POLYLINE
  8
1
  6
CONTINUOUS
 66
     1
  0
VERTEX
  8
1
  6
CONTINUOUS
 10
16.391815
 20
52.219460
  0
VERTEX
  8
1
  6
CONTINUOUS
 10
16.433897
 20
52.717686
  0
VERTEX
  8
1
  6
CONTINUOUS
 10
15.935671
 20
52.759769
  0
VERTEX
  8
1
  6
CONTINUOUS
 10
15.893589
 20
52.261543
  0
VERTEX
  8
1
  6
CONTINUOUS
 10
16.391815
 20
52.219460
  0
SEQEND
  8
1
  6
CONTINUOUS
  0
LINE
  8
1
  6
CONTINUOUS
 10
7.029736
 20
53.262716
 11
7.029736
 21
53.262716
  0
POLYLINE
  8
1
  6
CONTINUOUS
 66
     1
  0
VERTEX
  8
1
  6
CONTINUOUS
 10
7.589958
 20
52.964507
  0
VERTEX
  8
1
  6
CONTINUOUS
 10
7.632040
 20
53.462733
  0
VERTEX
  8
1
  6
CONTINUOUS
 10
6.469513
 20
53.560925
  0
VERTEX
  8
1
  6
CONTINUOUS
 10
6.427431
 20
53.062700
  0
VERTEX
  8
1
  6
CONTINUOUS
 10
7.589958
 20
52.964507
  0
SEQEND
  8
1
  6
CONTINUOUS
  0
LINE
  8
1
  6
CONTINUOUS
 10
5.551357
 20
21.150375
 11
5.551357
 21
21.150375
  0
POLYLINE
  8
1
  6
CONTINUOUS
 66
     1
  0
VERTEX
  8
1
  6
CONTINUOUS
 10
5.784201
 20
20.899919
  0
VERTEX
  8
1
  6
CONTINUOUS
 10
5.785178
 20
21.399918
  0
VERTEX
  8
1
  6
CONTINUOUS
 10
5.318513
 20
21.400831
  0
VERTEX
  8
1
  6
CONTINUOUS
 10
5.317535
 20
20.900832
  0
VERTEX
  8
1
  6
CONTINUOUS
 10
5.784201
 20
20.899919
  0
SEQEND
  8
1
  6
CONTINUOUS
  0
LINE
  8
1
  6
CONTINUOUS
 10
5.070292
 20
39.351350
 11
5.070292
 21
39.351350
  0
POLYLINE
  8
1
  6
CONTINUOUS
 66
     1
  0
VERTEX
  8
1
  6
CONTINUOUS
 10
5.319803
 20
39.100862
  0
VERTEX
  8
1
  6
CONTINUOUS
 10
5.320780
 20
39.600861
  0
VERTEX
  8
1
  6
CONTINUOUS
 10
4.820781
 20
39.601838
  0
VERTEX
  8
1
  6
CONTINUOUS
 10
4.819804
 20
39.101839
  0
VERTEX
  8
1
  6
CONTINUOUS
 10
5.319803
 20
39.100862
  0
SEQEND
  8
1
  6
CONTINUOUS
  0
LINE
  8
1
  6
CONTINUOUS
 10
5.094580
 20
51.767993
 11
5.094580
 21
51.767993
  0
POLYLINE
  8
1
  6
CONTINUOUS
 66
     1
  0
VERTEX
  8
1
  6
CONTINUOUS
 10
5.344091
 20
51.517505
  0
VERTEX
  8
1
  6
CONTINUOUS
 10
5.345069
 20
52.017504
  0
VERTEX
  8
1
  6
CONTINUOUS
 10
4.845070
 20
52.018481
  0
VERTEX
  8
1
  6
CONTINUOUS
 10
4.844092
 20
51.518482
  0
VERTEX
  8
1
  6
CONTINUOUS
 10
5.344091
 20
51.517505
  0
SEQEND
  8
1
  6
CONTINUOUS
  0
LINE
  8
1
  6
CONTINUOUS
 10
58.405004
 20
48.914570
 11
58.405004
 21
48.914570
  0
POLYLINE
  8
1
  6
CONTINUOUS
 66
     1
  0
VERTEX
  8
1
  6
CONTINUOUS
 10
58.965227
 20
48.616361
  0
VERTEX
  8
1
  6
CONTINUOUS
 10
59.007309
 20
49.114587
  0
VERTEX
  8
1
  6
CONTINUOUS
 10
57.844782
 20
49.212779
  0
VERTEX
  8
1
  6
CONTINUOUS
 10
57.802700
 20
48.714553
  0
VERTEX
  8
1
  6
CONTINUOUS
 10
58.965227
 20
48.616361
  0
SEQEND
  8
1
  6
CONTINUOUS
  0
LINE
  8
1
  6
CONTINUOUS
 10
20.225847
 20
9.929092
 11
20.225847
 21
9.929092
  0
POLYLINE
  8
1
  6
CONTINUOUS
 66
     1
  0
VERTEX
  8
1
  6
CONTINUOUS
 10
20.494635
 20
10.140509
  0
VERTEX
  8
1
  6
CONTINUOUS
 10
19.996416
 20
10.182678
  0
VERTEX
  8
1
  6
CONTINUOUS
 10
19.957058
 20
9.717674
  0
VERTEX
  8
1
  6
CONTINUOUS
 10
20.455277
 20
9.675505
  0
VERTEX
  8
1
  6
CONTINUOUS
 10
20.494635
 20
10.140509
  0
SEQEND
  8
1
  6
CONTINUOUS
  0
LINE
  8
1
  6
CONTINUOUS
 10
69.973640
 20
5.199660
 11
69.973640
 21
5.199660
  0
POLYLINE
  8
1
  6
CONTINUOUS
 66
     1
  0
VERTEX
  8
1
  6
CONTINUOUS
 10
70.243838
 20
5.427680
  0
VERTEX
  8
1
  6
CONTINUOUS
 10
69.745621
 20
5.469858
  0
VERTEX
  8
1
  6
CONTINUOUS
 10
69.703443
 20
4.971640
  0
VERTEX
  8
1
  6
CONTINUOUS
 10
70.201660
 20
4.929462
  0
VERTEX
  8
1
  6
CONTINUOUS
 10
70.243838
 20
5.427680
  0
SEQEND
  8
1
  6
CONTINUOUS
  0
LINE
  8
1
  6
CONTINUOUS
 10
79.938016
 20
4.356327
 11
79.938016
 21
4.356327
  0
POLYLINE
  8
1
  6
CONTINUOUS
 66
     1
  0
VERTEX
  8
1
  6
CONTINUOUS
 10
80.208214
 20
4.584347
  0
VERTEX
  8
1
  6
CONTINUOUS
 10
79.709996
 20
4.626525
  0
VERTEX
  8
1
  6
CONTINUOUS
 10
79.667818
 20
4.128307
  0
VERTEX
  8
1
  6
CONTINUOUS
 10
80.166036
 20
4.086129
  0
VERTEX
  8
1
  6
CONTINUOUS
 10
80.208214
 20
4.584347
  0
SEQEND
  8
1
  6
CONTINUOUS
  0
LINE
  8
1
  6
CONTINUOUS
 10
92.834184
 20
3.264565
 11
92.834184
 21
3.264565
  0
POLYLINE
  8
1
  6
CONTINUOUS
 66
     1
  0
VERTEX
  8
1
  6
CONTINUOUS
 10
93.104382
 20
3.492585
  0
VERTEX
  8
1
  6
CONTINUOUS
 10
92.606164
 20
3.534763
  0
VERTEX
  8
1
  6
CONTINUOUS
 10
92.563986
 20
3.036545
  0
VERTEX
  8
1
  6
CONTINUOUS
 10
93.062204
 20
2.994367
  0
VERTEX
  8
1
  6
CONTINUOUS
 10
93.104382
 20
3.492585
  0
SEQEND
  8
1
  6
CONTINUOUS
  0
LINE
  8
1
  6
CONTINUOUS
 10
34.882442
 20
50.905269
 11
34.882442
 21
50.905269
  0
POLYLINE
  8
1
  6
CONTINUOUS
 66
     1
  0
VERTEX
  8
1
  6
CONTINUOUS
 10
35.442664
 20
50.607060
  0
VERTEX
  8
1
  6
CONTINUOUS
 10
35.484746
 20
51.105286
  0
VERTEX
  8
1
  6
CONTINUOUS
 10
34.322219
 20
51.203478
  0
VERTEX
  8
1
  6
CONTINUOUS
 10
34.280137
 20
50.705252
  0
VERTEX
  8
1
  6
CONTINUOUS
 10
35.442664
 20
50.607060
  0
SEQEND
  8
1
  6
CONTINUOUS
  0
LINE
  8
1
  6
CONTINUOUS
 10
49.396348
 20
7.460177
 11
49.396348
 21
7.460177
  0
POLYLINE
  8
1
  6
CONTINUOUS
 66
     1
  0
VERTEX
  8
1
  6
CONTINUOUS
 10
49.831210
 20
7.657538
  0
VERTEX
  8
1
  6
CONTINUOUS
 10
49.000845
 20
7.727821
  0
VERTEX
  8
1
  6
CONTINUOUS
 10
48.961487
 20
7.262817
  0
VERTEX
  8
1
  6
CONTINUOUS
 10
49.791851
 20
7.192534
  0
VERTEX
  8
1
  6
CONTINUOUS
 10
49.831210
 20
7.657538
  0
SEQEND
  8
1
  6
CONTINUOUS
  0
LINE
  8
1
  6
CONTINUOUS
 10
30.237826
 20
18.655605
 11
30.237826
 21
18.655605
  0
POLYLINE
  8
1
  6
CONTINUOUS
 66
     1
  0
VERTEX
  8
1
  6
CONTINUOUS
 10
30.437738
 20
18.053265
  0
VERTEX
  8
1
  6
CONTINUOUS
 10
30.536133
 20
19.215775
  0
VERTEX
  8
1
  6
CONTINUOUS
 10
30.037914
 20
19.257945
  0
VERTEX
  8
1
  6
CONTINUOUS
 10
29.939519
 20
18.095435
  0
VERTEX
  8
1
  6
CONTINUOUS
 10
30.437738
 20
18.053265
  0
SEQEND
  8
1
  6
CONTINUOUS
  0
LINE
  8
1
  6
CONTINUOUS
 10
31.237989
 20
30.473014
 11
31.237989
 21
30.473014
  0
POLYLINE
  8
1
  6
CONTINUOUS
 66
     1
  0
VERTEX
  8
1
  6
CONTINUOUS
 10
31.437901
 20
29.870675
  0
VERTEX
  8
1
  6
CONTINUOUS
 10
31.536296
 20
31.033185
  0
VERTEX
  8
1
  6
CONTINUOUS
 10
31.038077
 20
31.075354
  0
VERTEX
  8
1
  6
CONTINUOUS
 10
30.939682
 20
29.912844
  0
VERTEX
  8
1
  6
CONTINUOUS
 10
31.437901
 20
29.870675
  0
SEQEND
  8
1
  6
CONTINUOUS
  0
LINE
  8
1
  6
CONTINUOUS
 10
31.870604
 20
37.947751
 11
31.870604
 21
37.947751
  0
POLYLINE
  8
1
  6
CONTINUOUS
 66
     1
  0
VERTEX
  8
1
  6
CONTINUOUS
 10
32.070516
 20
37.345411
  0
VERTEX
  8
1
  6
CONTINUOUS
 10
32.168911
 20
38.507921
  0
VERTEX
  8
1
  6
CONTINUOUS
 10
31.670693
 20
38.550090
  0
VERTEX
  8
1
  6
CONTINUOUS
 10
31.572297
 20
37.387580
  0
VERTEX
  8
1
  6
CONTINUOUS
 10
32.070516
 20
37.345411
  0
SEQEND
  8
1
  6
CONTINUOUS
  0
LINE
  8
1
  6
CONTINUOUS
 10
16.478292
 20
41.759184
 11
16.478292
 21
41.759184
  0
POLYLINE
  8
1
  6
CONTINUOUS
 66
     1
  0
VERTEX
  8
1
  6
CONTINUOUS
 10
16.678204
 20
41.156844
  0
VERTEX
  8
1
  6
CONTINUOUS
 10
16.776599
 20
42.319354
  0
VERTEX
  8
1
  6
CONTINUOUS
 10
16.278380
 20
42.361523
  0
VERTEX
  8
1
  6
CONTINUOUS
 10
16.179985
 20
41.199013
  0
VERTEX
  8
1
  6
CONTINUOUS
 10
16.678204
 20
41.156844
  0
SEQEND
  8
1
  6
CONTINUOUS
  0
LINE
  8
1
  6
CONTINUOUS
 10
59.915101
 20
6.051437
 11
59.915101
 21
6.051437
  0
POLYLINE
  8
1
  6
CONTINUOUS
 66
     1
  0
VERTEX
  8
1
  6
CONTINUOUS
 10
60.185295
 20
6.279462
  0
VERTEX
  8
1
  6
CONTINUOUS
 10
59.687076
 20
6.321631
  0
VERTEX
  8
1
  6
CONTINUOUS
 10
59.644907
 20
5.823413
  0
VERTEX
  8
1
  6
CONTINUOUS
 10
60.143125
 20
5.781243
  0
VERTEX
  8
1
  6
CONTINUOUS
 10
60.185295
 20
6.279462
  0
SEQEND
  8
1
  6
CONTINUOUS
  0
LINE
  8
1
  6
CONTINUOUS
 10
5.055034
 20
31.551365
 11
5.055034
 21
31.551365
  0
POLYLINE
  8
1
  6
CONTINUOUS
 66
     1
  0
VERTEX
  8
1
  6
CONTINUOUS
 10
5.304545
 20
31.300877
  0
VERTEX
  8
1
  6
CONTINUOUS
 10
5.305522
 20
31.800876
  0
VERTEX
  8
1
  6
CONTINUOUS
 10
4.805523
 20
31.801853
  0
VERTEX
  8
1
  6
CONTINUOUS
 10
4.804546
 20
31.301854
  0
VERTEX
  8
1
  6
CONTINUOUS
 10
5.304545
 20
31.300877
  0
SEQEND
  8
1
  6
CONTINUOUS
  0
LINE
  8
1
  6
CONTINUOUS
 10
59.427243
 20
6.611245
 11
59.427243
 21
6.611245
  0
POLYLINE
  8
1
  6
CONTINUOUS
 66
     1
  0
VERTEX
  8
1
  6
CONTINUOUS
 10
59.696031
 20
6.822662
  0
VERTEX
  8
1
  6
CONTINUOUS
 10
59.197813
 20
6.864831
  0
VERTEX
  8
1
  6
CONTINUOUS
 10
59.158454
 20
6.399827
  0
VERTEX
  8
1
  6
CONTINUOUS
 10
59.656673
 20
6.357658
  0
VERTEX
  8
1
  6
CONTINUOUS
 10
59.696031
 20
6.822662
  0
SEQEND
  8
1
  6
CONTINUOUS
  0
LINE
  8
1
  6
CONTINUOUS
 10
29.557235
 20
9.139670
 11
29.557235
 21
9.139670
  0
POLYLINE
  8
1
  6
CONTINUOUS
 66
     1
  0
VERTEX
  8
1
  6
CONTINUOUS
 10
29.826023
 20
9.351087
  0
VERTEX
  8
1
  6
CONTINUOUS
 10
29.327805
 20
9.393256
  0
VERTEX
  8
1
  6
CONTINUOUS
 10
29.288447
 20
8.928252
  0
VERTEX
  8
1
  6
CONTINUOUS
 10
29.786665
 20
8.886083
  0
VERTEX
  8
1
  6
CONTINUOUS
 10
29.826023
 20
9.351087
  0
SEQEND
  8
1
  6
CONTINUOUS
  0
LINE
  8
1
  6
CONTINUOUS
 10
5.035668
 20
21.684717
 11
5.035668
 21
21.684717
  0
POLYLINE
  8
1
  6
CONTINUOUS
 66
     1
  0
VERTEX
  8
1
  6
CONTINUOUS
 10
5.285179
 20
21.434229
  0
VERTEX
  8
1
  6
CONTINUOUS
 10
5.286157
 20
21.934228
  0
VERTEX
  8
1
  6
CONTINUOUS
 10
4.786158
 20
21.935205
  0
VERTEX
  8
1
  6
CONTINUOUS
 10
4.785180
 20
21.435206
  0
VERTEX
  8
1
  6
CONTINUOUS
 10
5.285179
 20
21.434229
  0
SEQEND
  8
1
  6
CONTINUOUS
  0
LINE
  8
1
  6
CONTINUOUS
 10
5.533398
 20
11.969921
 11
5.533398
 21
11.969921
  0
POLYLINE
  8
1
  6
CONTINUOUS
 66
     1
  0
VERTEX
  8
1
  6
CONTINUOUS
 10
5.766243
 20
11.719466
  0
VERTEX
  8
1
  6
CONTINUOUS
 10
5.767220
 20
12.219465
  0
VERTEX
  8
1
  6
CONTINUOUS
 10
5.300554
 20
12.220377
  0
VERTEX
  8
1
  6
CONTINUOUS
 10
5.299577
 20
11.720378
  0
VERTEX
  8
1
  6
CONTINUOUS
 10
5.766243
 20
11.719466
  0
SEQEND
  8
1
  6
CONTINUOUS
  0
LINE
  8
1
  6
CONTINUOUS
 10
39.158176
 20
8.326931
 11
39.158176
 21
8.326931
  0
POLYLINE
  8
1
  6
CONTINUOUS
 66
     1
  0
VERTEX
  8
1
  6
CONTINUOUS
 10
39.593038
 20
8.524292
  0
VERTEX
  8
1
  6
CONTINUOUS
 10
38.762673
 20
8.594574
  0
VERTEX
  8
1
  6
CONTINUOUS
 10
38.723315
 20
8.129570
  0
VERTEX
  8
1
  6
CONTINUOUS
 10
39.553680
 20
8.059288
  0
VERTEX
  8
1
  6
CONTINUOUS
 10
39.593038
 20
8.524292
  0
SEQEND
  8
1
  6
CONTINUOUS
  0
LINE
  8
4
  6
CONTINUOUS
 10
94.917405
 20
9.141657
 11
95.664733
 21
9.078401
  0
LINE
  8
4
  6
CONTINUOUS
 10
95.659989
 20
9.022352
 11
95.669477
 21
9.134451
  0
LINE
  8
4
  6
CONTINUOUS
 10
95.659989
 20
9.022352
 11
96.412061
 21
9.015146
  0
LINE
  8
4
  6
CONTINUOUS
 10
95.669477
 20
9.134451
 11
96.412061
 21
9.015146
  0
LINE
  8
4
  6
CONTINUOUS
 10
95.505779
 20
8.978953
 11
95.524756
 21
9.203152
  0
LINE
  8
4
  6
CONTINUOUS
 10
95.412363
 20
8.986860
 11
95.431340
 21
9.211059
  0
LINE
  8
4
  6
CONTINUOUS
 10
95.318947
 20
8.994767
 11
95.337924
 21
9.218965
  0
LINE
  8
4
  6
CONTINUOUS
 10
6.257306
 20
16.646019
 11
5.260869
 21
16.730359
  0
LINE
  8
4
  6
CONTINUOUS
 10
5.269303
 20
16.830003
 11
5.252435
 21
16.630715
  0
LINE
  8
4
  6
CONTINUOUS
 10
5.289232
 20
16.828316
 11
5.272364
 21
16.629029
  0
LINE
  8
4
  6
CONTINUOUS
 10
5.309161
 20
16.826629
 11
5.292293
 21
16.627342
  0
POLYLINE
  8
4
  6
CONTINUOUS
 66
     1
  0
VERTEX
  8
4
  6
CONTINUOUS
 10
6.257306
 20
16.646019
  0
VERTEX
  8
4
  6
CONTINUOUS
 10
94.917405
 20
9.141657
  0
SEQEND
  8
4
  6
CONTINUOUS
  0
LINE
  8
4
  6
CONTINUOUS
 10
94.990500
 20
10.005235
 11
95.737828
 21
9.941980
  0
LINE
  8
4
  6
CONTINUOUS
 10
95.733084
 20
9.885931
 11
95.742572
 21
9.998030
  0
LINE
  8
4
  6
CONTINUOUS
 10
95.733084
 20
9.885931
 11
96.485156
 21
9.878725
  0
LINE
  8
4
  6
CONTINUOUS
 10
95.742572
 20
9.998030
 11
96.485156
 21
9.878725
  0
LINE
  8
4
  6
CONTINUOUS
 10
95.578874
 20
9.842532
 11
95.597851
 21
10.066730
  0
LINE
  8
4
  6
CONTINUOUS
 10
95.485458
 20
9.850439
 11
95.504435
 21
10.074637
  0
LINE
  8
4
  6
CONTINUOUS
 10
95.392042
 20
9.858346
 11
95.411019
 21
10.082544
  0
LINE
  8
4
  6
CONTINUOUS
 10
6.330401
 20
17.509597
 11
5.333964
 21
17.593938
  0
LINE
  8
4
  6
CONTINUOUS
 10
5.342398
 20
17.693582
 11
5.325530
 21
17.494294
  0
LINE
  8
4
  6
CONTINUOUS
 10
5.362327
 20
17.691895
 11
5.345459
 21
17.492607
  0
LINE
  8
4
  6
CONTINUOUS
 10
5.382256
 20
17.690208
 11
5.365388
 21
17.490921
  0
POLYLINE
  8
4
  6
CONTINUOUS
 66
     1
  0
VERTEX
  8
4
  6
CONTINUOUS
 10
6.330401
 20
17.509597
  0
VERTEX
  8
4
  6
CONTINUOUS
 10
94.990500
 20
10.005235
  0
SEQEND
  8
4
  6
CONTINUOUS
  0
LINE
  8
4
  6
CONTINUOUS
 10
95.063595
 20
10.868814
 11
95.810923
 21
10.805559
  0
LINE
  8
4
  6
CONTINUOUS
 10
95.806179
 20
10.749509
 11
95.815667
 21
10.861608
  0
LINE
  8
4
  6
CONTINUOUS
 10
95.806179
 20
10.749509
 11
96.558251
 21
10.742304
  0
LINE
  8
4
  6
CONTINUOUS
 10
95.815667
 20
10.861608
 11
96.558251
 21
10.742304
  0
LINE
  8
4
  6
CONTINUOUS
 10
95.651969
 20
10.706111
 11
95.670946
 21
10.930309
  0
LINE
  8
4
  6
CONTINUOUS
 10
95.558553
 20
10.714018
 11
95.577530
 21
10.938216
  0
LINE
  8
4
  6
CONTINUOUS
 10
95.465137
 20
10.721925
 11
95.484114
 21
10.946123
  0
LINE
  8
4
  6
CONTINUOUS
 10
6.403496
 20
18.373176
 11
5.407059
 21
18.457517
  0
LINE
  8
4
  6
CONTINUOUS
 10
5.415493
 20
18.557160
 11
5.398625
 21
18.357873
  0
LINE
  8
4
  6
CONTINUOUS
 10
5.435422
 20
18.555473
 11
5.418554
 21
18.356186
  0
LINE
  8
4
  6
CONTINUOUS
 10
5.455351
 20
18.553787
 11
5.438483
 21
18.354499
  0
POLYLINE
  8
4
  6
CONTINUOUS
 66
     1
  0
VERTEX
  8
4
  6
CONTINUOUS
 10
6.403496
 20
18.373176
  0
VERTEX
  8
4
  6
CONTINUOUS
 10
95.063595
 20
10.868814
  0
SEQEND
  8
4
  6
CONTINUOUS
  0
LINE
  8
4
  6
CONTINUOUS
 10
95.136690
 20
11.732393
 11
95.884018
 21
11.669138
  0
LINE
  8
4
  6
CONTINUOUS
 10
95.879274
 20
11.613088
 11
95.888762
 21
11.725187
  0
LINE
  8
4
  6
CONTINUOUS
 10
95.879274
 20
11.613088
 11
96.631346
 21
11.605882
  0
LINE
  8
4
  6
CONTINUOUS
 10
95.888762
 20
11.725187
 11
96.631346
 21
11.605882
  0
LINE
  8
4
  6
CONTINUOUS
 10
95.725064
 20
11.569690
 11
95.744041
 21
11.793888
  0
LINE
  8
4
  6
CONTINUOUS
 10
95.631648
 20
11.577596
 11
95.650625
 21
11.801795
  0
LINE
  8
4
  6
CONTINUOUS
 10
95.538232
 20
11.585503
 11
95.557209
 21
11.809702
  0
LINE
  8
4
  6
CONTINUOUS
 10
6.476591
 20
19.236755
 11
5.480154
 21
19.321095
  0
LINE
  8
4
  6
CONTINUOUS
 10
5.488588
 20
19.420739
 11
5.471720
 21
19.221452
  0
LINE
  8
4
  6
CONTINUOUS
 10
5.508517
 20
19.419052
 11
5.491649
 21
19.219765
  0
LINE
  8
4
  6
CONTINUOUS
 10
5.528446
 20
19.417365
 11
5.511578
 21
19.218078
  0
POLYLINE
  8
4
  6
CONTINUOUS
 66
     1
  0
VERTEX
  8
4
  6
CONTINUOUS
 10
6.476591
 20
19.236755
  0
VERTEX
  8
4
  6
CONTINUOUS
 10
95.136690
 20
11.732393
  0
SEQEND
  8
4
  6
CONTINUOUS
  0
LINE
  8
4
  6
CONTINUOUS
 10
95.209785
 20
12.595972
 11
95.957113
 21
12.532716
  0
LINE
  8
4
  6
CONTINUOUS
 10
95.952369
 20
12.476667
 11
95.961857
 21
12.588766
  0
LINE
  8
4
  6
CONTINUOUS
 10
95.952369
 20
12.476667
 11
96.704441
 21
12.469461
  0
LINE
  8
4
  6
CONTINUOUS
 10
95.961857
 20
12.588766
 11
96.704441
 21
12.469461
  0
LINE
  8
4
  6
CONTINUOUS
 10
95.798159
 20
12.433268
 11
95.817136
 21
12.657467
  0
LINE
  8
4
  6
CONTINUOUS
 10
95.704743
 20
12.441175
 11
95.723720
 21
12.665373
  0
LINE
  8
4
  6
CONTINUOUS
 10
95.611327
 20
12.449082
 11
95.630304
 21
12.673280
  0
LINE
  8
4
  6
CONTINUOUS
 10
6.549686
 20
20.100334
 11
5.553249
 21
20.184674
  0
LINE
  8
4
  6
CONTINUOUS
 10
5.561683
 20
20.284318
 11
5.544815
 21
20.085030
  0
LINE
  8
4
  6
CONTINUOUS
 10
5.581612
 20
20.282631
 11
5.564744
 21
20.083344
  0
LINE
  8
4
  6
CONTINUOUS
 10
5.601541
 20
20.280944
 11
5.584673
 21
20.081657
  0
POLYLINE
  8
4
  6
CONTINUOUS
 66
     1
  0
VERTEX
  8
4
  6
CONTINUOUS
 10
6.549686
 20
20.100334
  0
VERTEX
  8
4
  6
CONTINUOUS
 10
95.209785
 20
12.595972
  0
SEQEND
  8
4
  6
CONTINUOUS
  0
LINE
  8
4
  6
CONTINUOUS
 10
95.282880
 20
13.459550
 11
96.030208
 21
13.396295
  0
LINE
  8
4
  6
CONTINUOUS
 10
96.025464
 20
13.340246
 11
96.034952
 21
13.452345
  0
LINE
  8
4
  6
CONTINUOUS
 10
96.025464
 20
13.340246
 11
96.777536
 21
13.333040
  0
LINE
  8
4
  6
CONTINUOUS
 10
96.034952
 20
13.452345
 11
96.777536
 21
13.333040
  0
LINE
  8
4
  6
CONTINUOUS
 10
95.871254
 20
13.296847
 11
95.890231
 21
13.521045
  0
LINE
  8
4
  6
CONTINUOUS
 10
95.777838
 20
13.304754
 11
95.796815
 21
13.528952
  0
LINE
  8
4
  6
CONTINUOUS
 10
95.684422
 20
13.312661
 11
95.703399
 21
13.536859
  0
LINE
  8
4
  6
CONTINUOUS
 10
6.622781
 20
20.963912
 11
5.626344
 21
21.048253
  0
LINE
  8
4
  6
CONTINUOUS
 10
5.634778
 20
21.147896
 11
5.617910
 21
20.948609
  0
LINE
  8
4
  6
CONTINUOUS
 10
5.654707
 20
21.146210
 11
5.637839
 21
20.946922
  0
LINE
  8
4
  6
CONTINUOUS
 10
5.674636
 20
21.144523
 11
5.657768
 21
20.945235
  0
POLYLINE
  8
4
  6
CONTINUOUS
 66
     1
  0
VERTEX
  8
4
  6
CONTINUOUS
 10
6.622781
 20
20.963912
  0
VERTEX
  8
4
  6
CONTINUOUS
 10
95.282880
 20
13.459550
  0
SEQEND
  8
4
  6
CONTINUOUS
  0
LINE
  8
4
  6
CONTINUOUS
 10
95.355975
 20
14.323129
 11
96.103303
 21
14.259874
  0
LINE
  8
4
  6
CONTINUOUS
 10
96.098559
 20
14.203824
 11
96.108047
 21
14.315923
  0
LINE
  8
4
  6
CONTINUOUS
 10
96.098559
 20
14.203824
 11
96.850631
 21
14.196619
  0
LINE
  8
4
  6
CONTINUOUS
 10
96.108047
 20
14.315923
 11
96.850631
 21
14.196619
  0
LINE
  8
4
  6
CONTINUOUS
 10
95.944349
 20
14.160426
 11
95.963326
 21
14.384624
  0
LINE
  8
4
  6
CONTINUOUS
 10
95.850933
 20
14.168333
 11
95.869910
 21
14.392531
  0
LINE
  8
4
  6
CONTINUOUS
 10
95.757517
 20
14.176240
 11
95.776494
 21
14.400438
  0
LINE
  8
4
  6
CONTINUOUS
 10
6.695876
 20
21.827491
 11
5.699439
 21
21.911832
  0
LINE
  8
4
  6
CONTINUOUS
 10
5.707873
 20
22.011475
 11
5.691005
 21
21.812188
  0
LINE
  8
4
  6
CONTINUOUS
 10
5.727802
 20
22.009788
 11
5.710934
 21
21.810501
  0
LINE
  8
4
  6
CONTINUOUS
 10
5.747731
 20
22.008102
 11
5.730863
 21
21.808814
  0
POLYLINE
  8
4
  6
CONTINUOUS
 66
     1
  0
VERTEX
  8
4
  6
CONTINUOUS
 10
6.695876
 20
21.827491
  0
VERTEX
  8
4
  6
CONTINUOUS
 10
95.355975
 20
14.323129
  0
SEQEND
  8
4
  6
CONTINUOUS
  0
LINE
  8
4
  6
CONTINUOUS
 10
95.429070
 20
15.186708
 11
96.176398
 21
15.123453
  0
LINE
  8
4
  6
CONTINUOUS
 10
96.171654
 20
15.067403
 11
96.181142
 21
15.179502
  0
LINE
  8
4
  6
CONTINUOUS
 10
96.171654
 20
15.067403
 11
96.923726
 21
15.060197
  0
LINE
  8
4
  6
CONTINUOUS
 10
96.181142
 20
15.179502
 11
96.923726
 21
15.060197
  0
LINE
  8
4
  6
CONTINUOUS
 10
96.017444
 20
15.024004
 11
96.036421
 21
15.248203
  0
LINE
  8
4
  6
CONTINUOUS
 10
95.924028
 20
15.031911
 11
95.943005
 21
15.256110
  0
LINE
  8
4
  6
CONTINUOUS
 10
95.830612
 20
15.039818
 11
95.849589
 21
15.264017
  0
LINE
  8
4
  6
CONTINUOUS
 10
6.768971
 20
22.691070
 11
5.772534
 21
22.775410
  0
LINE
  8
4
  6
CONTINUOUS
 10
5.780968
 20
22.875054
 11
5.764100
 21
22.675767
  0
LINE
  8
4
  6
CONTINUOUS
 10
5.800897
 20
22.873367
 11
5.784029
 21
22.674080
  0
LINE
  8
4
  6
CONTINUOUS
 10
5.820826
 20
22.871680
 11
5.803958
 21
22.672393
  0
POLYLINE
  8
4
  6
CONTINUOUS
 66
     1
  0
VERTEX
  8
4
  6
CONTINUOUS
 10
6.768971
 20
22.691070
  0
VERTEX
  8
4
  6
CONTINUOUS
 10
95.429070
 20
15.186708
  0
SEQEND
  8
4
  6
CONTINUOUS
  0
LINE
  8
4
  6
CONTINUOUS
 10
95.502165
 20
16.050287
 11
96.249493
 21
15.987031
  0
LINE
  8
4
  6
CONTINUOUS
 10
96.244749
 20
15.930982
 11
96.254237
 21
16.043081
  0
LINE
  8
4
  6
CONTINUOUS
 10
96.244749
 20
15.930982
 11
96.996821
 21
15.923776
  0
LINE
  8
4
  6
CONTINUOUS
 10
96.254237
 20
16.043081
 11
96.996821
 21
15.923776
  0
LINE
  8
4
  6
CONTINUOUS
 10
96.090539
 20
15.887583
 11
96.109516
 21
16.111782
  0
LINE
  8
4
  6
CONTINUOUS
 10
95.997123
 20
15.895490
 11
96.016100
 21
16.119688
  0
LINE
  8
4
  6
CONTINUOUS
 10
95.903707
 20
15.903397
 11
95.922684
 21
16.127595
  0
LINE
  8
4
  6
CONTINUOUS
 10
6.842066
 20
23.554649
 11
5.845629
 21
23.638989
  0
LINE
  8
4
  6
CONTINUOUS
 10
5.854063
 20
23.738633
 11
5.837195
 21
23.539345
  0
LINE
  8
4
  6
CONTINUOUS
 10
5.873992
 20
23.736946
 11
5.857124
 21
23.537658
  0
LINE
  8
4
  6
CONTINUOUS
 10
5.893921
 20
23.735259
 11
5.877053
 21
23.535972
  0
POLYLINE
  8
4
  6
CONTINUOUS
 66
     1
  0
VERTEX
  8
4
  6
CONTINUOUS
 10
6.842066
 20
23.554649
  0
VERTEX
  8
4
  6
CONTINUOUS
 10
95.502165
 20
16.050287
  0
SEQEND
  8
4
  6
CONTINUOUS
  0
LINE
  8
4
  6
CONTINUOUS
 10
95.575260
 20
16.913865
 11
96.322588
 21
16.850610
  0
LINE
  8
4
  6
CONTINUOUS
 10
96.317844
 20
16.794560
 11
96.327332
 21
16.906660
  0
LINE
  8
4
  6
CONTINUOUS
 10
96.317844
 20
16.794560
 11
97.069916
 21
16.787355
  0
LINE
  8
4
  6
CONTINUOUS
 10
96.327332
 20
16.906660
 11
97.069916
 21
16.787355
  0
LINE
  8
4
  6
CONTINUOUS
 10
96.163634
 20
16.751162
 11
96.182611
 21
16.975360
  0
LINE
  8
4
  6
CONTINUOUS
 10
96.070218
 20
16.759069
 11
96.089195
 21
16.983267
  0
LINE
  8
4
  6
CONTINUOUS
 10
95.976802
 20
16.766976
 11
95.995779
 21
16.991174
  0
LINE
  8
4
  6
CONTINUOUS
 10
6.915161
 20
24.418227
 11
5.918724
 21
24.502568
  0
LINE
  8
4
  6
CONTINUOUS
 10
5.927158
 20
24.602211
 11
5.910290
 21
24.402924
  0
LINE
  8
4
  6
CONTINUOUS
 10
5.947087
 20
24.600525
 11
5.930219
 21
24.401237
  0
LINE
  8
4
  6
CONTINUOUS
 10
5.967016
 20
24.598838
 11
5.950148
 21
24.399550
  0
POLYLINE
  8
4
  6
CONTINUOUS
 66
     1
  0
VERTEX
  8
4
  6
CONTINUOUS
 10
6.915161
 20
24.418227
  0
VERTEX
  8
4
  6
CONTINUOUS
 10
95.575260
 20
16.913865
  0
SEQEND
  8
4
  6
CONTINUOUS
  0
LINE
  8
4
  6
CONTINUOUS
 10
95.648355
 20
17.777444
 11
96.395683
 21
17.714189
  0
LINE
  8
4
  6
CONTINUOUS
 10
96.390939
 20
17.658139
 11
96.400427
 21
17.770238
  0
LINE
  8
4
  6
CONTINUOUS
 10
96.390939
 20
17.658139
 11
97.143011
 21
17.650934
  0
LINE
  8
4
  6
CONTINUOUS
 10
96.400427
 20
17.770238
 11
97.143011
 21
17.650934
  0
LINE
  8
4
  6
CONTINUOUS
 10
96.236729
 20
17.614741
 11
96.255706
 21
17.838939
  0
LINE
  8
4
  6
CONTINUOUS
 10
96.143313
 20
17.622648
 11
96.162290
 21
17.846846
  0
LINE
  8
4
  6
CONTINUOUS
 10
96.049897
 20
17.630554
 11
96.068874
 21
17.854753
  0
LINE
  8
4
  6
CONTINUOUS
 10
6.988256
 20
25.281806
 11
5.991819
 21
25.366146
  0
LINE
  8
4
  6
CONTINUOUS
 10
6.000253
 20
25.465790
 11
5.983385
 21
25.266503
  0
LINE
  8
4
  6
CONTINUOUS
 10
6.020182
 20
25.464103
 11
6.003314
 21
25.264816
  0
LINE
  8
4
  6
CONTINUOUS
 10
6.040111
 20
25.462417
 11
6.023243
 21
25.263129
  0
POLYLINE
  8
4
  6
CONTINUOUS
 66
     1
  0
VERTEX
  8
4
  6
CONTINUOUS
 10
6.988256
 20
25.281806
  0
VERTEX
  8
4
  6
CONTINUOUS
 10
95.648355
 20
17.777444
  0
SEQEND
  8
4
  6
CONTINUOUS
  0
LINE
  8
4
  6
CONTINUOUS
 10
95.721450
 20
18.641023
 11
96.468778
 21
18.577768
  0
LINE
  8
4
  6
CONTINUOUS
 10
96.464034
 20
18.521718
 11
96.473522
 21
18.633817
  0
LINE
  8
4
  6
CONTINUOUS
 10
96.464034
 20
18.521718
 11
97.216106
 21
18.514512
  0
LINE
  8
4
  6
CONTINUOUS
 10
96.473522
 20
18.633817
 11
97.216106
 21
18.514512
  0
LINE
  8
4
  6
CONTINUOUS
 10
96.309824
 20
18.478319
 11
96.328801
 21
18.702518
  0
LINE
  8
4
  6
CONTINUOUS
 10
96.216408
 20
18.486226
 11
96.235385
 21
18.710425
  0
LINE
  8
4
  6
CONTINUOUS
 10
96.122992
 20
18.494133
 11
96.141969
 21
18.718332
  0
LINE
  8
4
  6
CONTINUOUS
 10
7.061351
 20
26.145385
 11
6.064914
 21
26.229725
  0
LINE
  8
4
  6
CONTINUOUS
 10
6.073348
 20
26.329369
 11
6.056480
 21
26.130082
  0
LINE
  8
4
  6
CONTINUOUS
 10
6.093277
 20
26.327682
 11
6.076409
 21
26.128395
  0
LINE
  8
4
  6
CONTINUOUS
 10
6.113206
 20
26.325995
 11
6.096337
 21
26.126708
  0
POLYLINE
  8
4
  6
CONTINUOUS
 66
     1
  0
VERTEX
  8
4
  6
CONTINUOUS
 10
7.061351
 20
26.145385
  0
VERTEX
  8
4
  6
CONTINUOUS
 10
95.721450
 20
18.641023
  0
SEQEND
  8
4
  6
CONTINUOUS
  0
LINE
  8
4
  6
CONTINUOUS
 10
94.540098
 20
4.684653
 11
95.287426
 21
4.621397
  0
LINE
  8
4
  6
CONTINUOUS
 10
95.282682
 20
4.565348
 11
95.292170
 21
4.677447
  0
LINE
  8
4
  6
CONTINUOUS
 10
95.282682
 20
4.565348
 11
96.034754
 21
4.558142
  0
LINE
  8
4
  6
CONTINUOUS
 10
95.292170
 20
4.677447
 11
96.034754
 21
4.558142
  0
LINE
  8
4
  6
CONTINUOUS
 10
95.116016
 20
4.523004
 11
95.134992
 21
4.747202
  0
LINE
  8
4
  6
CONTINUOUS
 10
94.991462
 20
4.533546
 11
95.010438
 21
4.757744
  0
LINE
  8
4
  6
CONTINUOUS
 10
6.489031
 20
12.137461
 11
5.492594
 21
12.221801
  0
LINE
  8
4
  6
CONTINUOUS
 10
5.501028
 20
12.321445
 11
5.484160
 21
12.122158
  0
LINE
  8
4
  6
CONTINUOUS
 10
5.520957
 20
12.319758
 11
5.504089
 21
12.120471
  0
LINE
  8
4
  6
CONTINUOUS
 10
5.540886
 20
12.318072
 11
5.524018
 21
12.118784
  0
POLYLINE
  8
4
  6
CONTINUOUS
 66
     1
  0
VERTEX
  8
4
  6
CONTINUOUS
 10
6.489031
 20
12.137461
  0
VERTEX
  8
4
  6
CONTINUOUS
 10
94.540098
 20
4.684653
  0
SEQEND
  8
4
  6
CONTINUOUS
  0
LINE
  8
4
  6
CONTINUOUS
 10
94.672231
 20
6.245737
 11
95.419559
 21
6.182482
  0
LINE
  8
4
  6
CONTINUOUS
 10
95.414815
 20
6.126432
 11
95.424303
 21
6.238532
  0
LINE
  8
4
  6
CONTINUOUS
 10
95.414815
 20
6.126432
 11
96.166887
 21
6.119227
  0
LINE
  8
4
  6
CONTINUOUS
 10
95.424303
 20
6.238532
 11
96.166887
 21
6.119227
  0
LINE
  8
4
  6
CONTINUOUS
 10
95.248149
 20
6.084088
 11
95.267125
 21
6.308287
  0
LINE
  8
4
  6
CONTINUOUS
 10
95.123595
 20
6.094631
 11
95.142571
 21
6.318829
  0
LINE
  8
4
  6
CONTINUOUS
 10
6.621164
 20
13.698546
 11
5.624727
 21
13.782886
  0
LINE
  8
4
  6
CONTINUOUS
 10
5.633161
 20
13.882530
 11
5.616293
 21
13.683242
  0
LINE
  8
4
  6
CONTINUOUS
 10
5.653090
 20
13.880843
 11
5.636222
 21
13.681556
  0
LINE
  8
4
  6
CONTINUOUS
 10
5.673019
 20
13.879156
 11
5.656151
 21
13.679869
  0
POLYLINE
  8
4
  6
CONTINUOUS
 66
     1
  0
VERTEX
  8
4
  6
CONTINUOUS
 10
6.621164
 20
13.698546
  0
VERTEX
  8
4
  6
CONTINUOUS
 10
94.672231
 20
6.245737
  0
SEQEND
  8
4
  6
CONTINUOUS
  0
LINE
  8
4
  6
CONTINUOUS
 10
94.804365
 20
7.806822
 11
95.551692
 21
7.743567
  0
LINE
  8
4
  6
CONTINUOUS
 10
95.546948
 20
7.687517
 11
95.556436
 21
7.799616
  0
LINE
  8
4
  6
CONTINUOUS
 10
95.546948
 20
7.687517
 11
96.299020
 21
7.680311
  0
LINE
  8
4
  6
CONTINUOUS
 10
95.556436
 20
7.799616
 11
96.299020
 21
7.680311
  0
LINE
  8
4
  6
CONTINUOUS
 10
95.380282
 20
7.645173
 11
95.399259
 21
7.869371
  0
LINE
  8
4
  6
CONTINUOUS
 10
95.255728
 20
7.655715
 11
95.274704
 21
7.879914
  0
LINE
  8
4
  6
CONTINUOUS
 10
6.753298
 20
15.259630
 11
5.756861
 21
15.343971
  0
LINE
  8
4
  6
CONTINUOUS
 10
5.765295
 20
15.443614
 11
5.748427
 21
15.244327
  0
LINE
  8
4
  6
CONTINUOUS
 10
5.785223
 20
15.441928
 11
5.768355
 21
15.242640
  0
LINE
  8
4
  6
CONTINUOUS
 10
5.805152
 20
15.440241
 11
5.788284
 21
15.240953
  0
POLYLINE
  8
4
  6
CONTINUOUS
 66
     1
  0
VERTEX
  8
4
  6
CONTINUOUS
 10
6.753298
 20
15.259630
  0
VERTEX
  8
4
  6
CONTINUOUS
 10
94.804365
 20
7.806822
  0
SEQEND
  8
4
  6
CONTINUOUS
  0
LINE
  8
4
  6
CONTINUOUS
 10
95.811166
 20
19.700185
 11
96.558494
 21
19.636930
  0
LINE
  8
4
  6
CONTINUOUS
 10
96.553750
 20
19.580880
 11
96.563238
 21
19.692979
  0
LINE
  8
4
  6
CONTINUOUS
 10
96.553750
 20
19.580880
 11
97.305822
 21
19.573674
  0
LINE
  8
4
  6
CONTINUOUS
 10
96.563238
 20
19.692979
 11
97.305822
 21
19.573674
  0
LINE
  8
4
  6
CONTINUOUS
 10
96.399540
 20
19.537482
 11
96.418517
 21
19.761680
  0
LINE
  8
4
  6
CONTINUOUS
 10
96.306124
 20
19.545388
 11
96.325101
 21
19.769587
  0
LINE
  8
4
  6
CONTINUOUS
 10
96.212708
 20
19.553295
 11
96.231685
 21
19.777494
  0
LINE
  8
4
  6
CONTINUOUS
 10
5.755524
 20
27.322677
 11
4.759087
 21
27.407018
  0
LINE
  8
4
  6
CONTINUOUS
 10
4.767521
 20
27.506661
 11
4.750653
 21
27.307374
  0
LINE
  8
4
  6
CONTINUOUS
 10
4.787450
 20
27.504975
 11
4.770582
 21
27.305687
  0
LINE
  8
4
  6
CONTINUOUS
 10
4.807379
 20
27.503288
 11
4.790511
 21
27.304000
  0
POLYLINE
  8
4
  6
CONTINUOUS
 66
     1
  0
VERTEX
  8
4
  6
CONTINUOUS
 10
5.755524
 20
27.322677
  0
VERTEX
  8
4
  6
CONTINUOUS
 10
95.811166
 20
19.700185
  0
SEQEND
  8
4
  6
CONTINUOUS
  0
LINE
  8
4
  6
CONTINUOUS
 10
95.884261
 20
20.563764
 11
96.631589
 21
20.500508
  0
LINE
  8
4
  6
CONTINUOUS
 10
96.626845
 20
20.444459
 11
96.636333
 21
20.556558
  0
LINE
  8
4
  6
CONTINUOUS
 10
96.626845
 20
20.444459
 11
97.378917
 21
20.437253
  0
LINE
  8
4
  6
CONTINUOUS
 10
96.636333
 20
20.556558
 11
97.378917
 21
20.437253
  0
LINE
  8
4
  6
CONTINUOUS
 10
96.472635
 20
20.401060
 11
96.491612
 21
20.625259
  0
LINE
  8
4
  6
CONTINUOUS
 10
96.379219
 20
20.408967
 11
96.398196
 21
20.633166
  0
LINE
  8
4
  6
CONTINUOUS
 10
96.285803
 20
20.416874
 11
96.304780
 21
20.641072
  0
LINE
  8
4
  6
CONTINUOUS
 10
5.828620
 20
28.186256
 11
4.832183
 21
28.270597
  0
LINE
  8
4
  6
CONTINUOUS
 10
4.840617
 20
28.370240
 11
4.823748
 21
28.170953
  0
LINE
  8
4
  6
CONTINUOUS
 10
4.860545
 20
28.368553
 11
4.843677
 21
28.169266
  0
LINE
  8
4
  6
CONTINUOUS
 10
4.880474
 20
28.366867
 11
4.863606
 21
28.167579
  0
POLYLINE
  8
4
  6
CONTINUOUS
 66
     1
  0
VERTEX
  8
4
  6
CONTINUOUS
 10
5.828620
 20
28.186256
  0
VERTEX
  8
4
  6
CONTINUOUS
 10
95.884261
 20
20.563764
  0
SEQEND
  8
4
  6
CONTINUOUS
  0
LINE
  8
4
  6
CONTINUOUS
 10
95.957356
 20
21.427342
 11
96.704684
 21
21.364087
  0
LINE
  8
4
  6
CONTINUOUS
 10
96.699940
 20
21.308038
 11
96.709428
 21
21.420137
  0
LINE
  8
4
  6
CONTINUOUS
 10
96.699940
 20
21.308038
 11
97.452012
 21
21.300832
  0
LINE
  8
4
  6
CONTINUOUS
 10
96.709428
 20
21.420137
 11
97.452012
 21
21.300832
  0
LINE
  8
4
  6
CONTINUOUS
 10
96.545730
 20
21.264639
 11
96.564707
 21
21.488837
  0
LINE
  8
4
  6
CONTINUOUS
 10
96.452314
 20
21.272546
 11
96.471291
 21
21.496744
  0
LINE
  8
4
  6
CONTINUOUS
 10
96.358898
 20
21.280453
 11
96.377875
 21
21.504651
  0
LINE
  8
4
  6
CONTINUOUS
 10
5.901715
 20
29.049835
 11
4.905278
 21
29.134175
  0
LINE
  8
4
  6
CONTINUOUS
 10
4.913712
 20
29.233819
 11
4.896844
 21
29.034532
  0
LINE
  8
4
  6
CONTINUOUS
 10
4.933640
 20
29.232132
 11
4.916772
 21
29.032845
  0
LINE
  8
4
  6
CONTINUOUS
 10
4.953569
 20
29.230445
 11
4.936701
 21
29.031158
  0
POLYLINE
  8
4
  6
CONTINUOUS
 66
     1
  0
VERTEX
  8
4
  6
CONTINUOUS
 10
5.901715
 20
29.049835
  0
VERTEX
  8
4
  6
CONTINUOUS
 10
95.957356
 20
21.427342
  0
SEQEND
  8
4
  6
CONTINUOUS
  0
LINE
  8
4
  6
CONTINUOUS
 10
96.030452
 20
22.290921
 11
96.777779
 21
22.227666
  0
LINE
  8
4
  6
CONTINUOUS
 10
96.773035
 20
22.171616
 11
96.782523
 21
22.283715
  0
LINE
  8
4
  6
CONTINUOUS
 10
96.773035
 20
22.171616
 11
97.525107
 21
22.164411
  0
LINE
  8
4
  6
CONTINUOUS
 10
96.782523
 20
22.283715
 11
97.525107
 21
22.164411
  0
LINE
  8
4
  6
CONTINUOUS
 10
96.618825
 20
22.128218
 11
96.637802
 21
22.352416
  0
LINE
  8
4
  6
CONTINUOUS
 10
96.525409
 20
22.136125
 11
96.544386
 21
22.360323
  0
LINE
  8
4
  6
CONTINUOUS
 10
96.431994
 20
22.144032
 11
96.450970
 21
22.368230
  0
LINE
  8
4
  6
CONTINUOUS
 10
5.974810
 20
29.913414
 11
4.978373
 21
29.997754
  0
LINE
  8
4
  6
CONTINUOUS
 10
4.986807
 20
30.097398
 11
4.969939
 21
29.898110
  0
LINE
  8
4
  6
CONTINUOUS
 10
5.006735
 20
30.095711
 11
4.989867
 21
29.896423
  0
LINE
  8
4
  6
CONTINUOUS
 10
5.026664
 20
30.094024
 11
5.009796
 21
29.894737
  0
POLYLINE
  8
4
  6
CONTINUOUS
 66
     1
  0
VERTEX
  8
4
  6
CONTINUOUS
 10
5.974810
 20
29.913414
  0
VERTEX
  8
4
  6
CONTINUOUS
 10
96.030452
 20
22.290921
  0
SEQEND
  8
4
  6
CONTINUOUS
  0
LINE
  8
4
  6
CONTINUOUS
 10
96.103547
 20
23.154500
 11
96.850874
 21
23.091245
  0
LINE
  8
4
  6
CONTINUOUS
 10
96.846130
 20
23.035195
 11
96.855618
 21
23.147294
  0
LINE
  8
4
  6
CONTINUOUS
 10
96.846130
 20
23.035195
 11
97.598202
 21
23.027989
  0
LINE
  8
4
  6
CONTINUOUS
 10
96.855618
 20
23.147294
 11
97.598202
 21
23.027989
  0
LINE
  8
4
  6
CONTINUOUS
 10
96.691920
 20
22.991796
 11
96.710897
 21
23.215995
  0
LINE
  8
4
  6
CONTINUOUS
 10
96.598505
 20
22.999703
 11
96.617481
 21
23.223902
  0
LINE
  8
4
  6
CONTINUOUS
 10
96.505089
 20
23.007610
 11
96.524065
 21
23.231809
  0
LINE
  8
4
  6
CONTINUOUS
 10
6.047905
 20
30.776992
 11
5.051468
 21
30.861333
  0
LINE
  8
4
  6
CONTINUOUS
 10
5.059902
 20
30.960976
 11
5.043034
 21
30.761689
  0
LINE
  8
4
  6
CONTINUOUS
 10
5.079830
 20
30.959290
 11
5.062962
 21
30.760002
  0
LINE
  8
4
  6
CONTINUOUS
 10
5.099759
 20
30.957603
 11
5.082891
 21
30.758315
  0
POLYLINE
  8
4
  6
CONTINUOUS
 66
     1
  0
VERTEX
  8
4
  6
CONTINUOUS
 10
6.047905
 20
30.776992
  0
VERTEX
  8
4
  6
CONTINUOUS
 10
96.103547
 20
23.154500
  0
SEQEND
  8
4
  6
CONTINUOUS
  0
LINE
  8
4
  6
CONTINUOUS
 10
96.176642
 20
24.018079
 11
96.923969
 21
23.954823
  0
LINE
  8
4
  6
CONTINUOUS
 10
96.919225
 20
23.898774
 11
96.928714
 21
24.010873
  0
LINE
  8
4
  6
CONTINUOUS
 10
96.919225
 20
23.898774
 11
97.671297
 21
23.891568
  0
LINE
  8
4
  6
CONTINUOUS
 10
96.928714
 20
24.010873
 11
97.671297
 21
23.891568
  0
LINE
  8
4
  6
CONTINUOUS
 10
96.765016
 20
23.855375
 11
96.783992
 21
24.079574
  0
LINE
  8
4
  6
CONTINUOUS
 10
96.671600
 20
23.863282
 11
96.690576
 21
24.087480
  0
LINE
  8
4
  6
CONTINUOUS
 10
96.578184
 20
23.871189
 11
96.597160
 21
24.095387
  0
LINE
  8
4
  6
CONTINUOUS
 10
6.121000
 20
31.640571
 11
5.124563
 21
31.724911
  0
LINE
  8
4
  6
CONTINUOUS
 10
5.132997
 20
31.824555
 11
5.116129
 21
31.625268
  0
LINE
  8
4
  6
CONTINUOUS
 10
5.152926
 20
31.822868
 11
5.136057
 21
31.623581
  0
LINE
  8
4
  6
CONTINUOUS
 10
5.172854
 20
31.821182
 11
5.155986
 21
31.621894
  0
POLYLINE
  8
4
  6
CONTINUOUS
 66
     1
  0
VERTEX
  8
4
  6
CONTINUOUS
 10
6.121000
 20
31.640571
  0
VERTEX
  8
4
  6
CONTINUOUS
 10
96.176642
 20
24.018079
  0
SEQEND
  8
4
  6
CONTINUOUS
  0
LINE
  8
4
  6
CONTINUOUS
 10
96.249737
 20
24.881657
 11
96.997064
 21
24.818402
  0
LINE
  8
4
  6
CONTINUOUS
 10
96.992320
 20
24.762352
 11
97.001809
 21
24.874452
  0
LINE
  8
4
  6
CONTINUOUS
 10
96.992320
 20
24.762352
 11
97.744392
 21
24.755147
  0
LINE
  8
4
  6
CONTINUOUS
 10
97.001809
 20
24.874452
 11
97.744392
 21
24.755147
  0
LINE
  8
4
  6
CONTINUOUS
 10
96.838111
 20
24.718954
 11
96.857087
 21
24.943152
  0
LINE
  8
4
  6
CONTINUOUS
 10
96.744695
 20
24.726861
 11
96.763671
 21
24.951059
  0
LINE
  8
4
  6
CONTINUOUS
 10
96.651279
 20
24.734768
 11
96.670255
 21
24.958966
  0
LINE
  8
4
  6
CONTINUOUS
 10
6.194095
 20
32.504150
 11
5.197658
 21
32.588490
  0
LINE
  8
4
  6
CONTINUOUS
 10
5.206092
 20
32.688134
 11
5.189224
 21
32.488846
  0
LINE
  8
4
  6
CONTINUOUS
 10
5.226021
 20
32.686447
 11
5.209152
 21
32.487160
  0
LINE
  8
4
  6
CONTINUOUS
 10
5.245949
 20
32.684760
 11
5.229081
 21
32.485473
  0
POLYLINE
  8
4
  6
CONTINUOUS
 66
     1
  0
VERTEX
  8
4
  6
CONTINUOUS
 10
6.194095
 20
32.504150
  0
VERTEX
  8
4
  6
CONTINUOUS
 10
96.249737
 20
24.881657
  0
SEQEND
  8
4
  6
CONTINUOUS
  0
LINE
  8
4
  6
CONTINUOUS
 10
96.322832
 20
25.745236
 11
97.070160
 21
25.681981
  0
LINE
  8
4
  6
CONTINUOUS
 10
97.065415
 20
25.625931
 11
97.074904
 21
25.738030
  0
LINE
  8
4
  6
CONTINUOUS
 10
97.065415
 20
25.625931
 11
97.817487
 21
25.618725
  0
LINE
  8
4
  6
CONTINUOUS
 10
97.074904
 20
25.738030
 11
97.817487
 21
25.618725
  0
LINE
  8
4
  6
CONTINUOUS
 10
96.911206
 20
25.582533
 11
96.930182
 21
25.806731
  0
LINE
  8
4
  6
CONTINUOUS
 10
96.817790
 20
25.590440
 11
96.836766
 21
25.814638
  0
LINE
  8
4
  6
CONTINUOUS
 10
96.724374
 20
25.598347
 11
96.743350
 21
25.822545
  0
LINE
  8
4
  6
CONTINUOUS
 10
6.267190
 20
33.367728
 11
5.270753
 21
33.452069
  0
LINE
  8
4
  6
CONTINUOUS
 10
5.279187
 20
33.551713
 11
5.262319
 21
33.352425
  0
LINE
  8
4
  6
CONTINUOUS
 10
5.299116
 20
33.550026
 11
5.282248
 21
33.350738
  0
LINE
  8
4
  6
CONTINUOUS
 10
5.319044
 20
33.548339
 11
5.302176
 21
33.349052
  0
POLYLINE
  8
4
  6
CONTINUOUS
 66
     1
  0
VERTEX
  8
4
  6
CONTINUOUS
 10
6.267190
 20
33.367728
  0
VERTEX
  8
4
  6
CONTINUOUS
 10
96.322832
 20
25.745236
  0
SEQEND
  8
4
  6
CONTINUOUS
  0
LINE
  8
4
  6
CONTINUOUS
 10
96.395927
 20
26.608815
 11
97.143255
 21
26.545560
  0
LINE
  8
4
  6
CONTINUOUS
 10
97.138510
 20
26.489510
 11
97.147999
 21
26.601609
  0
LINE
  8
4
  6
CONTINUOUS
 10
97.138510
 20
26.489510
 11
97.890582
 21
26.482304
  0
LINE
  8
4
  6
CONTINUOUS
 10
97.147999
 20
26.601609
 11
97.890582
 21
26.482304
  0
LINE
  8
4
  6
CONTINUOUS
 10
96.984301
 20
26.446111
 11
97.003277
 21
26.670310
  0
LINE
  8
4
  6
CONTINUOUS
 10
96.890885
 20
26.454018
 11
96.909861
 21
26.678217
  0
LINE
  8
4
  6
CONTINUOUS
 10
96.797469
 20
26.461925
 11
96.816445
 21
26.686124
  0
LINE
  8
4
  6
CONTINUOUS
 10
6.340285
 20
34.231307
 11
5.343848
 21
34.315648
  0
LINE
  8
4
  6
CONTINUOUS
 10
5.352282
 20
34.415291
 11
5.335414
 21
34.216004
  0
LINE
  8
4
  6
CONTINUOUS
 10
5.372211
 20
34.413605
 11
5.355343
 21
34.214317
  0
LINE
  8
4
  6
CONTINUOUS
 10
5.392139
 20
34.411918
 11
5.375271
 21
34.212630
  0
POLYLINE
  8
4
  6
CONTINUOUS
 66
     1
  0
VERTEX
  8
4
  6
CONTINUOUS
 10
6.340285
 20
34.231307
  0
VERTEX
  8
4
  6
CONTINUOUS
 10
96.395927
 20
26.608815
  0
SEQEND
  8
4
  6
CONTINUOUS
  0
LINE
  8
4
  6
CONTINUOUS
 10
96.469022
 20
27.472394
 11
97.216350
 21
27.409138
  0
LINE
  8
4
  6
CONTINUOUS
 10
97.211605
 20
27.353089
 11
97.221094
 21
27.465188
  0
LINE
  8
4
  6
CONTINUOUS
 10
97.211605
 20
27.353089
 11
97.963677
 21
27.345883
  0
LINE
  8
4
  6
CONTINUOUS
 10
97.221094
 20
27.465188
 11
97.963677
 21
27.345883
  0
LINE
  8
4
  6
CONTINUOUS
 10
97.057396
 20
27.309690
 11
97.076372
 21
27.533888
  0
LINE
  8
4
  6
CONTINUOUS
 10
96.963980
 20
27.317597
 11
96.982956
 21
27.541795
  0
LINE
  8
4
  6
CONTINUOUS
 10
96.870564
 20
27.325504
 11
96.889540
 21
27.549702
  0
LINE
  8
4
  6
CONTINUOUS
 10
6.413380
 20
35.094886
 11
5.416943
 21
35.179226
  0
LINE
  8
4
  6
CONTINUOUS
 10
5.425377
 20
35.278870
 11
5.408509
 21
35.079583
  0
LINE
  8
4
  6
CONTINUOUS
 10
5.445306
 20
35.277183
 11
5.428438
 21
35.077896
  0
LINE
  8
4
  6
CONTINUOUS
 10
5.465234
 20
35.275496
 11
5.448366
 21
35.076209
  0
POLYLINE
  8
4
  6
CONTINUOUS
 66
     1
  0
VERTEX
  8
4
  6
CONTINUOUS
 10
6.413380
 20
35.094886
  0
VERTEX
  8
4
  6
CONTINUOUS
 10
96.469022
 20
27.472394
  0
SEQEND
  8
4
  6
CONTINUOUS
  0
LINE
  8
4
  6
CONTINUOUS
 10
96.542117
 20
28.335972
 11
97.289445
 21
28.272717
  0
LINE
  8
4
  6
CONTINUOUS
 10
97.284701
 20
28.216667
 11
97.294189
 21
28.328767
  0
LINE
  8
4
  6
CONTINUOUS
 10
97.284701
 20
28.216667
 11
98.036772
 21
28.209462
  0
LINE
  8
4
  6
CONTINUOUS
 10
97.294189
 20
28.328767
 11
98.036772
 21
28.209462
  0
LINE
  8
4
  6
CONTINUOUS
 10
97.130491
 20
28.173269
 11
97.149467
 21
28.397467
  0
LINE
  8
4
  6
CONTINUOUS
 10
97.037075
 20
28.181176
 11
97.056051
 21
28.405374
  0
LINE
  8
4
  6
CONTINUOUS
 10
96.943659
 20
28.189083
 11
96.962635
 21
28.413281
  0
LINE
  8
4
  6
CONTINUOUS
 10
6.486475
 20
35.958465
 11
5.490038
 21
36.042805
  0
LINE
  8
4
  6
CONTINUOUS
 10
5.498472
 20
36.142449
 11
5.481604
 21
35.943161
  0
LINE
  8
4
  6
CONTINUOUS
 10
5.518401
 20
36.140762
 11
5.501533
 21
35.941475
  0
LINE
  8
4
  6
CONTINUOUS
 10
5.538330
 20
36.139075
 11
5.521461
 21
35.939788
  0
POLYLINE
  8
4
  6
CONTINUOUS
 66
     1
  0
VERTEX
  8
4
  6
CONTINUOUS
 10
6.486475
 20
35.958465
  0
VERTEX
  8
4
  6
CONTINUOUS
 10
96.542117
 20
28.335972
  0
SEQEND
  8
4
  6
CONTINUOUS
  0
LINE
  8
4
  6
CONTINUOUS
 10
96.615212
 20
29.199551
 11
97.362540
 21
29.136296
  0
LINE
  8
4
  6
CONTINUOUS
 10
97.357796
 20
29.080246
 11
97.367284
 21
29.192345
  0
LINE
  8
4
  6
CONTINUOUS
 10
97.357796
 20
29.080246
 11
98.109867
 21
29.073040
  0
LINE
  8
4
  6
CONTINUOUS
 10
97.367284
 20
29.192345
 11
98.109867
 21
29.073040
  0
LINE
  8
4
  6
CONTINUOUS
 10
97.203586
 20
29.036848
 11
97.222562
 21
29.261046
  0
LINE
  8
4
  6
CONTINUOUS
 10
97.110170
 20
29.044755
 11
97.129147
 21
29.268953
  0
LINE
  8
4
  6
CONTINUOUS
 10
97.016754
 20
29.052661
 11
97.035731
 21
29.276860
  0
LINE
  8
4
  6
CONTINUOUS
 10
6.559570
 20
36.822043
 11
5.563133
 21
36.906384
  0
LINE
  8
4
  6
CONTINUOUS
 10
5.571567
 20
37.006028
 11
5.554699
 21
36.806740
  0
LINE
  8
4
  6
CONTINUOUS
 10
5.591496
 20
37.004341
 11
5.574628
 21
36.805053
  0
LINE
  8
4
  6
CONTINUOUS
 10
5.611425
 20
37.002654
 11
5.594557
 21
36.803366
  0
POLYLINE
  8
4
  6
CONTINUOUS
 66
     1
  0
VERTEX
  8
4
  6
CONTINUOUS
 10
6.559570
 20
36.822043
  0
VERTEX
  8
4
  6
CONTINUOUS
 10
96.615212
 20
29.199551
  0
SEQEND
  8
4
  6
CONTINUOUS
  0
LINE
  8
4
  6
CONTINUOUS
 10
96.699075
 20
30.189561
 11
97.446403
 21
30.126306
  0
LINE
  8
4
  6
CONTINUOUS
 10
97.441659
 20
30.070256
 11
97.451147
 21
30.182356
  0
LINE
  8
4
  6
CONTINUOUS
 10
97.441659
 20
30.070256
 11
98.193731
 21
30.063051
  0
LINE
  8
4
  6
CONTINUOUS
 10
97.451147
 20
30.182356
 11
98.193731
 21
30.063051
  0
LINE
  8
4
  6
CONTINUOUS
 10
97.287449
 20
30.026858
 11
97.306426
 21
30.251056
  0
LINE
  8
4
  6
CONTINUOUS
 10
97.194033
 20
30.034765
 11
97.213010
 21
30.258963
  0
LINE
  8
4
  6
CONTINUOUS
 10
97.100617
 20
30.042672
 11
97.119594
 21
30.266870
  0
LINE
  8
4
  6
CONTINUOUS
 10
5.766161
 20
37.886313
 11
4.769724
 21
37.970654
  0
LINE
  8
4
  6
CONTINUOUS
 10
4.778158
 20
38.070298
 11
4.761290
 21
37.871010
  0
LINE
  8
4
  6
CONTINUOUS
 10
4.798086
 20
38.068611
 11
4.781218
 21
37.869323
  0
LINE
  8
4
  6
CONTINUOUS
 10
4.818015
 20
38.066924
 11
4.801147
 21
37.867637
  0
POLYLINE
  8
4
  6
CONTINUOUS
 66
     1
  0
VERTEX
  8
4
  6
CONTINUOUS
 10
5.766161
 20
37.886313
  0
VERTEX
  8
4
  6
CONTINUOUS
 10
96.699075
 20
30.189561
  0
SEQEND
  8
4
  6
CONTINUOUS
  0
LINE
  8
4
  6
CONTINUOUS
 10
96.773576
 20
31.069747
 11
97.520904
 21
31.006492
  0
LINE
  8
4
  6
CONTINUOUS
 10
97.516159
 20
30.950443
 11
97.525648
 21
31.062542
  0
LINE
  8
4
  6
CONTINUOUS
 10
97.516159
 20
30.950443
 11
98.268231
 21
30.943237
  0
LINE
  8
4
  6
CONTINUOUS
 10
97.525648
 20
31.062542
 11
98.268231
 21
30.943237
  0
LINE
  8
4
  6
CONTINUOUS
 10
97.361950
 20
30.907044
 11
97.380926
 21
31.131242
  0
LINE
  8
4
  6
CONTINUOUS
 10
97.268534
 20
30.914951
 11
97.287510
 21
31.139149
  0
LINE
  8
4
  6
CONTINUOUS
 10
97.175118
 20
30.922858
 11
97.194094
 21
31.147056
  0
LINE
  8
4
  6
CONTINUOUS
 10
5.840661
 20
38.766499
 11
4.844224
 21
38.850840
  0
LINE
  8
4
  6
CONTINUOUS
 10
4.852659
 20
38.950484
 11
4.835790
 21
38.751196
  0
LINE
  8
4
  6
CONTINUOUS
 10
4.872587
 20
38.948797
 11
4.855719
 21
38.749509
  0
LINE
  8
4
  6
CONTINUOUS
 10
4.892516
 20
38.947110
 11
4.875648
 21
38.747823
  0
POLYLINE
  8
4
  6
CONTINUOUS
 66
     1
  0
VERTEX
  8
4
  6
CONTINUOUS
 10
5.840661
 20
38.766499
  0
VERTEX
  8
4
  6
CONTINUOUS
 10
96.773576
 20
31.069747
  0
SEQEND
  8
4
  6
CONTINUOUS
  0
LINE
  8
4
  6
CONTINUOUS
 10
96.848077
 20
31.949933
 11
97.595404
 21
31.886678
  0
LINE
  8
4
  6
CONTINUOUS
 10
97.590660
 20
31.830629
 11
97.600148
 21
31.942728
  0
LINE
  8
4
  6
CONTINUOUS
 10
97.590660
 20
31.830629
 11
98.342732
 21
31.823423
  0
LINE
  8
4
  6
CONTINUOUS
 10
97.600148
 20
31.942728
 11
98.342732
 21
31.823423
  0
LINE
  8
4
  6
CONTINUOUS
 10
97.436450
 20
31.787230
 11
97.455427
 21
32.011428
  0
LINE
  8
4
  6
CONTINUOUS
 10
97.343035
 20
31.795137
 11
97.362011
 21
32.019335
  0
LINE
  8
4
  6
CONTINUOUS
 10
97.249619
 20
31.803044
 11
97.268595
 21
32.027242
  0
LINE
  8
4
  6
CONTINUOUS
 10
5.915162
 20
39.646685
 11
4.918725
 21
39.731026
  0
LINE
  8
4
  6
CONTINUOUS
 10
4.927159
 20
39.830670
 11
4.910291
 21
39.631382
  0
LINE
  8
4
  6
CONTINUOUS
 10
4.947088
 20
39.828983
 11
4.930220
 21
39.629695
  0
LINE
  8
4
  6
CONTINUOUS
 10
4.967017
 20
39.827296
 11
4.950149
 21
39.628009
  0
POLYLINE
  8
4
  6
CONTINUOUS
 66
     1
  0
VERTEX
  8
4
  6
CONTINUOUS
 10
5.915162
 20
39.646685
  0
VERTEX
  8
4
  6
CONTINUOUS
 10
96.848077
 20
31.949933
  0
SEQEND
  8
4
  6
CONTINUOUS
  0
LINE
  8
4
  6
CONTINUOUS
 10
96.922577
 20
32.830119
 11
97.669905
 21
32.766864
  0
LINE
  8
4
  6
CONTINUOUS
 10
97.665161
 20
32.710815
 11
97.674649
 21
32.822914
  0
LINE
  8
4
  6
CONTINUOUS
 10
97.665161
 20
32.710815
 11
98.417233
 21
32.703609
  0
LINE
  8
4
  6
CONTINUOUS
 10
97.674649
 20
32.822914
 11
98.417233
 21
32.703609
  0
LINE
  8
4
  6
CONTINUOUS
 10
97.510951
 20
32.667416
 11
97.529928
 21
32.891614
  0
LINE
  8
4
  6
CONTINUOUS
 10
97.417535
 20
32.675323
 11
97.436512
 21
32.899521
  0
LINE
  8
4
  6
CONTINUOUS
 10
97.324119
 20
32.683230
 11
97.343096
 21
32.907428
  0
LINE
  8
4
  6
CONTINUOUS
 10
5.989663
 20
40.526871
 11
4.993226
 21
40.611212
  0
LINE
  8
4
  6
CONTINUOUS
 10
5.001660
 20
40.710856
 11
4.984792
 21
40.511568
  0
LINE
  8
4
  6
CONTINUOUS
 10
5.021589
 20
40.709169
 11
5.004721
 21
40.509881
  0
LINE
  8
4
  6
CONTINUOUS
 10
5.041518
 20
40.707482
 11
5.024649
 21
40.508195
  0
POLYLINE
  8
4
  6
CONTINUOUS
 66
     1
  0
VERTEX
  8
4
  6
CONTINUOUS
 10
5.989663
 20
40.526871
  0
VERTEX
  8
4
  6
CONTINUOUS
 10
96.922577
 20
32.830119
  0
SEQEND
  8
4
  6
CONTINUOUS
  0
LINE
  8
4
  6
CONTINUOUS
 10
96.997078
 20
33.710305
 11
97.744406
 21
33.647050
  0
LINE
  8
4
  6
CONTINUOUS
 10
97.739662
 20
33.591001
 11
97.749150
 21
33.703100
  0
LINE
  8
4
  6
CONTINUOUS
 10
97.739662
 20
33.591001
 11
98.491734
 21
33.583795
  0
LINE
  8
4
  6
CONTINUOUS
 10
97.749150
 20
33.703100
 11
98.491734
 21
33.583795
  0
LINE
  8
4
  6
CONTINUOUS
 10
97.585452
 20
33.547602
 11
97.604429
 21
33.771800
  0
LINE
  8
4
  6
CONTINUOUS
 10
97.492036
 20
33.555509
 11
97.511013
 21
33.779707
  0
LINE
  8
4
  6
CONTINUOUS
 10
97.398620
 20
33.563416
 11
97.417597
 21
33.787614
  0
LINE
  8
4
  6
CONTINUOUS
 10
6.064164
 20
41.407057
 11
5.067727
 21
41.491398
  0
LINE
  8
4
  6
CONTINUOUS
 10
5.076161
 20
41.591042
 11
5.059293
 21
41.391754
  0
LINE
  8
4
  6
CONTINUOUS
 10
5.096090
 20
41.589355
 11
5.079221
 21
41.390067
  0
LINE
  8
4
  6
CONTINUOUS
 10
5.116018
 20
41.587668
 11
5.099150
 21
41.388381
  0
POLYLINE
  8
4
  6
CONTINUOUS
 66
     1
  0
VERTEX
  8
4
  6
CONTINUOUS
 10
6.064164
 20
41.407057
  0
VERTEX
  8
4
  6
CONTINUOUS
 10
96.997078
 20
33.710305
  0
SEQEND
  8
4
  6
CONTINUOUS
  0
LINE
  8
4
  6
CONTINUOUS
 10
97.071579
 20
34.590492
 11
97.818907
 21
34.527236
  0
LINE
  8
4
  6
CONTINUOUS
 10
97.814163
 20
34.471187
 11
97.823651
 21
34.583286
  0
LINE
  8
4
  6
CONTINUOUS
 10
97.814163
 20
34.471187
 11
98.566234
 21
34.463981
  0
LINE
  8
4
  6
CONTINUOUS
 10
97.823651
 20
34.583286
 11
98.566234
 21
34.463981
  0
LINE
  8
4
  6
CONTINUOUS
 10
97.659953
 20
34.427788
 11
97.678929
 21
34.651986
  0
LINE
  8
4
  6
CONTINUOUS
 10
97.566537
 20
34.435695
 11
97.585513
 21
34.659893
  0
LINE
  8
4
  6
CONTINUOUS
 10
97.473121
 20
34.443602
 11
97.492098
 21
34.667800
  0
LINE
  8
4
  6
CONTINUOUS
 10
6.138665
 20
42.287243
 11
5.142228
 21
42.371584
  0
LINE
  8
4
  6
CONTINUOUS
 10
5.150662
 20
42.471228
 11
5.133794
 21
42.271940
  0
LINE
  8
4
  6
CONTINUOUS
 10
5.170590
 20
42.469541
 11
5.153722
 21
42.270253
  0
LINE
  8
4
  6
CONTINUOUS
 10
5.190519
 20
42.467854
 11
5.173651
 21
42.268567
  0
POLYLINE
  8
4
  6
CONTINUOUS
 66
     1
  0
VERTEX
  8
4
  6
CONTINUOUS
 10
6.138665
 20
42.287243
  0
VERTEX
  8
4
  6
CONTINUOUS
 10
97.071579
 20
34.590492
  0
SEQEND
  8
4
  6
CONTINUOUS
  0
LINE
  8
4
  6
CONTINUOUS
 10
97.146080
 20
35.470678
 11
97.893407
 21
35.407422
  0
LINE
  8
4
  6
CONTINUOUS
 10
97.888663
 20
35.351373
 11
97.898152
 21
35.463472
  0
LINE
  8
4
  6
CONTINUOUS
 10
97.888663
 20
35.351373
 11
98.640735
 21
35.344167
  0
LINE
  8
4
  6
CONTINUOUS
 10
97.898152
 20
35.463472
 11
98.640735
 21
35.344167
  0
LINE
  8
4
  6
CONTINUOUS
 10
97.734454
 20
35.307974
 11
97.753430
 21
35.532172
  0
LINE
  8
4
  6
CONTINUOUS
 10
97.641038
 20
35.315881
 11
97.660014
 21
35.540079
  0
LINE
  8
4
  6
CONTINUOUS
 10
97.547622
 20
35.323788
 11
97.566598
 21
35.547986
  0
LINE
  8
4
  6
CONTINUOUS
 10
6.213165
 20
43.167429
 11
5.216728
 21
43.251770
  0
LINE
  8
4
  6
CONTINUOUS
 10
5.225162
 20
43.351414
 11
5.208294
 21
43.152126
  0
LINE
  8
4
  6
CONTINUOUS
 10
5.245091
 20
43.349727
 11
5.228223
 21
43.150439
  0
LINE
  8
4
  6
CONTINUOUS
 10
5.265020
 20
43.348040
 11
5.248152
 21
43.148753
  0
POLYLINE
  8
4
  6
CONTINUOUS
 66
     1
  0
VERTEX
  8
4
  6
CONTINUOUS
 10
6.213165
 20
43.167429
  0
VERTEX
  8
4
  6
CONTINUOUS
 10
97.146080
 20
35.470678
  0
SEQEND
  8
4
  6
CONTINUOUS
  0
LINE
  8
4
  6
CONTINUOUS
 10
97.220581
 20
36.350864
 11
97.967908
 21
36.287608
  0
LINE
  8
4
  6
CONTINUOUS
 10
97.963164
 20
36.231559
 11
97.972652
 21
36.343658
  0
LINE
  8
4
  6
CONTINUOUS
 10
97.963164
 20
36.231559
 11
98.715236
 21
36.224353
  0
LINE
  8
4
  6
CONTINUOUS
 10
97.972652
 20
36.343658
 11
98.715236
 21
36.224353
  0
LINE
  8
4
  6
CONTINUOUS
 10
97.808954
 20
36.188160
 11
97.827931
 21
36.412358
  0
LINE
  8
4
  6
CONTINUOUS
 10
97.715538
 20
36.196067
 11
97.734515
 21
36.420265
  0
LINE
  8
4
  6
CONTINUOUS
 10
97.622122
 20
36.203974
 11
97.641099
 21
36.428172
  0
LINE
  8
4
  6
CONTINUOUS
 10
6.287666
 20
44.047615
 11
5.291229
 21
44.131956
  0
LINE
  8
4
  6
CONTINUOUS
 10
5.299663
 20
44.231600
 11
5.282795
 21
44.032312
  0
LINE
  8
4
  6
CONTINUOUS
 10
5.319592
 20
44.229913
 11
5.302724
 21
44.030625
  0
LINE
  8
4
  6
CONTINUOUS
 10
5.339521
 20
44.228226
 11
5.322653
 21
44.028939
  0
POLYLINE
  8
4
  6
CONTINUOUS
 66
     1
  0
VERTEX
  8
4
  6
CONTINUOUS
 10
6.287666
 20
44.047615
  0
VERTEX
  8
4
  6
CONTINUOUS
 10
97.220581
 20
36.350864
  0
SEQEND
  8
4
  6
CONTINUOUS
  0
LINE
  8
4
  6
CONTINUOUS
 10
97.295081
 20
37.231050
 11
98.042409
 21
37.167794
  0
LINE
  8
4
  6
CONTINUOUS
 10
98.037665
 20
37.111745
 11
98.047153
 21
37.223844
  0
LINE
  8
4
  6
CONTINUOUS
 10
98.037665
 20
37.111745
 11
98.789737
 21
37.104539
  0
LINE
  8
4
  6
CONTINUOUS
 10
98.047153
 20
37.223844
 11
98.789737
 21
37.104539
  0
LINE
  8
4
  6
CONTINUOUS
 10
97.883455
 20
37.068346
 11
97.902432
 21
37.292544
  0
LINE
  8
4
  6
CONTINUOUS
 10
97.790039
 20
37.076253
 11
97.809016
 21
37.300451
  0
LINE
  8
4
  6
CONTINUOUS
 10
97.696623
 20
37.084160
 11
97.715600
 21
37.308358
  0
LINE
  8
4
  6
CONTINUOUS
 10
6.362167
 20
44.927801
 11
5.365730
 21
45.012142
  0
LINE
  8
4
  6
CONTINUOUS
 10
5.374164
 20
45.111786
 11
5.357296
 21
44.912498
  0
LINE
  8
4
  6
CONTINUOUS
 10
5.394093
 20
45.110099
 11
5.377225
 21
44.910811
  0
LINE
  8
4
  6
CONTINUOUS
 10
5.414021
 20
45.108412
 11
5.397153
 21
44.909125
  0
POLYLINE
  8
4
  6
CONTINUOUS
 66
     1
  0
VERTEX
  8
4
  6
CONTINUOUS
 10
6.362167
 20
44.927801
  0
VERTEX
  8
4
  6
CONTINUOUS
 10
97.295081
 20
37.231050
  0
SEQEND
  8
4
  6
CONTINUOUS
  0
LINE
  8
4
  6
CONTINUOUS
 10
97.369582
 20
38.111236
 11
98.116910
 21
38.047980
  0
LINE
  8
4
  6
CONTINUOUS
 10
98.112166
 20
37.991931
 11
98.121654
 21
38.104030
  0
LINE
  8
4
  6
CONTINUOUS
 10
98.112166
 20
37.991931
 11
98.864238
 21
37.984725
  0
LINE
  8
4
  6
CONTINUOUS
 10
98.121654
 20
38.104030
 11
98.864238
 21
37.984725
  0
LINE
  8
4
  6
CONTINUOUS
 10
97.957956
 20
37.948532
 11
97.976933
 21
38.172730
  0
LINE
  8
4
  6
CONTINUOUS
 10
97.864540
 20
37.956439
 11
97.883517
 21
38.180637
  0
LINE
  8
4
  6
CONTINUOUS
 10
97.771124
 20
37.964346
 11
97.790101
 21
38.188544
  0
LINE
  8
4
  6
CONTINUOUS
 10
6.436668
 20
45.807987
 11
5.440231
 21
45.892328
  0
LINE
  8
4
  6
CONTINUOUS
 10
5.448665
 20
45.991972
 11
5.431797
 21
45.792684
  0
LINE
  8
4
  6
CONTINUOUS
 10
5.468594
 20
45.990285
 11
5.451725
 21
45.790997
  0
LINE
  8
4
  6
CONTINUOUS
 10
5.488522
 20
45.988598
 11
5.471654
 21
45.789311
  0
POLYLINE
  8
4
  6
CONTINUOUS
 66
     1
  0
VERTEX
  8
4
  6
CONTINUOUS
 10
6.436668
 20
45.807987
  0
VERTEX
  8
4
  6
CONTINUOUS
 10
97.369582
 20
38.111236
  0
SEQEND
  8
4
  6
CONTINUOUS
  0
LINE
  8
4
  6
CONTINUOUS
 10
97.444083
 20
38.991422
 11
98.191411
 21
38.928166
  0
LINE
  8
4
  6
CONTINUOUS
 10
98.186666
 20
38.872117
 11
98.196155
 21
38.984216
  0
LINE
  8
4
  6
CONTINUOUS
 10
98.186666
 20
38.872117
 11
98.938738
 21
38.864911
  0
LINE
  8
4
  6
CONTINUOUS
 10
98.196155
 20
38.984216
 11
98.938738
 21
38.864911
  0
LINE
  8
4
  6
CONTINUOUS
 10
98.032457
 20
38.828718
 11
98.051433
 21
39.052916
  0
LINE
  8
4
  6
CONTINUOUS
 10
97.939041
 20
38.836625
 11
97.958017
 21
39.060823
  0
LINE
  8
4
  6
CONTINUOUS
 10
97.845625
 20
38.844532
 11
97.864601
 21
39.068730
  0
LINE
  8
4
  6
CONTINUOUS
 10
6.511168
 20
46.688173
 11
5.514732
 21
46.772514
  0
LINE
  8
4
  6
CONTINUOUS
 10
5.523166
 20
46.872158
 11
5.506297
 21
46.672870
  0
LINE
  8
4
  6
CONTINUOUS
 10
5.543094
 20
46.870471
 11
5.526226
 21
46.671183
  0
LINE
  8
4
  6
CONTINUOUS
 10
5.563023
 20
46.868784
 11
5.546155
 21
46.669497
  0
POLYLINE
  8
4
  6
CONTINUOUS
 66
     1
  0
VERTEX
  8
4
  6
CONTINUOUS
 10
6.511168
 20
46.688173
  0
VERTEX
  8
4
  6
CONTINUOUS
 10
97.444083
 20
38.991422
  0
SEQEND
  8
4
  6
CONTINUOUS
  0
LINE
  8
4
  6
CONTINUOUS
 10
97.518584
 20
39.871608
 11
98.265911
 21
39.808352
  0
LINE
  8
4
  6
CONTINUOUS
 10
98.261167
 20
39.752303
 11
98.270656
 21
39.864402
  0
LINE
  8
4
  6
CONTINUOUS
 10
98.261167
 20
39.752303
 11
99.013239
 21
39.745097
  0
LINE
  8
4
  6
CONTINUOUS
 10
98.270656
 20
39.864402
 11
99.013239
 21
39.745097
  0
LINE
  8
4
  6
CONTINUOUS
 10
98.106958
 20
39.708904
 11
98.125934
 21
39.933102
  0
LINE
  8
4
  6
CONTINUOUS
 10
98.013542
 20
39.716811
 11
98.032518
 21
39.941009
  0
LINE
  8
4
  6
CONTINUOUS
 10
97.920126
 20
39.724718
 11
97.939102
 21
39.948916
  0
LINE
  8
4
  6
CONTINUOUS
 10
6.585669
 20
47.568359
 11
5.589232
 21
47.652700
  0
LINE
  8
4
  6
CONTINUOUS
 10
5.597666
 20
47.752344
 11
5.580798
 21
47.553056
  0
LINE
  8
4
  6
CONTINUOUS
 10
5.617595
 20
47.750657
 11
5.600727
 21
47.551369
  0
LINE
  8
4
  6
CONTINUOUS
 10
5.637524
 20
47.748970
 11
5.620656
 21
47.549683
  0
POLYLINE
  8
4
  6
CONTINUOUS
 66
     1
  0
VERTEX
  8
4
  6
CONTINUOUS
 10
6.585669
 20
47.568359
  0
VERTEX
  8
4
  6
CONTINUOUS
 10
97.518584
 20
39.871608
  0
SEQEND
  8
4
  6
CONTINUOUS
  0
LINE
  8
4
  6
CONTINUOUS
 10
97.629265
 20
41.178843
 11
98.376593
 21
41.115588
  0
LINE
  8
4
  6
CONTINUOUS
 10
98.371848
 20
41.059538
 11
98.381337
 21
41.171637
  0
LINE
  8
4
  6
CONTINUOUS
 10
98.371848
 20
41.059538
 11
99.123920
 21
41.052332
  0
LINE
  8
4
  6
CONTINUOUS
 10
98.381337
 20
41.171637
 11
99.123920
 21
41.052332
  0
LINE
  8
4
  6
CONTINUOUS
 10
98.205182
 20
41.017194
 11
98.224159
 21
41.241392
  0
LINE
  8
4
  6
CONTINUOUS
 10
98.080628
 20
41.027737
 11
98.099605
 21
41.251935
  0
LINE
  8
4
  6
CONTINUOUS
 10
6.058632
 20
48.929577
 11
5.062195
 21
49.013917
  0
LINE
  8
4
  6
CONTINUOUS
 10
5.070629
 20
49.113561
 11
5.053761
 21
48.914274
  0
LINE
  8
4
  6
CONTINUOUS
 10
5.090557
 20
49.111874
 11
5.073689
 21
48.912587
  0
LINE
  8
4
  6
CONTINUOUS
 10
5.110486
 20
49.110188
 11
5.093618
 21
48.910900
  0
POLYLINE
  8
4
  6
CONTINUOUS
 66
     1
  0
VERTEX
  8
4
  6
CONTINUOUS
 10
6.058632
 20
48.929577
  0
VERTEX
  8
4
  6
CONTINUOUS
 10
97.629265
 20
41.178843
  0
SEQEND
  8
4
  6
CONTINUOUS
  0
LINE
  8
4
  6
CONTINUOUS
 10
97.768427
 20
42.822964
 11
98.515754
 21
42.759709
  0
LINE
  8
4
  6
CONTINUOUS
 10
98.511010
 20
42.703659
 11
98.520499
 21
42.815758
  0
LINE
  8
4
  6
CONTINUOUS
 10
98.511010
 20
42.703659
 11
99.263082
 21
42.696453
  0
LINE
  8
4
  6
CONTINUOUS
 10
98.520499
 20
42.815758
 11
99.263082
 21
42.696453
  0
LINE
  8
4
  6
CONTINUOUS
 10
98.344344
 20
42.661315
 11
98.363321
 21
42.885513
  0
LINE
  8
4
  6
CONTINUOUS
 10
98.219790
 20
42.671858
 11
98.238767
 21
42.896056
  0
LINE
  8
4
  6
CONTINUOUS
 10
6.197794
 20
50.573698
 11
5.201357
 21
50.658038
  0
LINE
  8
4
  6
CONTINUOUS
 10
5.209791
 20
50.757682
 11
5.192923
 21
50.558395
  0
LINE
  8
4
  6
CONTINUOUS
 10
5.229719
 20
50.755995
 11
5.212851
 21
50.556708
  0
LINE
  8
4
  6
CONTINUOUS
 10
5.249648
 20
50.754309
 11
5.232780
 21
50.555021
  0
POLYLINE
  8
4
  6
CONTINUOUS
 66
     1
  0
VERTEX
  8
4
  6
CONTINUOUS
 10
6.197794
 20
50.573698
  0
VERTEX
  8
4
  6
CONTINUOUS
 10
97.768427
 20
42.822964
  0
SEQEND
  8
4
  6
CONTINUOUS
  0
LINE
  8
4
  6
CONTINUOUS
 10
97.907589
 20
44.467085
 11
98.654916
 21
44.403830
  0
LINE
  8
4
  6
CONTINUOUS
 10
98.650172
 20
44.347780
 11
98.659661
 21
44.459879
  0
LINE
  8
4
  6
CONTINUOUS
 10
98.650172
 20
44.347780
 11
99.402244
 21
44.340574
  0
LINE
  8
4
  6
CONTINUOUS
 10
98.659661
 20
44.459879
 11
99.402244
 21
44.340574
  0
LINE
  8
4
  6
CONTINUOUS
 10
98.483506
 20
44.305436
 11
98.502483
 21
44.529634
  0
LINE
  8
4
  6
CONTINUOUS
 10
98.358952
 20
44.315979
 11
98.377929
 21
44.540177
  0
LINE
  8
4
  6
CONTINUOUS
 10
6.336955
 20
52.217819
 11
5.340518
 21
52.302160
  0
LINE
  8
4
  6
CONTINUOUS
 10
5.348953
 20
52.401803
 11
5.332084
 21
52.202516
  0
LINE
  8
4
  6
CONTINUOUS
 10
5.368881
 20
52.400116
 11
5.352013
 21
52.200829
  0
LINE
  8
4
  6
CONTINUOUS
 10
5.388810
 20
52.398430
 11
5.371942
 21
52.199142
  0
POLYLINE
  8
4
  6
CONTINUOUS
 66
     1
  0
VERTEX
  8
4
  6
CONTINUOUS
 10
6.336955
 20
52.217819
  0
VERTEX
  8
4
  6
CONTINUOUS
 10
97.907589
 20
44.467085
  0
SEQEND
  8
4
  6
CONTINUOUS
  0
LINE
  8
1
  6
CONTINUOUS
 10
5.786880
 20
80.543840
 11
25.210608
 21
80.543840
  0
LINE
  8
1
  6
CONTINUOUS
 10
5.786880
 20
80.543840
 11
5.786880
 21
79.543840
  0
LINE
  8
1
  6
CONTINUOUS
 10
5.786880
 20
79.543840
 11
22.076160
 21
79.543840
  0
LINE
  8
1
  6
CONTINUOUS
 10
5.786880
 20
79.543840
 11
5.786880
 21
78.543840
  0
LINE
  8
1
  6
CONTINUOUS
 10
8.275996
 20
79.543840
 11
8.275996
 21
78.543840
  0
LINE
  8
1
  6
CONTINUOUS
 10
10.413709
 20
79.543840
 11
10.413709
 21
78.543840
  0
LINE
  8
1
  6
CONTINUOUS
 10
11.789076
 20
79.543840
 11
11.789076
 21
78.543840
  0
LINE
  8
1
  6
CONTINUOUS
 10
15.953589
 20
79.043840
 11
15.953589
 21
78.543840
  0
LINE
  8
1
  6
CONTINUOUS
 10
18.941712
 20
79.543840
 11
18.941712
 21
78.543840
  0
LINE
  8
1
  6
CONTINUOUS
 10
19.986527
 20
79.043840
 11
19.986528
 21
78.543840
  0
LINE
  8
1
  6
CONTINUOUS
 10
21.031344
 20
79.043840
 11
21.031344
 21
78.543840
  0
LINE
  8
1
  6
CONTINUOUS
 10
22.076160
 20
79.543840
 11
22.076160
 21
78.543840
  0
LINE
  8
1
  6
CONTINUOUS
 10
5.786880
 20
78.543840
 11
25.210608
 21
78.543840
  0
LINE
  8
1
  6
CONTINUOUS
 10
11.789076
 20
79.043840
 11
15.953589
 21
79.043840
  0
LINE
  8
1
  6
CONTINUOUS
 10
15.953589
 20
79.043840
 11
18.941712
 21
79.043840
  0
LINE
  8
1
  6
CONTINUOUS
 10
18.941712
 20
79.043840
 11
19.986528
 21
79.043840
  0
LINE
  8
1
  6
CONTINUOUS
 10
19.986528
 20
79.043840
 11
21.031344
 21
79.043840
  0
LINE
  8
1
  6
CONTINUOUS
 10
21.031344
 20
79.043840
 11
25.210608
 21
79.043840
  0
LINE
  8
1
  6
CONTINUOUS
 10
25.210608
 20
78.543840
 11
25.210608
 21
80.543840
  0
LINE
  8
1
  6
CONTINUOUS
 10
23.643384
 20
79.043840
 11
23.643384
 21
78.543840
  0
LINE
  8
1
  6
CONTINUOUS
 10
22.076160
 20
79.543840
 11
25.210608
 21
79.543840
  0
LINE
  8
1
  6
CONTINUOUS
 10
5.786880
 20
78.543840
 11
5.786880
 21
78.043839
  0
LINE
  8
1
  6
CONTINUOUS
 10
5.786880
 20
78.043839
 11
25.210608
 21
78.043839
  0
LINE
  8
1
  6
CONTINUOUS
 10
8.275996
 20
78.543840
 11
8.275996
 21
78.043839
  0
LINE
  8
1
  6
CONTINUOUS
 10
10.413709
 20
78.543840
 11
10.413709
 21
78.043839
  0
LINE
  8
1
  6
CONTINUOUS
 10
11.789076
 20
78.543840
 11
11.789076
 21
78.043839
  0
LINE
  8
1
  6
CONTINUOUS
 10
15.953589
 20
78.543840
 11
15.953589
 21
78.043839
  0
LINE
  8
1
  6
CONTINUOUS
 10
18.941712
 20
78.543840
 11
18.941712
 21
78.043839
  0
LINE
  8
1
  6
CONTINUOUS
 10
19.986528
 20
78.543840
 11
19.986528
 21
78.043839
  0
LINE
  8
1
  6
CONTINUOUS
 10
21.031344
 20
78.543840
 11
21.031344
 21
78.043839
  0
LINE
  8
1
  6
CONTINUOUS
 10
22.076160
 20
78.543840
 11
22.076160
 21
78.043839
  0
LINE
  8
1
  6
CONTINUOUS
 10
22.076160
 20
78.043839
 11
22.076160
 21
78.543840
  0
LINE
  8
1
  6
CONTINUOUS
 10
22.076160
 20
78.543840
 11
22.076160
 21
78.043839
  0
LINE
  8
1
  6
CONTINUOUS
 10
23.643384
 20
78.543840
 11
23.643384
 21
78.043839
  0
LINE
  8
1
  6
CONTINUOUS
 10
25.210608
 20
78.543840
 11
25.210608
 21
78.043839
  0
LINE
  8
1
  6
CONTINUOUS
 10
5.786880
 20
78.043839
 11
5.786880
 21
77.543839
  0
LINE
  8
1
  6
CONTINUOUS
 10
5.786880
 20
77.543839
 11
25.210608
 21
77.543839
  0
LINE
  8
1
  6
CONTINUOUS
 10
8.275996
 20
78.043839
 11
8.275996
 21
77.543839
  0
LINE
  8
1
  6
CONTINUOUS
 10
10.413709
 20
78.043839
 11
10.413709
 21
77.543839
  0
LINE
  8
1
  6
CONTINUOUS
 10
11.789076
 20
78.043839
 11
11.789076
 21
77.543839
  0
LINE
  8
1
  6
CONTINUOUS
 10
15.953589
 20
78.043839
 11
15.953589
 21
77.543839
  0
LINE
  8
1
  6
CONTINUOUS
 10
18.941712
 20
78.043839
 11
18.941712
 21
77.543839
  0
LINE
  8
1
  6
CONTINUOUS
 10
19.986528
 20
78.043839
 11
19.986528
 21
77.543839
  0
LINE
  8
1
  6
CONTINUOUS
 10
21.031344
 20
78.043839
 11
21.031344
 21
77.543839
  0
LINE
  8
1
  6
CONTINUOUS
 10
22.076160
 20
78.043839
 11
22.076160
 21
77.543839
  0
LINE
  8
1
  6
CONTINUOUS
 10
22.076160
 20
77.543839
 11
22.076160
 21
78.043839
  0
LINE
  8
1
  6
CONTINUOUS
 10
22.076160
 20
78.043839
 11
22.076160
 21
77.543839
  0
LINE
  8
1
  6
CONTINUOUS
 10
23.643384
 20
78.043839
 11
23.643384
 21
77.543839
  0
LINE
  8
1
  6
CONTINUOUS
 10
25.210608
 20
78.043839
 11
25.210608
 21
77.543839
  0
LINE
  8
1
  6
CONTINUOUS
 10
5.786880
 20
77.543838
 11
5.786880
 21
77.043838
  0
LINE
  8
1
  6
CONTINUOUS
 10
5.786880
 20
77.043838
 11
25.210608
 21
77.043838
  0
LINE
  8
1
  6
CONTINUOUS
 10
8.275996
 20
77.543838
 11
8.275996
 21
77.043838
  0
LINE
  8
1
  6
CONTINUOUS
 10
10.413709
 20
77.543838
 11
10.413709
 21
77.043838
  0
LINE
  8
1
  6
CONTINUOUS
 10
11.789076
 20
77.543838
 11
11.789076
 21
77.043838
  0
LINE
  8
1
  6
CONTINUOUS
 10
15.953589
 20
77.543838
 11
15.953589
 21
77.043838
  0
LINE
  8
1
  6
CONTINUOUS
 10
18.941712
 20
77.543838
 11
18.941712
 21
77.043838
  0
LINE
  8
1
  6
CONTINUOUS
 10
19.986528
 20
77.543838
 11
19.986528
 21
77.043838
  0
LINE
  8
1
  6
CONTINUOUS
 10
21.031344
 20
77.543838
 11
21.031344
 21
77.043838
  0
LINE
  8
1
  6
CONTINUOUS
 10
22.076160
 20
77.543838
 11
22.076160
 21
77.043838
  0
LINE
  8
1
  6
CONTINUOUS
 10
22.076160
 20
77.043838
 11
22.076160
 21
77.543838
  0
LINE
  8
1
  6
CONTINUOUS
 10
22.076160
 20
77.543839
 11
22.076160
 21
77.043838
  0
LINE
  8
1
  6
CONTINUOUS
 10
23.643384
 20
77.543838
 11
23.643384
 21
77.043838
  0
LINE
  8
1
  6
CONTINUOUS
 10
25.210608
 20
77.543838
 11
25.210608
 21
77.043838
  0
LINE
  8
1
  6
CONTINUOUS
 10
5.786880
 20
77.043837
 11
5.786880
 21
76.543837
  0
LINE
  8
1
  6
CONTINUOUS
 10
5.786880
 20
76.543837
 11
25.210608
 21
76.543837
  0
LINE
  8
1
  6
CONTINUOUS
 10
8.275996
 20
77.043837
 11
8.275996
 21
76.543837
  0
LINE
  8
1
  6
CONTINUOUS
 10
10.413709
 20
77.043837
 11
10.413709
 21
76.543837
  0
LINE
  8
1
  6
CONTINUOUS
 10
11.789076
 20
77.043837
 11
11.789076
 21
76.543837
  0
LINE
  8
1
  6
CONTINUOUS
 10
15.953589
 20
77.043837
 11
15.953589
 21
76.543837
  0
LINE
  8
1
  6
CONTINUOUS
 10
18.941712
 20
77.043837
 11
18.941712
 21
76.543837
  0
LINE
  8
1
  6
CONTINUOUS
 10
19.986528
 20
77.043837
 11
19.986528
 21
76.543837
  0
LINE
  8
1
  6
CONTINUOUS
 10
21.031344
 20
77.043837
 11
21.031344
 21
76.543837
  0
LINE
  8
1
  6
CONTINUOUS
 10
22.076160
 20
77.043837
 11
22.076160
 21
76.543837
  0
LINE
  8
1
  6
CONTINUOUS
 10
22.076160
 20
76.543837
 11
22.076160
 21
77.043837
  0
LINE
  8
1
  6
CONTINUOUS
 10
22.076160
 20
77.043838
 11
22.076160
 21
76.543837
  0
LINE
  8
1
  6
CONTINUOUS
 10
23.643384
 20
77.043837
 11
23.643384
 21
76.543837
  0
LINE
  8
1
  6
CONTINUOUS
 10
25.210608
 20
77.043837
 11
25.210608
 21
76.543837
  0
LINE
  8
1
  6
CONTINUOUS
 10
5.786880
 20
76.543837
 11
5.786880
 21
76.043837
  0
LINE
  8
1
  6
CONTINUOUS
 10
5.786880
 20
76.043837
 11
25.210608
 21
76.043837
  0
LINE
  8
1
  6
CONTINUOUS
 10
8.275996
 20
76.543837
 11
8.275996
 21
76.043837
  0
LINE
  8
1
  6
CONTINUOUS
 10
10.413709
 20
76.543837
 11
10.413709
 21
76.043837
  0
LINE
  8
1
  6
CONTINUOUS
 10
11.789076
 20
76.543837
 11
11.789076
 21
76.043837
  0
LINE
  8
1
  6
CONTINUOUS
 10
15.953589
 20
76.543837
 11
15.953589
 21
76.043837
  0
LINE
  8
1
  6
CONTINUOUS
 10
18.941712
 20
76.543837
 11
18.941712
 21
76.043837
  0
LINE
  8
1
  6
CONTINUOUS
 10
19.986528
 20
76.543837
 11
19.986528
 21
76.043837
  0
LINE
  8
1
  6
CONTINUOUS
 10
21.031344
 20
76.543837
 11
21.031344
 21
76.043837
  0
LINE
  8
1
  6
CONTINUOUS
 10
22.076160
 20
76.543837
 11
22.076160
 21
76.043837
  0
LINE
  8
1
  6
CONTINUOUS
 10
22.076160
 20
76.043837
 11
22.076160
 21
76.543837
  0
LINE
  8
1
  6
CONTINUOUS
 10
22.076160
 20
76.543837
 11
22.076160
 21
76.043836
  0
LINE
  8
1
  6
CONTINUOUS
 10
23.643384
 20
76.543837
 11
23.643384
 21
76.043837
  0
LINE
  8
1
  6
CONTINUOUS
 10
25.210608
 20
76.543837
 11
25.210608
 21
76.043837
  0
LINE
  8
1
  6
CONTINUOUS
 10
5.786880
 20
75.406484
 11
19.069972
 21
75.406484
  0
LINE
  8
1
  6
CONTINUOUS
 10
5.786880
 20
74.043836
 11
19.069972
 21
74.043836
  0
LINE
  8
1
  6
CONTINUOUS
 10
5.786880
 20
73.543836
 11
14.708589
 21
73.543836
  0
LINE
  8
1
  6
CONTINUOUS
 10
14.708589
 20
73.543836
 11
16.896712
 21
73.543836
  0
LINE
  8
1
  6
CONTINUOUS
 10
16.276692
 20
73.543836
 11
17.321508
 21
73.543836
  0
LINE
  8
1
  6
CONTINUOUS
 10
17.321508
 20
73.543836
 11
18.986344
 21
73.543836
  0
LINE
  8
1
  6
CONTINUOUS
 10
18.986344
 20
73.543836
 11
19.069972
 21
73.543836
  0
LINE
  8
1
  6
CONTINUOUS
 10
5.786880
 20
75.406484
 11
5.786880
 21
72.543836
  0
LINE
  8
1
  6
CONTINUOUS
 10
5.786880
 20
72.543836
 11
19.069972
 21
72.543837
  0
LINE
  8
1
  6
CONTINUOUS
 10
7.924592
 20
73.543836
 11
7.924592
 21
72.543836
  0
LINE
  8
1
  6
CONTINUOUS
 10
10.112716
 20
72.543836
 11
10.112716
 21
73.543836
  0
LINE
  8
1
  6
CONTINUOUS
 10
16.980340
 20
73.543836
 11
16.980340
 21
72.543837
  0
LINE
  8
1
  6
CONTINUOUS
 10
18.025157
 20
73.543836
 11
18.025157
 21
72.543837
  0
LINE
  8
1
  6
CONTINUOUS
 10
11.815528
 20
72.543836
 11
11.815528
 21
73.043836
  0
LINE
  8
1
  6
CONTINUOUS
 10
19.069972
 20
72.543837
 11
19.069972
 21
75.406484
  0
LINE
  8
1
  6
CONTINUOUS
 10
10.112716
 20
73.043836
 11
15.935525
 21
73.043836
  0
LINE
  8
1
  6
CONTINUOUS
 10
15.935525
 20
72.543837
 11
15.935525
 21
74.043836
  0
LINE
  8
1
  6
CONTINUOUS
 10
13.875527
 20
72.543836
 11
13.875527
 21
73.043836
  0
LINE
  8
1
  6
CONTINUOUS
 10
5.786880
 20
72.543836
 11
5.786880
 21
72.043835
  0
LINE
  8
1
  6
CONTINUOUS
 10
7.924592
 20
72.543836
 11
7.924592
 21
72.043835
  0
LINE
  8
1
  6
CONTINUOUS
 10
10.112716
 20
72.543836
 11
10.112716
 21
72.043835
  0
LINE
  8
1
  6
CONTINUOUS
 10
5.786880
 20
72.043835
 11
19.069972
 21
72.043835
  0
LINE
  8
1
  6
CONTINUOUS
 10
15.935525
 20
72.543836
 11
15.935525
 21
72.043836
  0
LINE
  8
1
  6
CONTINUOUS
 10
16.980340
 20
72.543836
 11
16.980340
 21
72.043836
  0
LINE
  8
1
  6
CONTINUOUS
 10
18.025157
 20
72.543836
 11
18.025157
 21
72.043836
  0
LINE
  8
1
  6
CONTINUOUS
 10
11.815528
 20
72.543836
 11
11.815528
 21
72.043835
  0
LINE
  8
1
  6
CONTINUOUS
 10
13.875527
 20
72.043835
 11
13.875527
 21
72.543836
  0
LINE
  8
1
  6
CONTINUOUS
 10
15.935525
 20
72.043835
 11
15.935525
 21
72.543836
  0
LINE
  8
1
  6
CONTINUOUS
 10
19.069972
 20
72.543836
 11
19.069972
 21
72.043835
  0
LINE
  8
1
  6
CONTINUOUS
 10
5.786880
 20
72.043835
 11
5.786880
 21
71.543835
  0
LINE
  8
1
  6
CONTINUOUS
 10
7.924592
 20
72.043835
 11
7.924592
 21
71.543835
  0
LINE
  8
1
  6
CONTINUOUS
 10
10.112716
 20
72.043835
 11
10.112716
 21
71.543835
  0
LINE
  8
1
  6
CONTINUOUS
 10
5.786880
 20
71.543835
 11
19.069972
 21
71.543835
  0
LINE
  8
1
  6
CONTINUOUS
 10
15.935525
 20
72.043835
 11
15.935525
 21
71.543835
  0
LINE
  8
1
  6
CONTINUOUS
 10
16.980340
 20
72.043835
 11
16.980340
 21
71.543835
  0
LINE
  8
1
  6
CONTINUOUS
 10
18.025157
 20
72.043835
 11
18.025157
 21
71.543835
  0
LINE
  8
1
  6
CONTINUOUS
 10
11.815528
 20
72.043835
 11
11.815528
 21
71.543835
  0
LINE
  8
1
  6
CONTINUOUS
 10
13.875527
 20
71.543835
 11
13.875527
 21
72.043835
  0
LINE
  8
1
  6
CONTINUOUS
 10
15.935525
 20
71.543835
 11
15.935525
 21
72.043835
  0
LINE
  8
1
  6
CONTINUOUS
 10
19.069972
 20
72.043835
 11
19.069972
 21
71.543835
  0
LINE
  8
2
  6
CONTINUOUS
 10
101.700000
 20
23.900000
 11
101.700000
 21
23.900000
  0
LINE
  8
2
  6
CONTINUOUS
 10
118.000000
 20
23.900000
 11
118.000000
 21
23.900000
  0
LINE
  8
2
  6
CONTINUOUS
 10
118.000000
 20
23.900000
 11
101.700000
 21
23.900000
  0
LINE
  8
2
  6
CONTINUOUS
 10
118.000000
 20
22.200000
 11
101.700000
 21
22.200000
  0
LINE
  8
2
  6
CONTINUOUS
 10
101.700000
 20
23.900000
 11
101.700000
 21
22.200000
  0
LINE
  8
2
  6
CONTINUOUS
 10
118.000000
 20
22.200000
 11
118.000000
 21
23.900000
  0
LINE
  8
1
  6
CONTINUOUS
 10
118.000002
 20
29.700001
 11
119.000002
 21
29.700001
  0
LINE
  8
1
  6
CONTINUOUS
 10
118.000002
 20
59.400002
 11
119.000002
 21
59.400002
  0
LINE
  8
1
  6
CONTINUOUS
 10
0.000000
 20
29.700001
 11
2.500000
 21
29.700001
  0
LINE
  8
1
  6
CONTINUOUS
 10
0.000000
 20
59.400002
 11
2.500000
 21
59.400002
  0
LINE
  8
1
  6
CONTINUOUS
 10
100.500002
 20
82.999998
 11
100.500002
 21
83.999998
  0
LINE
  8
1
  6
CONTINUOUS
 10
82.000002
 20
82.999998
 11
82.000002
 21
83.999998
  0
LINE
  8
1
  6
CONTINUOUS
 10
63.500002
 20
82.999998
 11
63.500002
 21
83.999998
  0
LINE
  8
1
  6
CONTINUOUS
 10
45.000002
 20
82.999998
 11
45.000002
 21
83.999998
  0
LINE
  8
1
  6
CONTINUOUS
 10
33.050001
 20
82.999998
 11
33.050001
 21
83.999998
  0
LINE
  8
1
  6
CONTINUOUS
 10
21.100000
 20
82.999998
 11
21.100000
 21
83.999998
  0
LINE
  8
1
  6
CONTINUOUS
 10
100.500002
 20
0.000000
 11
100.500002
 21
1.000000
  0
LINE
  8
1
  6
CONTINUOUS
 10
82.000002
 20
0.000000
 11
82.000002
 21
1.000000
  0
LINE
  8
1
  6
CONTINUOUS
 10
63.500002
 20
0.000000
 11
63.500002
 21
1.000000
  0
LINE
  8
1
  6
CONTINUOUS
 10
45.000002
 20
0.000000
 11
45.000002
 21
1.000000
  0
LINE
  8
1
  6
CONTINUOUS
 10
33.050001
 20
0.000000
 11
33.050001
 21
1.000000
  0
LINE
  8
1
  6
CONTINUOUS
 10
21.100000
 20
0.000000
 11
21.100000
 21
1.000000
  0
LINE
  8
1
  6
CONTINUOUS
 10
0.000000
 20
0.000000
 11
119.000002
 21
0.000000
  0
LINE
  8
1
  6
CONTINUOUS
 10
119.000002
 20
0.000000
 11
119.000002
 21
83.999998
  0
LINE
  8
1
  6
CONTINUOUS
 10
0.000000
 20
0.000000
 11
0.000000
 21
83.999998
  0
LINE
  8
8
  6
CONTINUOUS
 10
2.500000
 20
1.000000
 11
118.000002
 21
1.000000
  0
LINE
  8
8
  6
CONTINUOUS
 10
118.000002
 20
1.000000
 11
118.000002
 21
82.999998
  0
LINE
  8
1
  6
CONTINUOUS
 10
0.000000
 20
83.999998
 11
119.000002
 21
83.999998
  0
LINE
  8
8
  6
CONTINUOUS
 10
2.500000
 20
82.999998
 11
118.000002
 21
82.999998
  0
LINE
  8
8
  6
CONTINUOUS
 10
2.500000
 20
82.999998
 11
2.500000
 21
1.000000
  0
LINE
  8
2
  6
CONTINUOUS
 10
102.650002
 20
17.625000
 11
102.650002
 21
18.125000
  0
LINE
  8
1
  6
CONTINUOUS
 10
101.700002
 20
18.200000
 11
118.000002
 21
18.200000
  0
LINE
  8
1
  6
CONTINUOUS
 10
101.700002
 20
17.700000
 11
118.000002
 21
17.700000
  0
LINE
  8
1
  6
CONTINUOUS
 10
102.200002
 20
17.700000
 11
118.000002
 21
17.700000
  0
LINE
  8
2
  6
CONTINUOUS
 10
102.650002
 20
17.125000
 11
102.650002
 21
17.625000
  0
LINE
  8
1
  6
CONTINUOUS
 10
102.200002
 20
17.700000
 11
118.000002
 21
17.700000
  0
LINE
  8
1
  6
CONTINUOUS
 10
101.700002
 20
17.200000
 11
118.000002
 21
17.200000
  0
LINE
  8
2
  6
CONTINUOUS
 10
102.650002
 20
16.700000
 11
102.650002
 21
17.200000
  0
LINE
  8
1
  6
CONTINUOUS
 10
116.008223
 20
16.000000
 11
116.008223
 21
22.200000
  0
LINE
  8
1
  6
CONTINUOUS
 10
104.850002
 20
16.000000
 11
104.850002
 21
22.200000
  0
LINE
  8
6
  6
CONTINUOUS
 10
101.700002
 20
16.000000
 11
118.000002
 21
16.000000
  0
LINE
  8
1
  6
CONTINUOUS
 10
102.650002
 20
16.000000
 11
102.650002
 21
16.700000
  0
LINE
  8
1
  6
CONTINUOUS
 10
102.200002
 20
17.200000
 11
118.000002
 21
17.200000
  0
LINE
  8
1
  6
CONTINUOUS
 10
101.700002
 20
16.700000
 11
118.000002
 21
16.700000
  0
LINE
  8
2
  6
CONTINUOUS
 10
102.650002
 20
18.625000
 11
102.650002
 21
22.200000
  0
LINE
  8
6
  6
CONTINUOUS
 10
101.700002
 20
22.200000
 11
118.000002
 21
22.200000
  0
LINE
  8
1
  6
CONTINUOUS
 10
101.700002
 20
18.700000
 11
118.000002
 21
18.700000
  0
LINE
  8
1
  6
CONTINUOUS
 10
102.200002
 20
18.700000
 11
118.000002
 21
18.700000
  0
LINE
  8
2
  6
CONTINUOUS
 10
102.650002
 20
18.125000
 11
102.650002
 21
18.625000
  0
LINE
  8
1
  6
CONTINUOUS
 10
102.200002
 20
18.700000
 11
118.000002
 21
18.700000
  0
LINE
  8
1
  6
CONTINUOUS
 10
102.200002
 20
18.200000
 11
118.000002
 21
18.200000
  0
LINE
  8
1
  6
CONTINUOUS
 10
102.200002
 20
18.200000
 11
118.000002
 21
18.200000
  0
LINE
  8
6
  6
CONTINUOUS
 10
101.700002
 20
6.600000
 11
118.000002
 21
6.600000
  0
LINE
  8
6
  6
CONTINUOUS
 10
101.700002
 20
8.500000
 11
118.000002
 21
8.500000
  0
LINE
  8
6
  6
CONTINUOUS
 10
101.700002
 20
1.000000
 11
101.700002
 21
8.500000
  0
LINE
  8
6
  6
CONTINUOUS
 10
101.700002
 20
16.000000
 11
101.700002
 21
22.200000
  0
LINE
  8
6
  6
CONTINUOUS
 10
101.700002
 20
15.900000
 11
118.000002
 21
15.900000
  0
LINE
  8
6
  6
CONTINUOUS
 10
101.700002
 20
11.400000
 11
101.700002
 21
15.900000
  0
LINE
  8
1
  6
CONTINUOUS
 10
101.700002
 20
14.400000
 11
118.000002
 21
14.400000
  0
LINE
  8
6
  6
CONTINUOUS
 10
101.700002
 20
3.000000
 11
118.000002
 21
3.000000
  0
LINE
  8
6
  6
CONTINUOUS
 10
105.024321
 20
3.000000
 11
105.024321
 21
1.000000
  0
LINE
  8
1
  6
CONTINUOUS
 10
101.700002
 20
12.900000
 11
118.000002
 21
12.900000
  0
POLYLINE
  8
1
  6
CONTINUOUS
 66
     1
  0
VERTEX
  8
1
  6
CONTINUOUS
 10
103.635546
 20
9.498246
  0
VERTEX
  8
1
  6
CONTINUOUS
 10
101.971546
 20
9.498246
  0
VERTEX
  8
1
  6
CONTINUOUS
 10
101.971546
 20
11.162246
  0
VERTEX
  8
1
  6
CONTINUOUS
 10
103.635546
 20
11.162246
  0
VERTEX
  8
1
  6
CONTINUOUS
 10
103.635546
 20
9.498246
  0
SEQEND
  8
1
  6
CONTINUOUS
  0
POLYLINE
  8
13
  6
CONTINUOUS
 66
     1
  0
VERTEX
  8
13
  6
CONTINUOUS
 10
102.095046
 20
10.244446
  0
VERTEX
  8
13
  6
CONTINUOUS
 10
102.095046
 20
9.498246
  0
VERTEX
  8
13
  6
CONTINUOUS
 10
101.971546
 20
9.498246
  0
VERTEX
  8
13
  6
CONTINUOUS
 10
101.971546
 20
11.162246
  0
VERTEX
  8
13
  6
CONTINUOUS
 10
102.095046
 20
11.162246
  0
VERTEX
  8
13
  6
CONTINUOUS
 10
102.095046
 20
10.244446
  0
SEQEND
  8
13
  6
CONTINUOUS
  0
POLYLINE
  8
13
  6
CONTINUOUS
 66
     1
  0
VERTEX
  8
13
  6
CONTINUOUS
 10
102.522746
 20
10.230979
  0
VERTEX
  8
13
  6
CONTINUOUS
 10
102.522746
 20
9.498246
  0
VERTEX
  8
13
  6
CONTINUOUS
 10
102.095046
 20
9.498246
  0
VERTEX
  8
13
  6
CONTINUOUS
 10
102.095046
 20
10.244446
  0
VERTEX
  8
13
  6
CONTINUOUS
 10
102.143544
 20
10.248642
  0
VERTEX
  8
13
  6
CONTINUOUS
 10
102.211078
 20
10.252071
  0
VERTEX
  8
13
  6
CONTINUOUS
 10
102.259959
 20
10.252484
  0
VERTEX
  8
13
  6
CONTINUOUS
 10
102.290321
 20
10.252141
  0
VERTEX
  8
13
  6
CONTINUOUS
 10
102.334203
 20
10.250668
  0
VERTEX
  8
13
  6
CONTINUOUS
 10
102.394518
 20
10.246747
  0
VERTEX
  8
13
  6
CONTINUOUS
 10
102.446340
 20
10.241621
  0
VERTEX
  8
13
  6
CONTINUOUS
 10
102.490083
 20
10.235974
  0
VERTEX
  8
13
  6
CONTINUOUS
 10
102.522746
 20
10.230979
  0
SEQEND
  8
13
  6
CONTINUOUS
  0
POLYLINE
  8
13
  6
CONTINUOUS
 66
     1
  0
VERTEX
  8
13
  6
CONTINUOUS
 10
102.594246
 20
10.217654
  0
VERTEX
  8
13
  6
CONTINUOUS
 10
102.594246
 20
9.498246
  0
VERTEX
  8
13
  6
CONTINUOUS
 10
103.021946
 20
9.498246
  0
VERTEX
  8
13
  6
CONTINUOUS
 10
103.021946
 20
10.064184
  0
VERTEX
  8
13
  6
CONTINUOUS
 10
103.003898
 20
10.073542
  0
VERTEX
  8
13
  6
CONTINUOUS
 10
102.981716
 20
10.084501
  0
VERTEX
  8
13
  6
CONTINUOUS
 10
102.953307
 20
10.098271
  0
VERTEX
  8
13
  6
CONTINUOUS
 10
102.912865
 20
10.116383
  0
VERTEX
  8
13
  6
CONTINUOUS
 10
102.885024
 20
10.128001
  0
VERTEX
  8
13
  6
CONTINUOUS
 10
102.844071
 20
10.144755
  0
VERTEX
  8
13
  6
CONTINUOUS
 10
102.813490
 20
10.155923
  0
VERTEX
  8
13
  6
CONTINUOUS
 10
102.778388
 20
10.168156
  0
VERTEX
  8
13
  6
CONTINUOUS
 10
102.744083
 20
10.178793
  0
VERTEX
  8
13
  6
CONTINUOUS
 10
102.703465
 20
10.191172
  0
VERTEX
  8
13
  6
CONTINUOUS
 10
102.665141
 20
10.201162
  0
VERTEX
  8
13
  6
CONTINUOUS
 10
102.624819
 20
10.210970
  0
VERTEX
  8
13
  6
CONTINUOUS
 10
102.594246
 20
10.217654
  0
SEQEND
  8
13
  6
CONTINUOUS
  0
POLYLINE
  8
13
  6
CONTINUOUS
 66
     1
  0
VERTEX
  8
13
  6
CONTINUOUS
 10
103.093446
 20
10.024343
  0
VERTEX
  8
13
  6
CONTINUOUS
 10
103.093446
 20
9.498246
  0
VERTEX
  8
13
  6
CONTINUOUS
 10
103.521146
 20
9.498246
  0
VERTEX
  8
13
  6
CONTINUOUS
 10
103.521146
 20
9.661030
  0
VERTEX
  8
13
  6
CONTINUOUS
 10
103.507797
 20
9.676793
  0
VERTEX
  8
13
  6
CONTINUOUS
 10
103.495964
 20
9.690528
  0
VERTEX
  8
13
  6
CONTINUOUS
 10
103.473877
 20
9.715277
  0
VERTEX
  8
13
  6
CONTINUOUS
 10
103.454164
 20
9.736530
  0
VERTEX
  8
13
  6
CONTINUOUS
 10
103.434048
 20
9.757502
  0
VERTEX
  8
13
  6
CONTINUOUS
 10
103.410015
 20
9.781535
  0
VERTEX
  8
13
  6
CONTINUOUS
 10
103.399294
 20
9.791943
  0
VERTEX
  8
13
  6
CONTINUOUS
 10
103.388429
 20
9.802406
  0
VERTEX
  8
13
  6
CONTINUOUS
 10
103.359952
 20
9.828752
  0
VERTEX
  8
13
  6
CONTINUOUS
 10
103.325139
 20
9.859181
  0
VERTEX
  8
13
  6
CONTINUOUS
 10
103.286846
 20
9.890826
  0
VERTEX
  8
13
  6
CONTINUOUS
 10
103.251036
 20
9.918745
  0
VERTEX
  8
13
  6
CONTINUOUS
 10
103.200839
 20
9.955427
  0
VERTEX
  8
13
  6
CONTINUOUS
 10
103.134352
 20
9.999676
  0
VERTEX
  8
13
  6
CONTINUOUS
 10
103.093446
 20
10.024343
  0
SEQEND
  8
13
  6
CONTINUOUS
  0
POLYLINE
  8
13
  6
CONTINUOUS
 66
     1
  0
VERTEX
  8
13
  6
CONTINUOUS
 10
102.522746
 20
10.635283
  0
VERTEX
  8
13
  6
CONTINUOUS
 10
102.522746
 20
11.162246
  0
VERTEX
  8
13
  6
CONTINUOUS
 10
102.095046
 20
11.162246
  0
VERTEX
  8
13
  6
CONTINUOUS
 10
102.095046
 20
10.995122
  0
VERTEX
  8
13
  6
CONTINUOUS
 10
102.153689
 20
10.929235
  0
VERTEX
  8
13
  6
CONTINUOUS
 10
102.237359
 20
10.846559
  0
VERTEX
  8
13
  6
CONTINUOUS
 10
102.308389
 20
10.784730
  0
VERTEX
  8
13
  6
CONTINUOUS
 10
102.366624
 20
10.739274
  0
VERTEX
  8
13
  6
CONTINUOUS
 10
102.406322
 20
10.710064
  0
VERTEX
  8
13
  6
CONTINUOUS
 10
102.455827
 20
10.676682
  0
VERTEX
  8
13
  6
CONTINUOUS
 10
102.493954
 20
10.652515
  0
VERTEX
  8
13
  6
CONTINUOUS
 10
102.522746
 20
10.635283
  0
SEQEND
  8
13
  6
CONTINUOUS
  0
POLYLINE
  8
13
  6
CONTINUOUS
 66
     1
  0
VERTEX
  8
13
  6
CONTINUOUS
 10
103.021946
 20
10.443678
  0
VERTEX
  8
13
  6
CONTINUOUS
 10
103.021946
 20
11.162246
  0
VERTEX
  8
13
  6
CONTINUOUS
 10
102.594246
 20
11.162246
  0
VERTEX
  8
13
  6
CONTINUOUS
 10
102.594246
 20
10.595859
  0
VERTEX
  8
13
  6
CONTINUOUS
 10
102.663800
 20
10.561766
  0
VERTEX
  8
13
  6
CONTINUOUS
 10
102.744359
 20
10.527375
  0
VERTEX
  8
13
  6
CONTINUOUS
 10
102.812197
 20
10.501464
  0
VERTEX
  8
13
  6
CONTINUOUS
 10
102.889458
 20
10.476967
  0
VERTEX
  8
13
  6
CONTINUOUS
 10
102.950702
 20
10.460007
  0
VERTEX
  8
13
  6
CONTINUOUS
 10
103.021946
 20
10.443678
  0
SEQEND
  8
13
  6
CONTINUOUS
  0
POLYLINE
  8
13
  6
CONTINUOUS
 66
     1
  0
VERTEX
  8
13
  6
CONTINUOUS
 10
103.093446
 20
10.430307
  0
VERTEX
  8
13
  6
CONTINUOUS
 10
103.093446
 20
11.162246
  0
VERTEX
  8
13
  6
CONTINUOUS
 10
103.521146
 20
11.162246
  0
VERTEX
  8
13
  6
CONTINUOUS
 10
103.521146
 20
10.417580
  0
VERTEX
  8
13
  6
CONTINUOUS
 10
103.476372
 20
10.413637
  0
VERTEX
  8
13
  6
CONTINUOUS
 10
103.416577
 20
10.410480
  0
VERTEX
  8
13
  6
CONTINUOUS
 10
103.366788
 20
10.409453
  0
VERTEX
  8
13
  6
CONTINUOUS
 10
103.336830
 20
10.409453
  0
VERTEX
  8
13
  6
CONTINUOUS
 10
103.286182
 20
10.410821
  0
VERTEX
  8
13
  6
CONTINUOUS
 10
103.241261
 20
10.413321
  0
VERTEX
  8
13
  6
CONTINUOUS
 10
103.205545
 20
10.416539
  0
VERTEX
  8
13
  6
CONTINUOUS
 10
103.155349
 20
10.421044
  0
VERTEX
  8
13
  6
CONTINUOUS
 10
103.093446
 20
10.430307
  0
SEQEND
  8
13
  6
CONTINUOUS
  0
POLYLINE
  8
13
  6
CONTINUOUS
 66
     1
  0
VERTEX
  8
13
  6
CONTINUOUS
 10
102.522746
 20
9.498246
  0
VERTEX
  8
13
  6
CONTINUOUS
 10
102.594246
 20
9.498246
  0
VERTEX
  8
13
  6
CONTINUOUS
 10
102.594246
 20
11.162246
  0
VERTEX
  8
13
  6
CONTINUOUS
 10
102.522746
 20
11.162246
  0
VERTEX
  8
13
  6
CONTINUOUS
 10
102.522746
 20
9.498246
  0
VERTEX
  8
13
  6
CONTINUOUS
 10
102.594246
 20
9.498246
  0
SEQEND
  8
13
  6
CONTINUOUS
  0
POLYLINE
  8
13
  6
CONTINUOUS
 66
     1
  0
VERTEX
  8
13
  6
CONTINUOUS
 10
103.021946
 20
11.162246
  0
VERTEX
  8
13
  6
CONTINUOUS
 10
103.093446
 20
11.162246
  0
VERTEX
  8
13
  6
CONTINUOUS
 10
103.093446
 20
9.498246
  0
VERTEX
  8
13
  6
CONTINUOUS
 10
103.021946
 20
9.498246
  0
VERTEX
  8
13
  6
CONTINUOUS
 10
103.021946
 20
11.162246
  0
SEQEND
  8
13
  6
CONTINUOUS
  0
POLYLINE
  8
13
  6
CONTINUOUS
 66
     1
  0
VERTEX
  8
13
  6
CONTINUOUS
 10
103.521146
 20
9.498246
  0
VERTEX
  8
13
  6
CONTINUOUS
 10
103.635546
 20
9.498246
  0
VERTEX
  8
13
  6
CONTINUOUS
 10
103.635546
 20
11.162246
  0
VERTEX
  8
13
  6
CONTINUOUS
 10
103.521146
 20
11.162246
  0
VERTEX
  8
13
  6
CONTINUOUS
 10
103.521146
 20
9.498246
  0
SEQEND
  8
13
  6
CONTINUOUS
  0
LINE
  8
6
  6
CONTINUOUS
 10
107.924321
 20
3.000000
 11
107.924321
 21
2.000000
  0
LINE
  8
6
  6
CONTINUOUS
 10
101.700002
 20
2.000000
 11
114.124321
 21
2.000000
  0
LINE
  8
6
  6
CONTINUOUS
 10
114.124321
 20
3.000000
 11
114.124321
 21
1.000000
  0
LINE
  8
6
  6
CONTINUOUS
 10
101.700002
 20
8.600000
 11
118.000002
 21
8.600000
  0
LINE
  8
6
  6
CONTINUOUS
 10
101.700002
 20
8.600000
 11
101.700002
 21
11.300000
  0
LINE
  8
6
  6
CONTINUOUS
 10
101.700002
 20
11.300000
 11
118.000002
 21
11.300000
  0
LINE
  8
6
  6
CONTINUOUS
 10
101.700002
 20
11.400000
 11
118.000002
 21
11.400000
  0
LINE
  8
1
  6
CONTINUOUS
 10
101.700002
 20
19.200000
 11
118.000002
 21
19.200000
  0
LINE
  8
1
  6
CONTINUOUS
 10
102.200002
 20
19.200000
 11
118.000002
 21
19.200000
  0
LINE
  8
1
  6
CONTINUOUS
 10
102.200002
 20
19.200000
 11
118.000002
 21
19.200000
  0
LINE
  8
1
  6
CONTINUOUS
 10
101.700002
 20
19.700000
 11
118.000002
 21
19.700000
  0
LINE
  8
1
  6
CONTINUOUS
 10
102.200002
 20
19.700000
 11
118.000002
 21
19.700000
  0
LINE
  8
1
  6
CONTINUOUS
 10
102.200002
 20
19.700000
 11
118.000002
 21
19.700000
  0
LINE
  8
1
  6
CONTINUOUS
 10
101.700002
 20
20.200000
 11
118.000002
 21
20.200000
  0
LINE
  8
1
  6
CONTINUOUS
 10
102.200002
 20
20.200000
 11
118.000002
 21
20.200000
  0
LINE
  8
1
  6
CONTINUOUS
 10
102.200002
 20
20.200000
 11
118.000002
 21
20.200000
  0
LINE
  8
1
  6
CONTINUOUS
 10
101.700002
 20
20.700000
 11
118.000002
 21
20.700000
  0
LINE
  8
1
  6
CONTINUOUS
 10
102.200002
 20
20.700000
 11
118.000002
 21
20.700000
  0
LINE
  8
1
  6
CONTINUOUS
 10
102.200002
 20
20.700000
 11
118.000002
 21
20.700000
  0
LINE
  8
1
  6
CONTINUOUS
 10
101.700002
 20
21.200000
 11
118.000002
 21
21.200000
  0
LINE
  8
1
  6
CONTINUOUS
 10
102.200002
 20
21.200000
 11
118.000002
 21
21.200000
  0
LINE
  8
1
  6
CONTINUOUS
 10
102.200002
 20
21.200000
 11
118.000002
 21
21.200000
  0
LINE
  8
1
  6
CONTINUOUS
 10
101.700002
 20
21.700000
 11
118.000002
 21
21.700000
  0
LINE
  8
6
  6
CONTINUOUS
 10
110.708935
 20
11.300000
 11
110.708935
 21
8.600000
  0
TEXT
  8
1
  6
CONTINUOUS
 10
51.883763
 20
28.562028
 40
0.250000
 50
90.000000
  1
L4
  7
TQS_CALIBRI
  0
TEXT
  8
1
  6
CONTINUOUS
 10
57.251875
 20
28.019881
 40
0.250000
 50
90.000000
  1
L5
  7
TQS_CALIBRI
  0
TEXT
  8
1
  6
CONTINUOUS
 10
41.111679
 20
30.319207
 40
0.250000
 50
90.000000
  1
L3
  7
TQS_CALIBRI
  0
TEXT
  8
1
  6
CONTINUOUS
 10
25.443655
 20
30.876517
 40
0.250000
 50
90.000000
  1
L1
  7
TQS_CALIBRI
  0
TEXT
  8
1
  6
CONTINUOUS
 10
35.571172
 20
29.844413
 40
0.250000
 50
90.000000
  1
L2
  7
TQS_CALIBRI
  0
TEXT
  8
1
  6
CONTINUOUS
 10
77.474251
 20
15.909459
 40
0.250000
 50
90.000000
  1
P125
  7
TQS_CALIBRI
  0
TEXT
  8
1
  6
CONTINUOUS
 10
78.390226
 20
26.730419
 40
0.250000
 50
90.000000
  1
P126
  7
TQS_CALIBRI
  0
TEXT
  8
1
  6
CONTINUOUS
 10
79.266654
 20
37.084169
 40
0.250000
 50
90.000000
  1
P127
  7
TQS_CALIBRI
  0
TEXT
  8
1
  6
CONTINUOUS
 10
60.866976
 20
17.315232
 40
0.250000
 50
90.000000
  1
P119
  7
TQS_CALIBRI
  0
TEXT
  8
1
  6
CONTINUOUS
 10
61.956052
 20
28.205171
 40
0.250000
 50
90.000000
  1
P120
  7
TQS_CALIBRI
  0
TEXT
  8
1
  6
CONTINUOUS
 10
62.825452
 20
38.475885
 40
0.250000
 50
90.000000
  1
P121
  7
TQS_CALIBRI
  0
TEXT
  8
1
  6
CONTINUOUS
 10
44.231588
 20
18.360746
 40
0.250000
 50
90.000000
  1
P111
  7
TQS_CALIBRI
  0
TEXT
  8
1
  6
CONTINUOUS
 10
45.231902
 20
30.178143
 40
0.250000
 50
90.000000
  1
P113
  7
TQS_CALIBRI
  0
TEXT
  8
1
  6
CONTINUOUS
 10
46.108330
 20
40.531893
 40
0.250000
 50
90.000000
  1
P114
  7
TQS_CALIBRI
  0
TEXT
  8
1
  6
CONTINUOUS
 10
15.254524
 20
20.813572
 40
0.250000
 50
90.000000
  1
P99
  7
TQS_CALIBRI
  0
TEXT
  8
1
  6
CONTINUOUS
 10
16.254838
 20
32.630969
 40
0.250000
 50
90.000000
  1
P100
  7
TQS_CALIBRI
  0
TEXT
  8
1
  6
CONTINUOUS
 10
94.348271
 20
14.676915
 40
0.250000
 50
90.000000
  1
P131
  7
TQS_CALIBRI
  0
TEXT
  8
1
  6
CONTINUOUS
 10
95.219707
 20
24.972702
 40
0.250000
 50
90.000000
  1
P132
  7
TQS_CALIBRI
  0
TEXT
  8
1
  6
CONTINUOUS
 10
96.091205
 20
35.269217
 40
0.250000
 50
90.000000
  1
P133
  7
TQS_CALIBRI
  0
TEXT
  8
1
  6
CONTINUOUS
 10
13.292336
 20
10.943712
 40
0.250000
 50
90.000000
  1
P98
  7
TQS_CALIBRI
  0
TEXT
  8
1
  6
CONTINUOUS
 10
97.008667
 20
46.147818
 40
0.250000
 50
90.000000
  1
P134
  7
TQS_CALIBRI
  0
TEXT
  8
1
  6
CONTINUOUS
 10
87.177304
 20
46.923824
 40
0.250000
 50
90.000000
  1
P129
  7
TQS_CALIBRI
  0
TEXT
  8
1
  6
CONTINUOUS
 10
76.382564
 20
47.837439
 40
0.250000
 50
90.000000
  1
P124
  7
TQS_CALIBRI
  0
TEXT
  8
1
  6
CONTINUOUS
 10
67.248553
 20
48.610498
 40
0.250000
 50
90.000000
  1
P122
  7
TQS_CALIBRI
  0
TEXT
  8
1
  6
CONTINUOUS
 10
26.331092
 20
52.073569
 40
0.250000
 50
90.000000
  1
P104
  7
TQS_CALIBRI
  0
TEXT
  8
1
  6
CONTINUOUS
 10
16.746397
 20
52.884769
 40
0.250000
 50
90.000000
  1
P101
  7
TQS_CALIBRI
  0
TEXT
  8
1
  6
CONTINUOUS
 10
7.944540
 20
53.685925
 40
0.250000
 50
90.000000
  1
P97
  7
TQS_CALIBRI
  0
TEXT
  8
1
  6
CONTINUOUS
 10
6.097678
 20
21.525831
 40
0.250000
 50
90.000000
  1
P93
  7
TQS_CALIBRI
  0
TEXT
  8
1
  6
CONTINUOUS
 10
5.633280
 20
39.726838
 40
0.250000
 50
90.000000
  1
P95
  7
TQS_CALIBRI
  0
TEXT
  8
1
  6
CONTINUOUS
 10
5.657569
 20
52.143481
 40
0.250000
 50
90.000000
  1
P96
  7
TQS_CALIBRI
  0
TEXT
  8
1
  6
CONTINUOUS
 10
59.319809
 20
49.337779
 40
0.250000
 50
90.000000
  1
P117
  7
TQS_CALIBRI
  0
TEXT
  8
1
  6
CONTINUOUS
 10
20.807135
 20
10.307678
 40
0.250000
 50
90.000000
  1
P103
  7
TQS_CALIBRI
  0
TEXT
  8
1
  6
CONTINUOUS
 10
70.556338
 20
5.594858
 40
0.250000
 50
90.000000
  1
P123
  7
TQS_CALIBRI
  0
TEXT
  8
1
  6
CONTINUOUS
 10
80.520714
 20
4.751525
 40
0.250000
 50
90.000000
  1
P128
  7
TQS_CALIBRI
  0
TEXT
  8
1
  6
CONTINUOUS
 10
93.416882
 20
3.659763
 40
0.250000
 50
90.000000
  1
P130
  7
TQS_CALIBRI
  0
TEXT
  8
1
  6
CONTINUOUS
 10
35.797246
 20
51.328478
 40
0.250000
 50
90.000000
  1
P109
  7
TQS_CALIBRI
  0
TEXT
  8
1
  6
CONTINUOUS
 10
50.143710
 20
7.852821
 40
0.250000
 50
90.000000
  1
P115
  7
TQS_CALIBRI
  0
TEXT
  8
1
  6
CONTINUOUS
 10
30.848633
 20
19.382945
 40
0.250000
 50
90.000000
  1
P106
  7
TQS_CALIBRI
  0
TEXT
  8
1
  6
CONTINUOUS
 10
31.848796
 20
31.200354
 40
0.250000
 50
90.000000
  1
P107
  7
TQS_CALIBRI
  0
TEXT
  8
1
  6
CONTINUOUS
 10
32.481411
 20
38.675090
 40
0.250000
 50
90.000000
  1
P108
  7
TQS_CALIBRI
  0
TEXT
  8
1
  6
CONTINUOUS
 10
17.089099
 20
42.486523
 40
0.250000
 50
90.000000
  1
P102
  7
TQS_CALIBRI
  0
TEXT
  8
1
  6
CONTINUOUS
 10
60.497795
 20
6.446631
 40
0.250000
 50
90.000000
  1
P304
  7
TQS_CALIBRI
  0
TEXT
  8
1
  6
CONTINUOUS
 10
5.618022
 20
31.926853
 40
0.250000
 50
90.000000
  1
P302
  7
TQS_CALIBRI
  0
TEXT
  8
1
  6
CONTINUOUS
 10
60.008531
 20
6.989831
 40
0.250000
 50
90.000000
  1
P118
  7
TQS_CALIBRI
  0
TEXT
  8
1
  6
CONTINUOUS
 10
30.138523
 20
9.518256
 40
0.250000
 50
90.000000
  1
P105
  7
TQS_CALIBRI
  0
TEXT
  8
1
  6
CONTINUOUS
 10
5.598657
 20
22.060205
 40
0.250000
 50
90.000000
  1
P301
  7
TQS_CALIBRI
  0
TEXT
  8
1
  6
CONTINUOUS
 10
6.079720
 20
12.345377
 40
0.250000
 50
90.000000
  1
P92
  7
TQS_CALIBRI
  0
TEXT
  8
1
  6
CONTINUOUS
 10
39.905538
 20
8.719574
 40
0.250000
 50
90.000000
  1
P110
  7
TQS_CALIBRI
  0
TEXT
  8
4
  6
CONTINUOUS
 10
50.042348
 20
12.877245
 40
0.250000
 50
175.161906
  1
C34
  7
TQS_CALIBRI
  0
TEXT
  8
4
  6
CONTINUOUS
 10
50.115443
 20
13.740823
 40
0.250000
 50
175.161906
  1
C35
  7
TQS_CALIBRI
  0
TEXT
  8
4
  6
CONTINUOUS
 10
50.188538
 20
14.604402
 40
0.250000
 50
175.161906
  1
C36
  7
TQS_CALIBRI
  0
TEXT
  8
4
  6
CONTINUOUS
 10
50.261633
 20
15.467981
 40
0.250000
 50
175.161906
  1
C37
  7
TQS_CALIBRI
  0
TEXT
  8
4
  6
CONTINUOUS
 10
50.334728
 20
16.331560
 40
0.250000
 50
175.161906
  1
C38
  7
TQS_CALIBRI
  0
TEXT
  8
4
  6
CONTINUOUS
 10
50.407823
 20
17.195138
 40
0.250000
 50
175.161906
  1
C39
  7
TQS_CALIBRI
  0
TEXT
  8
4
  6
CONTINUOUS
 10
50.480918
 20
18.058717
 40
0.250000
 50
175.161906
  1
C40
  7
TQS_CALIBRI
  0
TEXT
  8
4
  6
CONTINUOUS
 10
50.554013
 20
18.922296
 40
0.250000
 50
175.161906
  1
C41
  7
TQS_CALIBRI
  0
TEXT
  8
4
  6
CONTINUOUS
 10
50.627108
 20
19.785875
 40
0.250000
 50
175.161906
  1
C42
  7
TQS_CALIBRI
  0
TEXT
  8
4
  6
CONTINUOUS
 10
50.700203
 20
20.649453
 40
0.250000
 50
175.161906
  1
C43
  7
TQS_CALIBRI
  0
TEXT
  8
4
  6
CONTINUOUS
 10
50.773298
 20
21.513032
 40
0.250000
 50
175.161906
  1
C44
  7
TQS_CALIBRI
  0
TEXT
  8
4
  6
CONTINUOUS
 10
50.846393
 20
22.376611
 40
0.250000
 50
175.161906
  1
C45
  7
TQS_CALIBRI
  0
TEXT
  8
4
  6
CONTINUOUS
 10
49.969557
 20
8.394464
 40
0.250000
 50
175.161909
  1
C31
  7
TQS_CALIBRI
  0
TEXT
  8
4
  6
CONTINUOUS
 10
50.101690
 20
9.955549
 40
0.250000
 50
175.161909
  1
C32
  7
TQS_CALIBRI
  0
TEXT
  8
4
  6
CONTINUOUS
 10
50.233823
 20
11.516633
 40
0.250000
 50
175.161909
  1
C33
  7
TQS_CALIBRI
  0
TEXT
  8
4
  6
CONTINUOUS
 10
50.238337
 20
23.494838
 40
0.250000
 50
175.161901
  1
C46
  7
TQS_CALIBRI
  0
TEXT
  8
4
  6
CONTINUOUS
 10
50.311432
 20
24.358417
 40
0.250000
 50
175.161901
  1
C47
  7
TQS_CALIBRI
  0
TEXT
  8
4
  6
CONTINUOUS
 10
50.384528
 20
25.221996
 40
0.250000
 50
175.161901
  1
C48
  7
TQS_CALIBRI
  0
TEXT
  8
4
  6
CONTINUOUS
 10
50.457623
 20
26.085574
 40
0.250000
 50
175.161901
  1
C49
  7
TQS_CALIBRI
  0
TEXT
  8
4
  6
CONTINUOUS
 10
50.530718
 20
26.949153
 40
0.250000
 50
175.161901
  1
C50
  7
TQS_CALIBRI
  0
TEXT
  8
4
  6
CONTINUOUS
 10
50.603813
 20
27.812732
 40
0.250000
 50
175.161901
  1
C51
  7
TQS_CALIBRI
  0
TEXT
  8
4
  6
CONTINUOUS
 10
50.676908
 20
28.676311
 40
0.250000
 50
175.161901
  1
C52
  7
TQS_CALIBRI
  0
TEXT
  8
4
  6
CONTINUOUS
 10
50.750003
 20
29.539889
 40
0.250000
 50
175.161901
  1
C53
  7
TQS_CALIBRI
  0
TEXT
  8
4
  6
CONTINUOUS
 10
50.823098
 20
30.403468
 40
0.250000
 50
175.161901
  1
C54
  7
TQS_CALIBRI
  0
TEXT
  8
4
  6
CONTINUOUS
 10
50.896193
 20
31.267047
 40
0.250000
 50
175.161901
  1
C55
  7
TQS_CALIBRI
  0
TEXT
  8
4
  6
CONTINUOUS
 10
50.969288
 20
32.130626
 40
0.250000
 50
175.161901
  1
C56
  7
TQS_CALIBRI
  0
TEXT
  8
4
  6
CONTINUOUS
 10
51.042383
 20
32.994204
 40
0.250000
 50
175.161901
  1
C57
  7
TQS_CALIBRI
  0
TEXT
  8
4
  6
CONTINUOUS
 10
50.687610
 20
34.021345
 40
0.250000
 50
175.161897
  1
C58
  7
TQS_CALIBRI
  0
TEXT
  8
4
  6
CONTINUOUS
 10
50.762111
 20
34.901531
 40
0.250000
 50
175.161897
  1
C59
  7
TQS_CALIBRI
  0
TEXT
  8
4
  6
CONTINUOUS
 10
50.836611
 20
35.781717
 40
0.250000
 50
175.161897
  1
C60
  7
TQS_CALIBRI
  0
TEXT
  8
4
  6
CONTINUOUS
 10
50.911112
 20
36.661903
 40
0.250000
 50
175.161897
  1
C61
  7
TQS_CALIBRI
  0
TEXT
  8
4
  6
CONTINUOUS
 10
50.985613
 20
37.542089
 40
0.250000
 50
175.161897
  1
C62
  7
TQS_CALIBRI
  0
TEXT
  8
4
  6
CONTINUOUS
 10
51.060114
 20
38.422275
 40
0.250000
 50
175.161897
  1
C63
  7
TQS_CALIBRI
  0
TEXT
  8
4
  6
CONTINUOUS
 10
51.134615
 20
39.302461
 40
0.250000
 50
175.161897
  1
C64
  7
TQS_CALIBRI
  0
TEXT
  8
4
  6
CONTINUOUS
 10
51.209115
 20
40.182647
 40
0.250000
 50
175.161897
  1
C65
  7
TQS_CALIBRI
  0
TEXT
  8
4
  6
CONTINUOUS
 10
51.283616
 20
41.062833
 40
0.250000
 50
175.161897
  1
C66
  7
TQS_CALIBRI
  0
TEXT
  8
4
  6
CONTINUOUS
 10
51.358117
 20
41.943019
 40
0.250000
 50
175.161897
  1
C67
  7
TQS_CALIBRI
  0
TEXT
  8
4
  6
CONTINUOUS
 10
51.432618
 20
42.823205
 40
0.250000
 50
175.161897
  1
C68
  7
TQS_CALIBRI
  0
TEXT
  8
4
  6
CONTINUOUS
 10
51.507118
 20
43.703391
 40
0.250000
 50
175.161897
  1
C69
  7
TQS_CALIBRI
  0
TEXT
  8
4
  6
CONTINUOUS
 10
51.298940
 20
45.037617
 40
0.250000
 50
175.161895
  1
C70
  7
TQS_CALIBRI
  0
TEXT
  8
4
  6
CONTINUOUS
 10
51.438102
 20
46.681738
 40
0.250000
 50
175.161895
  1
C71
  7
TQS_CALIBRI
  0
TEXT
  8
4
  6
CONTINUOUS
 10
51.577264
 20
48.325859
 40
0.250000
 50
175.161895
  1
C72
  7
TQS_CALIBRI
  0
TEXT
  8
1
  6
CONTINUOUS
 10
6.515782
 20
78.893840
 40
0.220000
  1
CABO
  7
TQS_CALIBRI
  0
TEXT
  8
1
  6
CONTINUOUS
 10
13.580263
 20
79.183840
 40
0.220000
  1
COMPRIMENTO
  7
TQS_CALIBRI
  0
TEXT
  8
1
  6
CONTINUOUS
 10
16.574569
 20
78.683840
 40
0.220000
  1
TOTAL
  7
TQS_CALIBRI
  0
TEXT
  8
1
  6
CONTINUOUS
 10
19.404923
 20
78.683840
 40
0.220000
  1
A
  7
TQS_CALIBRI
  0
TEXT
  8
1
  6
CONTINUOUS
 10
20.449739
 20
78.683840
 40
0.220000
  1
P
  7
TQS_CALIBRI
  0
TEXT
  8
1
  6
CONTINUOUS
 10
21.494555
 20
78.683840
 40
0.220000
  1
I
  7
TQS_CALIBRI
  0
TEXT
  8
1
  6
CONTINUOUS
 10
19.422236
 20
79.183840
 40
0.220000
  1
ANCORAGENS
  7
TQS_CALIBRI
  0
TEXT
  8
1
  6
CONTINUOUS
 10
10.974743
 20
78.893840
 40
0.220000
  1
Q
  7
TQS_CALIBRI
  0
TEXT
  8
1
  6
CONTINUOUS
 10
7.674404
 20
79.843840
 40
0.400000
  1
PROTENSÃO: AÇO
  7
TQS_CALIBRI
  0
TEXT
  8
1
  6
CONTINUOUS
 10
12.993133
 20
78.683840
 40
0.220000
  1
UNITÁRIO
  7
TQS_CALIBRI
  0
TEXT
  8
1
  6
CONTINUOUS
 10
22.449618
 20
78.683840
 40
0.220000
  1
INI
  7
TQS_CALIBRI
  0
TEXT
  8
1
  6
CONTINUOUS
 10
24.016842
 20
78.683840
 40
0.220000
  1
FIN
  7
TQS_CALIBRI
  0
TEXT
  8
1
  6
CONTINUOUS
 10
8.903994
 20
78.896059
 40
0.220000
  1
%%c
  7
TQS_CALIBRI
  0
TEXT
  8
1
  6
CONTINUOUS
 10
22.543384
 20
79.183840
 40
0.220000
  1
ALONG
  7
TQS_CALIBRI
  0
TEXT
  8
1
  6
CONTINUOUS
 10
14.002634
 20
79.843840
 40
0.400000
  1
CP190 RB 12.7 - 12.7
  7
TQS_CALIBRI
  0
TEXT
  8
1
  6
CONTINUOUS
 10
9.189142
 20
78.896059
 40
0.220000
  1
(mm)
  7
TQS_CALIBRI
  0
TEXT
  8
1
  6
CONTINUOUS
 10
16.240339
 20
79.183840
 40
0.220000
  1
(m)
  7
TQS_CALIBRI
  0
TEXT
  8
1
  6
CONTINUOUS
 10
23.730880
 20
79.183840
 40
0.220000
  1
(mm)
  7
TQS_CALIBRI
  0
TEXT
  8
1
  6
CONTINUOUS
 10
6.161204
 20
78.183840
 40
0.220000
  1
C31 A C33
  7
TQS_CALIBRI
  0
TEXT
  8
1
  6
CONTINUOUS
 10
8.514685
 20
78.183840
 40
0.220000
  1
2 %%c 12.7
  7
TQS_CALIBRI
  0
TEXT
  8
1
  6
CONTINUOUS
 10
10.729082
 20
78.183840
 40
0.220000
  1
3
  7
TQS_CALIBRI
  0
TEXT
  8
1
  6
CONTINUOUS
 10
12.965665
 20
78.183840
 40
0.220000
  1
54.2
  7
TQS_CALIBRI
  0
TEXT
  8
1
  6
CONTINUOUS
 10
16.242498
 20
78.183840
 40
0.220000
  1
325.3
  7
TQS_CALIBRI
  0
TEXT
  8
1
  6
CONTINUOUS
 10
19.220470
 20
78.183840
 40
0.220000
  1
6
  7
TQS_CALIBRI
  0
TEXT
  8
1
  6
CONTINUOUS
 10
20.265286
 20
78.183840
 40
0.220000
  1
6
  7
TQS_CALIBRI
  0
TEXT
  8
1
  6
CONTINUOUS
 10
22.302109
 20
78.183840
 40
0.220000
  1
0
  7
TQS_CALIBRI
  0
TEXT
  8
1
  6
CONTINUOUS
 10
23.869333
 20
78.183840
 40
0.220000
  1
360
  7
TQS_CALIBRI
  0
TEXT
  8
1
  6
CONTINUOUS
 10
6.161204
 20
77.683839
 40
0.220000
  1
C34 A C45
  7
TQS_CALIBRI
  0
TEXT
  8
1
  6
CONTINUOUS
 10
8.514685
 20
77.683839
 40
0.220000
  1
3 %%c 12.7
  7
TQS_CALIBRI
  0
TEXT
  8
1
  6
CONTINUOUS
 10
10.729082
 20
77.683839
 40
0.220000
  1
12
  7
TQS_CALIBRI
  0
TEXT
  8
1
  6
CONTINUOUS
 10
12.965665
 20
77.683839
 40
0.220000
  1
54.6
  7
TQS_CALIBRI
  0
TEXT
  8
1
  6
CONTINUOUS
 10
16.242498
 20
77.683839
 40
0.220000
  1
1965.1
  7
TQS_CALIBRI
  0
TEXT
  8
1
  6
CONTINUOUS
 10
19.220470
 20
77.683839
 40
0.220000
  1
36
  7
TQS_CALIBRI
  0
TEXT
  8
1
  6
CONTINUOUS
 10
20.265286
 20
77.683839
 40
0.220000
  1
36
  7
TQS_CALIBRI
  0
TEXT
  8
1
  6
CONTINUOUS
 10
22.302109
 20
77.683839
 40
0.220000
  1
0
  7
TQS_CALIBRI
  0
TEXT
  8
1
  6
CONTINUOUS
 10
23.869333
 20
77.683839
 40
0.220000
  1
354
  7
TQS_CALIBRI
  0
TEXT
  8
1
  6
CONTINUOUS
 10
6.161204
 20
77.183838
 40
0.220000
  1
C46 A C57
  7
TQS_CALIBRI
  0
TEXT
  8
1
  6
CONTINUOUS
 10
8.514685
 20
77.183838
 40
0.220000
  1
   "
  7
TQS_CALIBRI
  0
TEXT
  8
1
  6
CONTINUOUS
 10
10.729082
 20
77.183838
 40
0.220000
  1
12
  7
TQS_CALIBRI
  0
TEXT
  8
1
  6
CONTINUOUS
 10
12.965665
 20
77.183838
 40
0.220000
  1
55.4
  7
TQS_CALIBRI
  0
TEXT
  8
1
  6
CONTINUOUS
 10
16.242498
 20
77.183838
 40
0.220000
  1
1995.4
  7
TQS_CALIBRI
  0
TEXT
  8
1
  6
CONTINUOUS
 10
19.220470
 20
77.183838
 40
0.220000
  1
36
  7
TQS_CALIBRI
  0
TEXT
  8
1
  6
CONTINUOUS
 10
20.265286
 20
77.183838
 40
0.220000
  1
36
  7
TQS_CALIBRI
  0
TEXT
  8
1
  6
CONTINUOUS
 10
22.302109
 20
77.183838
 40
0.220000
  1
0
  7
TQS_CALIBRI
  0
TEXT
  8
1
  6
CONTINUOUS
 10
23.869333
 20
77.183838
 40
0.220000
  1
359
  7
TQS_CALIBRI
  0
TEXT
  8
1
  6
CONTINUOUS
 10
6.161204
 20
76.683837
 40
0.220000
  1
C58 A C69
  7
TQS_CALIBRI
  0
TEXT
  8
1
  6
CONTINUOUS
 10
8.514685
 20
76.683837
 40
0.220000
  1
   "
  7
TQS_CALIBRI
  0
TEXT
  8
1
  6
CONTINUOUS
 10
10.729082
 20
76.683837
 40
0.220000
  1
12
  7
TQS_CALIBRI
  0
TEXT
  8
1
  6
CONTINUOUS
 10
12.965665
 20
76.683837
 40
0.220000
  1
56
  7
TQS_CALIBRI
  0
TEXT
  8
1
  6
CONTINUOUS
 10
16.242498
 20
76.683837
 40
0.220000
  1
2014.4
  7
TQS_CALIBRI
  0
TEXT
  8
1
  6
CONTINUOUS
 10
19.220470
 20
76.683837
 40
0.220000
  1
36
  7
TQS_CALIBRI
  0
TEXT
  8
1
  6
CONTINUOUS
 10
20.265286
 20
76.683837
 40
0.220000
  1
36
  7
TQS_CALIBRI
  0
TEXT
  8
1
  6
CONTINUOUS
 10
22.302109
 20
76.683837
 40
0.220000
  1
0
  7
TQS_CALIBRI
  0
TEXT
  8
1
  6
CONTINUOUS
 10
23.869333
 20
76.683837
 40
0.220000
  1
361
  7
TQS_CALIBRI
  0
TEXT
  8
1
  6
CONTINUOUS
 10
6.161204
 20
76.183837
 40
0.220000
  1
C70 A C72
  7
TQS_CALIBRI
  0
TEXT
  8
1
  6
CONTINUOUS
 10
8.514685
 20
76.183837
 40
0.220000
  1
2 %%c 12.7
  7
TQS_CALIBRI
  0
TEXT
  8
1
  6
CONTINUOUS
 10
10.729082
 20
76.183837
 40
0.220000
  1
3
  7
TQS_CALIBRI
  0
TEXT
  8
1
  6
CONTINUOUS
 10
12.965665
 20
76.183837
 40
0.220000
  1
56.3
  7
TQS_CALIBRI
  0
TEXT
  8
1
  6
CONTINUOUS
 10
16.242498
 20
76.183837
 40
0.220000
  1
338
  7
TQS_CALIBRI
  0
TEXT
  8
1
  6
CONTINUOUS
 10
19.220470
 20
76.183837
 40
0.220000
  1
6
  7
TQS_CALIBRI
  0
TEXT
  8
1
  6
CONTINUOUS
 10
20.265286
 20
76.183837
 40
0.220000
  1
6
  7
TQS_CALIBRI
  0
TEXT
  8
1
  6
CONTINUOUS
 10
22.302109
 20
76.183837
 40
0.220000
  1
0
  7
TQS_CALIBRI
  0
TEXT
  8
1
  6
CONTINUOUS
 10
23.869333
 20
76.183837
 40
0.220000
  1
371
  7
TQS_CALIBRI
  0
TEXT
  8
1
  6
CONTINUOUS
 10
6.647345
 20
73.183836
 40
0.220000
  1
%%c
  7
TQS_CALIBRI
  0
TEXT
  8
1
  6
CONTINUOUS
 10
10.220883
 20
73.683836
 40
0.220000
  1
CABO
  7
TQS_CALIBRI
  0
TEXT
  8
1
  6
CONTINUOUS
 10
16.405443
 20
72.933837
 40
0.220000
  1
A
  7
TQS_CALIBRI
  0
TEXT
  8
1
  6
CONTINUOUS
 10
17.450258
 20
72.933837
 40
0.220000
  1
P
  7
TQS_CALIBRI
  0
TEXT
  8
1
  6
CONTINUOUS
 10
18.495075
 20
72.933837
 40
0.220000
  1
I
  7
TQS_CALIBRI
  0
TEXT
  8
1
  6
CONTINUOUS
 10
12.716642
 20
73.183836
 40
0.220000
  1
PESO
  7
TQS_CALIBRI
  0
TEXT
  8
1
  6
CONTINUOUS
 10
16.475622
 20
73.683836
 40
0.220000
  1
ANCORAGENS
  7
TQS_CALIBRI
  0
TEXT
  8
1
  6
CONTINUOUS
 10
8.554402
 20
74.767169
 40
0.400000
  1
RESUMO DE PROTENSÃO
  7
TQS_CALIBRI
  0
TEXT
  8
1
  6
CONTINUOUS
 10
8.092539
 20
74.204469
 40
0.300000
  1
Monocordoalhas não aderentes
  7
TQS_CALIBRI
  0
TEXT
  8
1
  6
CONTINUOUS
 10
8.483640
 20
73.183836
 40
0.220000
  1
COMPR
  7
TQS_CALIBRI
  0
TEXT
  8
1
  6
CONTINUOUS
 10
10.333428
 20
72.683837
 40
0.220000
  1
kgf/m
  7
TQS_CALIBRI
  0
TEXT
  8
1
  6
CONTINUOUS
 10
12.485205
 20
72.683837
 40
0.220000
  1
kgf
  7
TQS_CALIBRI
  0
TEXT
  8
1
  6
CONTINUOUS
 10
14.299597
 20
72.683837
 40
0.220000
  1
kgf+4%
  7
TQS_CALIBRI
  0
TEXT
  8
1
  6
CONTINUOUS
 10
8.488186
 20
72.683837
 40
0.220000
  1
m
  7
TQS_CALIBRI
  0
TEXT
  8
1
  6
CONTINUOUS
 10
6.625725
 20
72.683837
 40
0.220000
  1
mm
  7
TQS_CALIBRI
  0
TEXT
  8
1
  6
CONTINUOUS
 10
8.213502
 20
72.183836
 40
0.220000
  1
663
  7
TQS_CALIBRI
  0
TEXT
  8
1
  6
CONTINUOUS
 10
17.259099
 20
72.183836
 40
0.220000
  1
12
  7
TQS_CALIBRI
  0
TEXT
  8
1
  6
CONTINUOUS
 10
16.214282
 20
72.183836
 40
0.220000
  1
12
  7
TQS_CALIBRI
  0
TEXT
  8
1
  6
CONTINUOUS
 10
10.333428
 20
72.183836
 40
0.220000
  1
0.886
  7
TQS_CALIBRI
  0
TEXT
  8
1
  6
CONTINUOUS
 10
11.922757
 20
72.183836
 40
0.220000
  1
588
  7
TQS_CALIBRI
  0
TEXT
  8
1
  6
CONTINUOUS
 10
13.982755
 20
72.183836
 40
0.220000
  1
611
  7
TQS_CALIBRI
  0
TEXT
  8
1
  6
CONTINUOUS
 10
6.025569
 20
72.183836
 40
0.220000
  1
2 %%c 12.7
  7
TQS_CALIBRI
  0
TEXT
  8
1
  6
CONTINUOUS
 10
8.213502
 20
71.683835
 40
0.220000
  1
5975
  7
TQS_CALIBRI
  0
TEXT
  8
1
  6
CONTINUOUS
 10
17.259099
 20
71.683835
 40
0.220000
  1
108
  7
TQS_CALIBRI
  0
TEXT
  8
1
  6
CONTINUOUS
 10
16.214282
 20
71.683835
 40
0.220000
  1
108
  7
TQS_CALIBRI
  0
TEXT
  8
1
  6
CONTINUOUS
 10
10.333428
 20
71.683835
 40
0.220000
  1
0.886
  7
TQS_CALIBRI
  0
TEXT
  8
1
  6
CONTINUOUS
 10
11.922757
 20
71.683835
 40
0.220000
  1
5294
  7
TQS_CALIBRI
  0
TEXT
  8
1
  6
CONTINUOUS
 10
13.982755
 20
71.683835
 40
0.220000
  1
5505
  7
TQS_CALIBRI
  0
TEXT
  8
1
  6
CONTINUOUS
 10
6.025569
 20
71.683835
 40
0.220000
  1
3 %%c 12.7
  7
TQS_CALIBRI
  0
TEXT
  8
1
  6
CONTINUOUS
 10
101.932386
 20
23.396411
 40
0.350000
  1
NOTAS:
  7
TQS_CALIBRI
  0
TEXT
  8
2
  6
CONTINUOUS
 10
101.965840
 20
22.812661
 40
0.240000
  1
1) CONFERIR INFORMAÇÕES DA TABELA ACIMA (TABELA DE FERRERAGEM) NA OBRA
  7
TQS_CALIBRI
  0
TEXT
  8
2
  6
CONTINUOUS
 10
101.965840
 20
22.343353
 40
0.240000
  1
ANTES DA COMPRA DAS ARMADURAS.
  7
TQS_CALIBRI
  0
TEXT
  8
1
  6
CONTINUOUS
 10
102.073109
 20
8.835799
 40
0.455000
  1
ENGENHARIA
  7
TQS_CALIBRI
  0
TEXT
  8
1
  6
CONTINUOUS
 10
101.876737
 20
16.222571
 40
0.250000
  1
REV
  7
TQS_CALIBRI
  0
TEXT
  8
1
  6
CONTINUOUS
 10
103.356169
 20
16.222571
 40
0.250000
  1
DATA
  7
TQS_CALIBRI
  0
TEXT
  8
1
  6
CONTINUOUS
 10
105.030516
 20
16.222571
 40
0.250000
  1
ASSUNTO
  7
TQS_CALIBRI
  0
TEXT
  8
1
  6
CONTINUOUS
 10
101.832253
 20
14.047181
 40
0.250000
  1
PROPRIETÁRIO - 
  7
TQS_CALIBRI
  0
TEXT
  8
1
  6
CONTINUOUS
 10
108.042444
 20
2.579059
 40
0.250000
  1
ENGENHEIRO:
  7
TQS_CALIBRI
  0
TEXT
  8
1
  6
CONTINUOUS
 10
108.046365
 20
2.149652
 40
0.250000
  1
CREA REG.:
  7
TQS_CALIBRI
  0
TEXT
  8
1
  6
CONTINUOUS
 10
110.430567
 20
2.160333
 40
0.250000
  1
020930945-8
  7
TQS_CALIBRI
  0
TEXT
  8
1
  6
CONTINUOUS
 10
103.739739
 20
9.759850
 40
1.000000
  1
VGF
  7
TQS_CALIBRI
  0
TEXT
  8
1
  6
CONTINUOUS
 10
101.832253
 20
12.147181
 40
0.250000
  1
PROJETO              Eng. Civil - CREA:020930945-8
  7
TQS_CALIBRI
  0
TEXT
  8
1
  6
CONTINUOUS
 10
101.800510
 20
2.752624
 40
0.150000
  1
DATA:
  7
TQS_CALIBRI
  0
TEXT
  8
1
  6
CONTINUOUS
 10
101.788178
 20
1.752624
 40
0.150000
  1
FASE:
  7
TQS_CALIBRI
  0
TEXT
  8
1
  6
CONTINUOUS
 10
105.124829
 20
2.752624
 40
0.150000
  1
ESCALA:
  7
TQS_CALIBRI
  0
TEXT
  8
1
  6
CONTINUOUS
 10
105.112497
 20
1.752624
 40
0.150000
  1
PLANTA:
  7
TQS_CALIBRI
  0
TEXT
  8
1
  6
CONTINUOUS
 10
101.800510
 20
6.352624
 40
0.150000
  1
TÍTULO:
  7
TQS_CALIBRI
  0
TEXT
  8
1
  6
CONTINUOUS
 10
101.787482
 20
5.577767
 40
0.150000
  1
ELEMENTOS DA PRANCHA:
  7
TQS_CALIBRI
  0
TEXT
  8
1
  6
CONTINUOUS
 10
101.800510
 20
8.252624
 40
0.150000
  1
EMPREENDIMENTO/LOCAL:
  7
TQS_CALIBRI
  0
TEXT
  8
1
  6
CONTINUOUS
 10
106.761120
 20
11.025301
 40
0.150000
  1
CONTATOS:
  7
TQS_CALIBRI
  0
TEXT
  8
1
  6
CONTINUOUS
 10
114.224829
 20
2.752624
 40
0.150000
  1
PLANTA-REVISÃO:
  7
TQS_CALIBRI
  0
TEXT
  8
1
  6
CONTINUOUS
 10
102.041441
 20
16.843956
 40
0.200000
  1
00
  7
TQS_CALIBRI
  0
TEXT
  8
1
  6
CONTINUOUS
 10
102.041441
 20
17.343956
 40
0.200000
  1
01
  7
TQS_CALIBRI
  0
TEXT
  8
1
  6
CONTINUOUS
 10
102.041441
 20
17.843956
 40
0.200000
  1
02
  7
TQS_CALIBRI
  0
TEXT
  8
1
  6
CONTINUOUS
 10
102.041441
 20
18.343956
 40
0.200000
  1
03
  7
TQS_CALIBRI
  0
TEXT
  8
1
  6
CONTINUOUS
 10
102.041441
 20
18.843956
 40
0.200000
  1
04
  7
TQS_CALIBRI
  0
TEXT
  8
1
  6
CONTINUOUS
 10
102.041441
 20
19.343956
 40
0.200000
  1
05
  7
TQS_CALIBRI
  0
TEXT
  8
1
  6
CONTINUOUS
 10
102.041441
 20
19.843956
 40
0.200000
  1
06
  7
TQS_CALIBRI
  0
TEXT
  8
1
  6
CONTINUOUS
 10
102.041441
 20
20.343956
 40
0.200000
  1
07
  7
TQS_CALIBRI
  0
TEXT
  8
1
  6
CONTINUOUS
 10
102.041441
 20
20.843956
 40
0.200000
  1
08
  7
TQS_CALIBRI
  0
TEXT
  8
1
  6
CONTINUOUS
 10
102.041441
 20
21.343956
 40
0.200000
  1
09
  7
TQS_CALIBRI
  0
TEXT
  8
1
  6
CONTINUOUS
 10
102.041441
 20
21.843956
 40
0.200000
  1
10
  7
TQS_CALIBRI
  0
TEXT
  8
1
  6
CONTINUOUS
 10
116.437973
 20
16.222571
 40
0.250000
  1
AUTOR
  7
TQS_CALIBRI
  0
TEXT
  8
1
  6
CONTINUOUS
 10
106.749019
 20
10.335784
 40
0.195000
  1
Tel: 99928-2128
  7
TQS_CALIBRI
  0
TEXT
  8
1
  6
CONTINUOUS
 10
106.749019
 20
10.012284
 40
0.195000
  1
franciscogonca@hotmail.com 
  7
TQS_CALIBRI
  0
TEXT
  8
1
  6
CONTINUOUS
 10
106.749019
 20
9.680784
 40
0.195000
  1
Tel: 99981-6458
  7
TQS_CALIBRI
  0
TEXT
  8
1
  6
CONTINUOUS
 10
106.749019
 20
9.357284
 40
0.195000
  1
tiago@vgfengenharia.com.br 
  7
TQS_CALIBRI
  0
TEXT
  8
1
  6
CONTINUOUS
 10
106.749019
 20
9.025784
 40
0.195000
  1
Tel: 99912-8379
  7
TQS_CALIBRI
  0
TEXT
  8
1
  6
CONTINUOUS
 10
110.809443
 20
11.052624
 40
0.150000
  1
CLIENTE:
  7
TQS_CALIBRI
  0
TEXT
  8
1
  6
CONTINUOUS
 10
116.009770
 20
1.647683
 40
0.500000
  1
-R
  7
TQS_CALIBRI
  0
TEXT
  8
1
  6
CONTINUOUS
 10
101.832253
 20
12.547181
 40
0.250000
  1
RESPONSÁVEL -  Diego de Vasconcelos Gonçalves Ferreira
  7
TQS_CALIBRI
  0
TEXT
  8
1
  6
CONTINUOUS
 10
110.422141
 20
2.578345
 40
0.250000
  1
Diego Vasconcelos
  7
TQS_CALIBRI
  0
TEXT
  8
1
  6
CONTINUOUS
 10
106.749019
 20
10.667284
 40
0.195000
  1
diego@vgfengenharia.com.br 
  7
TQS_CALIBRI
  0
TEXT
  8
1
  6
CONTINUOUS
 10
104.982892
 20
16.853163
 40
0.200000
  1
Emissão inicial.
  7
TQS_CALIBRI
  0
TEXT
  8
1
  6
CONTINUOUS
 10
101.795719
 20
7.825700
 40
0.250000
  1
Assembléia Legislativa de Alagoas
  7
TQS_CALIBRI
  0
TEXT
  8
1
  6
CONTINUOUS
 10
104.517953
 20
14.045361
 40
0.250000
  1
ALA
  7
TQS_CALIBRI
  0
TEXT
  8
1
  6
CONTINUOUS
 10
101.789281
 20
2.263237
 40
0.250000
  1
27/02/2024
  7
TQS_CALIBRI
  0
TEXT
  8
1
  6
CONTINUOUS
 10
102.992347
 20
16.854551
 40
0.200000
  1
27/02/24
  7
TQS_CALIBRI
  0
TEXT
  8
1
  6
CONTINUOUS
 10
101.787954
 20
7.415393
 40
0.200000
  1
RUA SÁ E ALBUQUERQUE, NÚMERO 807, JARAGUÁ - MACEIÓ-AL
  7
TQS_CALIBRI
  0
TEXT
  8
1
  6
CONTINUOUS
 10
101.789859
 20
1.251887
 40
0.250000
  1
PE
  7
TQS_CALIBRI
  0
TEXT
  8
1
  6
CONTINUOUS
 10
105.114178
 20
1.251887
 40
0.250000
  1
CLA-EEM-EST-PE-0637-ARM-R00
  7
TQS_CALIBRI
  0
TEXT
  8
1
  6
CONTINUOUS
 10
116.547332
 20
16.842370
 40
0.200000
  1
DIEGO
  7
TQS_CALIBRI
  0
TEXT
  8
1
  6
CONTINUOUS
 10
114.396264
 20
1.644018
 40
0.500000
  1
0637
  7
TQS_CALIBRI
  0
TEXT
  8
1
  6
CONTINUOUS
 10
116.689770
 20
1.647683
 40
0.500000
  1
00
  7
TQS_CALIBRI
  0
TEXT
  8
1
  6
CONTINUOUS
 10
110.802729
 20
10.513659
 40
0.400000
  1
ALA
  7
TQS_CALIBRI
  0
TEXT
  8
1
  6
CONTINUOUS
 10
101.762319
 20
5.951739
 40
0.250000
  1
ARM. PROTENSÃO VERTICAL (05-Rooftop) - 01 - J
  7
TQS_CALIBRI
  0
ENDSEC
  0
EOF
