  0
SECTION
  2
HEADER
  9
$ACADVER
  1
AC1002
  9
$USERI1
 70
0
  9
$INSBASE
 10
0.000000
 20
0.000000
  9
$EXTMIN
 10
0.000000
 20
0.000000
  9
$EXTMAX
 10
7.761771
 20
4.436620
  9
$LIMMIN
 10
0.000000
 20
0.000000
  9
$LIMMAX
 10
12.000000
 20
9.000000
  9
$VIEWCTR
 10
78.887138
 20
59.361758
  9
$VIEWSIZE
 40
127.522840
  9
$TEXTSIZE
 40
0.100000
  9
$TRACEWID
 40
0.010000
  9
$LTSCALE
 40
1.000000
  0
ENDSEC
  0
SECTION
  2
TABLES
  0
TABLE
  2
LTYPE
 70
     3
  0
LTYPE
  2
CONTINUOUS
 70
    64
  3
Solid line
 72
    65
 73
     0
 40
0.000000
  0
LTYPE
  2
ESTILO_TQS_0001
 70
    64
  3
-  -  -  -  -  -
 72
    65
 73
     2
 40
1.000000
 49
0.700000
 49
-0.300000
  0
LTYPE
  2
ESTILO_TQS_0002
 70
    64
  3
. . . . . . . .
 72
    65
 73
     2
 40
0.400000
 49
0.100000
 49
-0.300000
  0
LTYPE
  2
ESTILO_TQS_0003
 70
    64
  3
- . - . - . - .
 72
    65
 73
     4
 40
0.910000
 49
0.500000
 49
-0.200000
 49
0.010000
 49
-0.200000
  0
LTYPE
  2
ESTILO_TQS_0004
 70
    64
  3
- .. - .. - ..
 72
    65
 73
     6
 40
1.120000
 49
0.500000
 49
-0.200000
 49
0.010000
 49
-0.200000
 49
0.010000
 49
-0.200000
  0
LTYPE
  2
CONTINUOUS
 70
    64
  3
- - - - - - - -
 72
    65
 73
     2
 40
0.400000
 49
0.300000
 49
-0.100000
  0
ENDTAB
  0
TABLE
  2
LAYER
 70
    89
  0
LAYER
  2
0
 70
     0
 62
     7
  6
CONTINUOUS
  0
LAYER
  2
1
 70
     0
 62
     1
  6
CONTINUOUS
  0
LAYER
  2
2
 70
     0
 62
     2
  6
CONTINUOUS
  0
LAYER
  2
3
 70
     0
 62
     3
  6
CONTINUOUS
  0
LAYER
  2
4
 70
     0
 62
     4
  6
CONTINUOUS
  0
LAYER
  2
5
 70
     0
 62
     5
  6
CONTINUOUS
  0
LAYER
  2
6
 70
     0
 62
     6
  6
CONTINUOUS
  0
LAYER
  2
7
 70
     0
 62
     7
  6
CONTINUOUS
  0
LAYER
  2
8
 70
     0
 62
     8
  6
CONTINUOUS
  0
LAYER
  2
9
 70
     0
 62
     9
  6
CONTINUOUS
  0
LAYER
  2
10
 70
     0
 62
    10
  6
CONTINUOUS
  0
LAYER
  2
11
 70
     0
 62
    11
  6
CONTINUOUS
  0
LAYER
  2
12
 70
     0
 62
    12
  6
CONTINUOUS
  0
LAYER
  2
13
 70
     0
 62
    13
  6
CONTINUOUS
  0
LAYER
  2
14
 70
     0
 62
    14
  6
CONTINUOUS
  0
LAYER
  2
15
 70
     0
 62
    15
  6
CONTINUOUS
  0
LAYER
  2
16
 70
     0
 62
     7
  6
CONTINUOUS
  0
LAYER
  2
17
 70
     0
 62
     2
  6
CONTINUOUS
  0
LAYER
  2
18
 70
     0
 62
     4
  6
CONTINUOUS
  0
LAYER
  2
19
 70
     0
 62
     5
  6
CONTINUOUS
  0
LAYER
  2
20
 70
     0
 62
     4
  6
CONTINUOUS
  0
LAYER
  2
21
 70
     0
 62
     2
  6
CONTINUOUS
  0
LAYER
  2
22
 70
     0
 62
     1
  6
CONTINUOUS
  0
LAYER
  2
23
 70
     0
 62
     7
  6
CONTINUOUS
  0
LAYER
  2
24
 70
     0
 62
     6
  6
CONTINUOUS
  0
LAYER
  2
25
 70
     0
 62
     1
  6
CONTINUOUS
  0
LAYER
  2
26
 70
     0
 62
     3
  6
CONTINUOUS
  0
LAYER
  2
27
 70
     0
 62
     4
  6
CONTINUOUS
  0
LAYER
  2
28
 70
     0
 62
     4
  6
CONTINUOUS
  0
LAYER
  2
30
 70
     0
 62
     4
  6
CONTINUOUS
  0
LAYER
  2
100
 70
     0
 62
     1
  6
CONTINUOUS
  0
LAYER
  2
101
 70
     0
 62
     9
  6
CONTINUOUS
  0
LAYER
  2
102
 70
     0
 62
     7
  6
CONTINUOUS
  0
LAYER
  2
103
 70
     0
 62
     2
  6
CONTINUOUS
  0
LAYER
  2
104
 70
     0
 62
    11
  6
CONTINUOUS
  0
LAYER
  2
105
 70
     0
 62
     3
  6
CONTINUOUS
  0
LAYER
  2
106
 70
     0
 62
     5
  6
CONTINUOUS
  0
LAYER
  2
107
 70
     0
 62
     3
  6
CONTINUOUS
  0
LAYER
  2
108
 70
     0
 62
     5
  6
CONTINUOUS
  0
LAYER
  2
109
 70
     0
 62
     3
  6
CONTINUOUS
  0
LAYER
  2
197
 70
     0
 62
     3
  6
CONTINUOUS
  0
LAYER
  2
198
 70
     0
 62
     2
  6
CONTINUOUS
  0
LAYER
  2
199
 70
     0
 62
     6
  6
CONTINUOUS
  0
LAYER
  2
200
 70
     0
 62
     7
  6
ESTILO_TQS_0002
  0
LAYER
  2
201
 70
     0
 62
     7
  6
ESTILO_TQS_0001
  0
LAYER
  2
202
 70
     0
 62
     7
  6
CONTINUOUS
  0
LAYER
  2
203
 70
     0
 62
     7
  6
ESTILO_TQS_0001
  0
LAYER
  2
204
 70
     0
 62
     7
  6
ESTILO_TQS_0003
  0
LAYER
  2
205
 70
     0
 62
     5
  6
ESTILO_TQS_0004
  0
LAYER
  2
206
 70
     0
 62
    15
  6
CONTINUOUS
  0
LAYER
  2
207
 70
     0
 62
     2
  6
CONTINUOUS
  0
LAYER
  2
208
 70
     0
 62
     5
  6
CONTINUOUS
  0
LAYER
  2
210
 70
     0
 62
    15
  6
ESTILO_TQS_0002
  0
LAYER
  2
211
 70
     0
 62
     7
  6
ESTILO_TQS_0001
  0
LAYER
  2
214
 70
     0
 62
    15
  6
CONTINUOUS
  0
LAYER
  2
215
 70
     0
 62
     2
  6
CONTINUOUS
  0
LAYER
  2
216
 70
     0
 62
     3
  6
CONTINUOUS
  0
LAYER
  2
217
 70
     0
 62
     3
  6
CONTINUOUS
  0
LAYER
  2
218
 70
     0
 62
     2
  6
CONTINUOUS
  0
LAYER
  2
219
 70
     0
 62
    15
  6
CONTINUOUS
  0
LAYER
  2
220
 70
     0
 62
    10
  6
CONTINUOUS
  0
LAYER
  2
221
 70
     0
 62
    11
  6
CONTINUOUS
  0
LAYER
  2
222
 70
     0
 62
    12
  6
CONTINUOUS
  0
LAYER
  2
223
 70
     0
 62
     6
  6
CONTINUOUS
  0
LAYER
  2
224
 70
     0
 62
     1
  6
CONTINUOUS
  0
LAYER
  2
225
 70
     0
 62
    15
  6
CONTINUOUS
  0
LAYER
  2
226
 70
     0
 62
     2
  6
CONTINUOUS
  0
LAYER
  2
227
 70
     0
 62
    10
  6
CONTINUOUS
  0
LAYER
  2
228
 70
     0
 62
    11
  6
CONTINUOUS
  0
LAYER
  2
229
 70
     0
 62
    12
  6
CONTINUOUS
  0
LAYER
  2
230
 70
     0
 62
     6
  6
CONTINUOUS
  0
LAYER
  2
231
 70
     0
 62
     3
  6
CONTINUOUS
  0
LAYER
  2
232
 70
     0
 62
    12
  6
CONTINUOUS
  0
LAYER
  2
233
 70
     0
 62
     4
  6
CONTINUOUS
  0
LAYER
  2
234
 70
     0
 62
    13
  6
CONTINUOUS
  0
LAYER
  2
235
 70
     0
 62
     5
  6
CONTINUOUS
  0
LAYER
  2
236
 70
     0
 62
     2
  6
CONTINUOUS
  0
LAYER
  2
237
 70
     0
 62
     6
  6
CONTINUOUS
  0
LAYER
  2
238
 70
     0
 62
    12
  6
CONTINUOUS
  0
LAYER
  2
239
 70
     0
 62
    11
  6
CONTINUOUS
  0
LAYER
  2
240
 70
     0
 62
    11
  6
CONTINUOUS
  0
LAYER
  2
241
 70
     0
 62
    12
  6
CONTINUOUS
  0
ENDTAB
  0
TABLE
  2
STYLE
 70
     1
  0
STYLE
  2
STANDARD
 70
    64
 40
0.000000
 41
1.000000
 50
0.000000
 71
     0
 42
0.200000
  3
ROMANS.SHX
  4

  0
STYLE
  2
TQS_CALIBRI
 70
     0
 40
0.000000
 41
1.000000
 50
0.000000
 71
     0
 42
0.200000
  3
calibri.ttf
  0
STYLE
  2
TQS_CALIBRI_U
 70
     0
 40
0.000000
 41
1.000000
 50
0.000000
 71
     0
 42
0.200000
  3
calibri.ttf
  0
STYLE
  2
TQS_CALIBRI_I
 70
     0
 40
0.000000
 41
1.000000
 50
0.000000
 71
     0
 42
0.200000
  3
calibri.ttf
  0
STYLE
  2
TQS_CALIBRI_I_U
 70
     0
 40
0.000000
 41
1.000000
 50
0.000000
 71
     0
 42
0.200000
  3
calibri.ttf
  0
STYLE
  2
TQS_CALIBRI_B
 70
     0
 40
0.000000
 41
1.000000
 50
0.000000
 71
     0
 42
0.200000
  3
calibri.ttf
  0
STYLE
  2
TQS_CALIBRI_B_U
 70
     0
 40
0.000000
 41
1.000000
 50
0.000000
 71
     0
 42
0.200000
  3
calibri.ttf
  0
STYLE
  2
TQS_CALIBRI_B_I
 70
     0
 40
0.000000
 41
1.000000
 50
0.000000
 71
     0
 42
0.200000
  3
calibri.ttf
  0
STYLE
  2
TQS_CALIBRI_B_I_U
 70
     0
 40
0.000000
 41
1.000000
 50
0.000000
 71
     0
 42
0.200000
  3
calibri.ttf
  0
ENDTAB
  0
TABLE
  2
VIEW
 70
     0
  0
ENDTAB
  0
ENDSEC
  0
SECTION
  2
BLOCKS
  0
BLOCK
  8
0
  2
_PLWTQS
 70
    64
 10
0.000000
 20
0.000000
  0
TEXT
  8
0
  6
CONTINUOUS
 10
0.000000
 20
0.000000
 40
0.200000
  1
$PLWDWGGlBMVwAAAAAAAChABAAAABMAwISWV6Am2UD57H74XzDLb1MokEd+pMligQFL2LD6OsO7pkGY903FsUQVPd2mt9HDDQCMGgbjxUnlsTzxjHxlqDiwJxaErOpqIdDz9M5fDX8yusgle0oRIfxUUwE3XJkNWIIl5lcXvfwk02taNAs=
  7
TQS_CALIBRI
  0
TEXT
  8
0
  6
CONTINUOUS
 10
0.000000
 20
-0.250000
 40
0.200000
  1
$PLWDWGKjY94vaBuBF5O7U0EglRZ/iASTdtt/X19ucSMNOBQpaPmTJU3Gk3Hh2E8LQIQc33jhrRIg13SFjdzBoD8ky4xD4ZPKZq+M4glq0FewU7M22Qy+1aKmPLcweXPcRrB9vFelFhhOhRQmxa2+CWPrpUnJQwjOrb20kHMuz4+uibkOM=
  7
TQS_CALIBRI
  0
TEXT
  8
0
  6
CONTINUOUS
 10
0.000000
 20
-0.500000
 40
0.200000
  1
$PLWDWGY2AsZO09Y3n19a5ROp49rdOCeWMzQ7PIBeONJZZ4oJj/4h8+BQO6bv9GMGTd5MbRNzKIumzJwtD3oabRfrL1s2uvNQv4KCntgkAq69VAoP41Ft4ToVoCvkCYssRTZATbs1K14/Yaku9UHHV4PEe1+rep9MrZZFpKfSxVIK6gXjo=
  7
TQS_CALIBRI
  0
TEXT
  8
0
  6
CONTINUOUS
 10
0.000000
 20
-0.750000
 40
0.200000
  1
$PLWDWGv9HBzHVvTPMsC1h+Dp1BSps0xOikc2Iiy0N2Fc+Kj5Jy9biVWPKyIya2GaZyKGgBQlyGZhEeWplIdQ9n3Qs8IHWKNDLbc6Vb6HvzjLE+gJc3fhcyaJ6ohmge+RvQ6CjyG2oA3yZmWJNPwg5xRevsQBEiveX8HX3yXUupZptCVp0=
  7
TQS_CALIBRI
  0
TEXT
  8
0
  6
CONTINUOUS
 10
0.000000
 20
-1.000000
 40
0.200000
  1
$PLWDWGcagAZ/KbbqqOWccHaxiazjx5nNUOS/e0Vxz0GYqQzRFOS5npj2sQ0lfWMKmZZ7Pc1kJtM5tUg3ABcTGqDoznChmSkgQ/RF7Ut0uuXVjyJNghCRCpJqsalOMjXs5Tg/WBYbbTUjqkTWVpSdCiqeMnG0LU+nwKv8lvGNTauZSiEMw=
  7
TQS_CALIBRI
  0
TEXT
  8
0
  6
CONTINUOUS
 10
0.000000
 20
-1.250000
 40
0.200000
  1
$PLWDWG+/WsBslVIgpLg2vW/CojVwnSXOktnP7z4HI1capzSpMtftiFxtux/xme5+NyQGhNb4T8Cc8q7hK/bHtTS5hw0jrC9oOAVTdri7xgxNpa5SCbLSm+fEH4fjFiUQjZocGLdNbP9mDJPRvDbQ6Q/RqsQYYZHDzs3PSKTlio5a7QjK0=
  7
TQS_CALIBRI
  0
TEXT
  8
0
  6
CONTINUOUS
 10
0.000000
 20
-1.500000
 40
0.200000
  1
$PLWDWGe3b3/k7VopWfGaqtSrBuVRK8AKKLc3nNMi1wD6BjPjXItk6kfg/ATPgjoFI9YwZ4dnCZNi0msI2kDDf4AkCmuKM7lIjfnnoXydNdWuuPOKYbn/bXg7jWqyuBhebydGH7/fKECOttEiq1a8xtFNLe0hCxzJE4dsVwc3ytKCSnVqE=
  7
TQS_CALIBRI
  0
TEXT
  8
0
  6
CONTINUOUS
 10
0.000000
 20
-1.750000
 40
0.200000
  1
$PLWDWGLvUClp42exi6cwBDRWHdi5fEOsGuWltNv6pd2X2+XBX8U44sOTxF9JUja+aZWVcEmsHNUkysCTcAAAAAYKz+esxW7PHYqymGQ6WtXprBzVJMrAk3AAAAAA==
  7
TQS_CALIBRI
  0
ENDBLK
  8
0
  0
ENDSEC
  0
SECTION
  2
ENTITIES
  0
SOLID
  8
13
  6
CONTINUOUS
 10
102.095046
 20
10.244446
 11
102.095046
 21
9.498246
 12
101.971546
 22
9.498246
 13
101.971546
 23
9.498246
  0
SOLID
  8
13
  6
CONTINUOUS
 10
102.095046
 20
10.244446
 11
101.971546
 21
9.498246
 12
101.971546
 22
11.162246
 13
101.971546
 23
11.162246
  0
SOLID
  8
13
  6
CONTINUOUS
 10
102.095046
 20
10.244446
 11
101.971546
 21
11.162246
 12
102.095046
 22
11.162246
 13
102.095046
 23
11.162246
  0
SOLID
  8
13
  6
CONTINUOUS
 10
102.095046
 20
10.244446
 11
102.095046
 21
11.162246
 12
102.095046
 22
10.244446
 13
102.095046
 23
10.244446
  0
SOLID
  8
13
  6
CONTINUOUS
 10
102.522746
 20
10.230979
 11
102.522746
 21
9.498246
 12
102.095046
 22
9.498246
 13
102.095046
 23
9.498246
  0
SOLID
  8
13
  6
CONTINUOUS
 10
102.522746
 20
10.230979
 11
102.095046
 21
9.498246
 12
102.095046
 22
10.244446
 13
102.095046
 23
10.244446
  0
SOLID
  8
13
  6
CONTINUOUS
 10
102.522746
 20
10.230979
 11
102.095046
 21
10.244446
 12
102.143544
 22
10.248642
 13
102.143544
 23
10.248642
  0
SOLID
  8
13
  6
CONTINUOUS
 10
102.522746
 20
10.230979
 11
102.143544
 21
10.248642
 12
102.211078
 22
10.252071
 13
102.211078
 23
10.252071
  0
SOLID
  8
13
  6
CONTINUOUS
 10
102.522746
 20
10.230979
 11
102.211078
 21
10.252071
 12
102.259959
 22
10.252484
 13
102.259959
 23
10.252484
  0
SOLID
  8
13
  6
CONTINUOUS
 10
102.522746
 20
10.230979
 11
102.259959
 21
10.252484
 12
102.290321
 22
10.252141
 13
102.290321
 23
10.252141
  0
SOLID
  8
13
  6
CONTINUOUS
 10
102.522746
 20
10.230979
 11
102.290321
 21
10.252141
 12
102.334203
 22
10.250668
 13
102.334203
 23
10.250668
  0
SOLID
  8
13
  6
CONTINUOUS
 10
102.522746
 20
10.230979
 11
102.334203
 21
10.250668
 12
102.394518
 22
10.246747
 13
102.394518
 23
10.246747
  0
SOLID
  8
13
  6
CONTINUOUS
 10
102.522746
 20
10.230979
 11
102.394518
 21
10.246747
 12
102.446340
 22
10.241621
 13
102.446340
 23
10.241621
  0
SOLID
  8
13
  6
CONTINUOUS
 10
102.522746
 20
10.230979
 11
102.446340
 21
10.241621
 12
102.490083
 22
10.235974
 13
102.490083
 23
10.235974
  0
SOLID
  8
13
  6
CONTINUOUS
 10
102.522746
 20
10.230979
 11
102.490083
 21
10.235974
 12
102.522746
 22
10.230979
 13
102.522746
 23
10.230979
  0
SOLID
  8
13
  6
CONTINUOUS
 10
102.594246
 20
10.217654
 11
102.594246
 21
9.498246
 12
103.021946
 22
9.498246
 13
103.021946
 23
9.498246
  0
SOLID
  8
13
  6
CONTINUOUS
 10
102.594246
 20
10.217654
 11
103.021946
 21
9.498246
 12
103.021946
 22
10.064184
 13
103.021946
 23
10.064184
  0
SOLID
  8
13
  6
CONTINUOUS
 10
102.594246
 20
10.217654
 11
103.021946
 21
10.064184
 12
103.003898
 22
10.073542
 13
103.003898
 23
10.073542
  0
SOLID
  8
13
  6
CONTINUOUS
 10
102.594246
 20
10.217654
 11
103.003898
 21
10.073542
 12
102.981716
 22
10.084501
 13
102.981716
 23
10.084501
  0
SOLID
  8
13
  6
CONTINUOUS
 10
102.594246
 20
10.217654
 11
102.981716
 21
10.084501
 12
102.953307
 22
10.098271
 13
102.953307
 23
10.098271
  0
SOLID
  8
13
  6
CONTINUOUS
 10
102.594246
 20
10.217654
 11
102.953307
 21
10.098271
 12
102.912865
 22
10.116383
 13
102.912865
 23
10.116383
  0
SOLID
  8
13
  6
CONTINUOUS
 10
102.594246
 20
10.217654
 11
102.912865
 21
10.116383
 12
102.885024
 22
10.128001
 13
102.885024
 23
10.128001
  0
SOLID
  8
13
  6
CONTINUOUS
 10
102.594246
 20
10.217654
 11
102.885024
 21
10.128001
 12
102.844071
 22
10.144755
 13
102.844071
 23
10.144755
  0
SOLID
  8
13
  6
CONTINUOUS
 10
102.594246
 20
10.217654
 11
102.844071
 21
10.144755
 12
102.813490
 22
10.155923
 13
102.813490
 23
10.155923
  0
SOLID
  8
13
  6
CONTINUOUS
 10
102.594246
 20
10.217654
 11
102.813490
 21
10.155923
 12
102.778388
 22
10.168156
 13
102.778388
 23
10.168156
  0
SOLID
  8
13
  6
CONTINUOUS
 10
102.594246
 20
10.217654
 11
102.778388
 21
10.168156
 12
102.744083
 22
10.178793
 13
102.744083
 23
10.178793
  0
SOLID
  8
13
  6
CONTINUOUS
 10
102.594246
 20
10.217654
 11
102.744083
 21
10.178793
 12
102.703465
 22
10.191172
 13
102.703465
 23
10.191172
  0
SOLID
  8
13
  6
CONTINUOUS
 10
102.594246
 20
10.217654
 11
102.703465
 21
10.191172
 12
102.665141
 22
10.201162
 13
102.665141
 23
10.201162
  0
SOLID
  8
13
  6
CONTINUOUS
 10
102.594246
 20
10.217654
 11
102.665141
 21
10.201162
 12
102.624819
 22
10.210970
 13
102.624819
 23
10.210970
  0
SOLID
  8
13
  6
CONTINUOUS
 10
102.594246
 20
10.217654
 11
102.624819
 21
10.210970
 12
102.594246
 22
10.217654
 13
102.594246
 23
10.217654
  0
SOLID
  8
13
  6
CONTINUOUS
 10
103.093446
 20
10.024343
 11
103.093446
 21
9.498246
 12
103.521146
 22
9.498246
 13
103.521146
 23
9.498246
  0
SOLID
  8
13
  6
CONTINUOUS
 10
103.093446
 20
10.024343
 11
103.521146
 21
9.498246
 12
103.521146
 22
9.661030
 13
103.521146
 23
9.661030
  0
SOLID
  8
13
  6
CONTINUOUS
 10
103.093446
 20
10.024343
 11
103.521146
 21
9.661030
 12
103.507797
 22
9.676793
 13
103.507797
 23
9.676793
  0
SOLID
  8
13
  6
CONTINUOUS
 10
103.093446
 20
10.024343
 11
103.507797
 21
9.676793
 12
103.495964
 22
9.690528
 13
103.495964
 23
9.690528
  0
SOLID
  8
13
  6
CONTINUOUS
 10
103.093446
 20
10.024343
 11
103.495964
 21
9.690528
 12
103.473877
 22
9.715277
 13
103.473877
 23
9.715277
  0
SOLID
  8
13
  6
CONTINUOUS
 10
103.093446
 20
10.024343
 11
103.473877
 21
9.715277
 12
103.454164
 22
9.736530
 13
103.454164
 23
9.736530
  0
SOLID
  8
13
  6
CONTINUOUS
 10
103.093446
 20
10.024343
 11
103.454164
 21
9.736530
 12
103.434048
 22
9.757502
 13
103.434048
 23
9.757502
  0
SOLID
  8
13
  6
CONTINUOUS
 10
103.093446
 20
10.024343
 11
103.434048
 21
9.757502
 12
103.410015
 22
9.781535
 13
103.410015
 23
9.781535
  0
SOLID
  8
13
  6
CONTINUOUS
 10
103.093446
 20
10.024343
 11
103.410015
 21
9.781535
 12
103.399294
 22
9.791943
 13
103.399294
 23
9.791943
  0
SOLID
  8
13
  6
CONTINUOUS
 10
103.093446
 20
10.024343
 11
103.399294
 21
9.791943
 12
103.388429
 22
9.802406
 13
103.388429
 23
9.802406
  0
SOLID
  8
13
  6
CONTINUOUS
 10
103.093446
 20
10.024343
 11
103.388429
 21
9.802406
 12
103.359952
 22
9.828752
 13
103.359952
 23
9.828752
  0
SOLID
  8
13
  6
CONTINUOUS
 10
103.093446
 20
10.024343
 11
103.359952
 21
9.828752
 12
103.325139
 22
9.859181
 13
103.325139
 23
9.859181
  0
SOLID
  8
13
  6
CONTINUOUS
 10
103.093446
 20
10.024343
 11
103.325139
 21
9.859181
 12
103.286846
 22
9.890826
 13
103.286846
 23
9.890826
  0
SOLID
  8
13
  6
CONTINUOUS
 10
103.093446
 20
10.024343
 11
103.286846
 21
9.890826
 12
103.251036
 22
9.918745
 13
103.251036
 23
9.918745
  0
SOLID
  8
13
  6
CONTINUOUS
 10
103.093446
 20
10.024343
 11
103.251036
 21
9.918745
 12
103.200839
 22
9.955427
 13
103.200839
 23
9.955427
  0
SOLID
  8
13
  6
CONTINUOUS
 10
103.093446
 20
10.024343
 11
103.200839
 21
9.955427
 12
103.134352
 22
9.999676
 13
103.134352
 23
9.999676
  0
SOLID
  8
13
  6
CONTINUOUS
 10
103.093446
 20
10.024343
 11
103.134352
 21
9.999676
 12
103.093446
 22
10.024343
 13
103.093446
 23
10.024343
  0
SOLID
  8
13
  6
CONTINUOUS
 10
102.522746
 20
10.635283
 11
102.522746
 21
11.162246
 12
102.095046
 22
11.162246
 13
102.095046
 23
11.162246
  0
SOLID
  8
13
  6
CONTINUOUS
 10
102.522746
 20
10.635283
 11
102.095046
 21
11.162246
 12
102.095046
 22
10.995122
 13
102.095046
 23
10.995122
  0
SOLID
  8
13
  6
CONTINUOUS
 10
102.522746
 20
10.635283
 11
102.095046
 21
10.995122
 12
102.153689
 22
10.929235
 13
102.153689
 23
10.929235
  0
SOLID
  8
13
  6
CONTINUOUS
 10
102.522746
 20
10.635283
 11
102.153689
 21
10.929235
 12
102.237359
 22
10.846559
 13
102.237359
 23
10.846559
  0
SOLID
  8
13
  6
CONTINUOUS
 10
102.522746
 20
10.635283
 11
102.237359
 21
10.846559
 12
102.308389
 22
10.784730
 13
102.308389
 23
10.784730
  0
SOLID
  8
13
  6
CONTINUOUS
 10
102.522746
 20
10.635283
 11
102.308389
 21
10.784730
 12
102.366624
 22
10.739274
 13
102.366624
 23
10.739274
  0
SOLID
  8
13
  6
CONTINUOUS
 10
102.522746
 20
10.635283
 11
102.366624
 21
10.739274
 12
102.406322
 22
10.710064
 13
102.406322
 23
10.710064
  0
SOLID
  8
13
  6
CONTINUOUS
 10
102.522746
 20
10.635283
 11
102.406322
 21
10.710064
 12
102.455827
 22
10.676682
 13
102.455827
 23
10.676682
  0
SOLID
  8
13
  6
CONTINUOUS
 10
102.522746
 20
10.635283
 11
102.455827
 21
10.676682
 12
102.493954
 22
10.652515
 13
102.493954
 23
10.652515
  0
SOLID
  8
13
  6
CONTINUOUS
 10
102.522746
 20
10.635283
 11
102.493954
 21
10.652515
 12
102.522746
 22
10.635283
 13
102.522746
 23
10.635283
  0
SOLID
  8
13
  6
CONTINUOUS
 10
103.021946
 20
10.443678
 11
103.021946
 21
11.162246
 12
102.594246
 22
11.162246
 13
102.594246
 23
11.162246
  0
SOLID
  8
13
  6
CONTINUOUS
 10
103.021946
 20
10.443678
 11
102.594246
 21
11.162246
 12
102.594246
 22
10.595859
 13
102.594246
 23
10.595859
  0
SOLID
  8
13
  6
CONTINUOUS
 10
103.021946
 20
10.443678
 11
102.594246
 21
10.595859
 12
102.663800
 22
10.561766
 13
102.663800
 23
10.561766
  0
SOLID
  8
13
  6
CONTINUOUS
 10
103.021946
 20
10.443678
 11
102.663800
 21
10.561766
 12
102.744359
 22
10.527375
 13
102.744359
 23
10.527375
  0
SOLID
  8
13
  6
CONTINUOUS
 10
103.021946
 20
10.443678
 11
102.744359
 21
10.527375
 12
102.812197
 22
10.501464
 13
102.812197
 23
10.501464
  0
SOLID
  8
13
  6
CONTINUOUS
 10
103.021946
 20
10.443678
 11
102.812197
 21
10.501464
 12
102.889458
 22
10.476967
 13
102.889458
 23
10.476967
  0
SOLID
  8
13
  6
CONTINUOUS
 10
103.021946
 20
10.443678
 11
102.889458
 21
10.476967
 12
102.950702
 22
10.460007
 13
102.950702
 23
10.460007
  0
SOLID
  8
13
  6
CONTINUOUS
 10
103.021946
 20
10.443678
 11
102.950702
 21
10.460007
 12
103.021946
 22
10.443678
 13
103.021946
 23
10.443678
  0
SOLID
  8
13
  6
CONTINUOUS
 10
103.093446
 20
10.430307
 11
103.093446
 21
11.162246
 12
103.521146
 22
11.162246
 13
103.521146
 23
11.162246
  0
SOLID
  8
13
  6
CONTINUOUS
 10
103.093446
 20
10.430307
 11
103.521146
 21
11.162246
 12
103.521146
 22
10.417580
 13
103.521146
 23
10.417580
  0
SOLID
  8
13
  6
CONTINUOUS
 10
103.093446
 20
10.430307
 11
103.521146
 21
10.417580
 12
103.476372
 22
10.413637
 13
103.476372
 23
10.413637
  0
SOLID
  8
13
  6
CONTINUOUS
 10
103.093446
 20
10.430307
 11
103.476372
 21
10.413637
 12
103.416577
 22
10.410480
 13
103.416577
 23
10.410480
  0
SOLID
  8
13
  6
CONTINUOUS
 10
103.093446
 20
10.430307
 11
103.416577
 21
10.410480
 12
103.366788
 22
10.409453
 13
103.366788
 23
10.409453
  0
SOLID
  8
13
  6
CONTINUOUS
 10
103.093446
 20
10.430307
 11
103.366788
 21
10.409453
 12
103.336830
 22
10.409453
 13
103.336830
 23
10.409453
  0
SOLID
  8
13
  6
CONTINUOUS
 10
103.093446
 20
10.430307
 11
103.336830
 21
10.409453
 12
103.286182
 22
10.410821
 13
103.286182
 23
10.410821
  0
SOLID
  8
13
  6
CONTINUOUS
 10
103.093446
 20
10.430307
 11
103.286182
 21
10.410821
 12
103.241261
 22
10.413321
 13
103.241261
 23
10.413321
  0
SOLID
  8
13
  6
CONTINUOUS
 10
103.093446
 20
10.430307
 11
103.241261
 21
10.413321
 12
103.205545
 22
10.416539
 13
103.205545
 23
10.416539
  0
SOLID
  8
13
  6
CONTINUOUS
 10
103.093446
 20
10.430307
 11
103.205545
 21
10.416539
 12
103.155349
 22
10.421044
 13
103.155349
 23
10.421044
  0
SOLID
  8
13
  6
CONTINUOUS
 10
103.093446
 20
10.430307
 11
103.155349
 21
10.421044
 12
103.093446
 22
10.430307
 13
103.093446
 23
10.430307
  0
SOLID
  8
13
  6
CONTINUOUS
 10
102.594246
 20
9.498246
 11
102.594246
 21
11.162246
 12
102.522746
 22
11.162246
 13
102.522746
 23
11.162246
  0
SOLID
  8
13
  6
CONTINUOUS
 10
102.594246
 20
9.498246
 11
102.522746
 21
11.162246
 12
102.522746
 22
9.498246
 13
102.522746
 23
9.498246
  0
SOLID
  8
13
  6
CONTINUOUS
 10
102.594246
 20
9.498246
 11
102.522746
 21
9.498246
 12
102.522746
 22
9.498246
 13
102.522746
 23
9.498246
  0
SOLID
  8
13
  6
CONTINUOUS
 10
103.021946
 20
11.162246
 11
103.093446
 21
11.162246
 12
103.093446
 22
9.498246
 13
103.093446
 23
9.498246
  0
SOLID
  8
13
  6
CONTINUOUS
 10
103.021946
 20
11.162246
 11
103.093446
 21
9.498246
 12
103.021946
 22
9.498246
 13
103.021946
 23
9.498246
  0
SOLID
  8
13
  6
CONTINUOUS
 10
103.021946
 20
11.162246
 11
103.021946
 21
9.498246
 12
103.021946
 22
11.162246
 13
103.021946
 23
11.162246
  0
SOLID
  8
13
  6
CONTINUOUS
 10
103.521146
 20
9.498246
 11
103.635546
 21
9.498246
 12
103.635546
 22
11.162246
 13
103.635546
 23
11.162246
  0
SOLID
  8
13
  6
CONTINUOUS
 10
103.521146
 20
9.498246
 11
103.635546
 21
11.162246
 12
103.521146
 22
11.162246
 13
103.521146
 23
11.162246
  0
SOLID
  8
13
  6
CONTINUOUS
 10
103.521146
 20
9.498246
 11
103.521146
 21
11.162246
 12
103.521146
 22
9.498246
 13
103.521146
 23
9.498246
  0
LINE
  8
1
  6
CONTINUOUS
 10
17.524290
 20
68.811240
 11
36.948018
 21
68.811240
  0
LINE
  8
1
  6
CONTINUOUS
 10
17.524290
 20
68.811240
 11
17.524290
 21
67.811240
  0
LINE
  8
1
  6
CONTINUOUS
 10
17.524290
 20
67.811240
 11
33.813570
 21
67.811240
  0
LINE
  8
1
  6
CONTINUOUS
 10
17.524290
 20
67.811240
 11
17.524290
 21
66.811240
  0
LINE
  8
1
  6
CONTINUOUS
 10
20.013406
 20
67.811240
 11
20.013406
 21
66.811240
  0
LINE
  8
1
  6
CONTINUOUS
 10
22.151119
 20
67.811240
 11
22.151119
 21
66.811240
  0
LINE
  8
1
  6
CONTINUOUS
 10
23.526486
 20
67.811240
 11
23.526486
 21
66.811240
  0
LINE
  8
1
  6
CONTINUOUS
 10
27.690999
 20
67.311240
 11
27.690999
 21
66.811240
  0
LINE
  8
1
  6
CONTINUOUS
 10
30.679122
 20
67.811240
 11
30.679122
 21
66.811240
  0
LINE
  8
1
  6
CONTINUOUS
 10
31.723937
 20
67.311240
 11
31.723938
 21
66.811240
  0
LINE
  8
1
  6
CONTINUOUS
 10
32.768754
 20
67.311240
 11
32.768754
 21
66.811240
  0
LINE
  8
1
  6
CONTINUOUS
 10
33.813570
 20
67.811240
 11
33.813570
 21
66.811240
  0
LINE
  8
1
  6
CONTINUOUS
 10
17.524290
 20
66.811240
 11
36.948018
 21
66.811240
  0
LINE
  8
1
  6
CONTINUOUS
 10
23.526486
 20
67.311240
 11
27.690999
 21
67.311240
  0
LINE
  8
1
  6
CONTINUOUS
 10
27.690999
 20
67.311240
 11
30.679122
 21
67.311240
  0
LINE
  8
1
  6
CONTINUOUS
 10
30.679122
 20
67.311240
 11
31.723938
 21
67.311240
  0
LINE
  8
1
  6
CONTINUOUS
 10
31.723938
 20
67.311240
 11
32.768754
 21
67.311240
  0
LINE
  8
1
  6
CONTINUOUS
 10
32.768754
 20
67.311240
 11
36.948018
 21
67.311240
  0
LINE
  8
1
  6
CONTINUOUS
 10
36.948018
 20
66.811240
 11
36.948018
 21
68.811240
  0
LINE
  8
1
  6
CONTINUOUS
 10
35.380794
 20
67.311240
 11
35.380794
 21
66.811240
  0
LINE
  8
1
  6
CONTINUOUS
 10
33.813570
 20
67.811240
 11
36.948018
 21
67.811240
  0
LINE
  8
1
  6
CONTINUOUS
 10
17.524290
 20
66.811240
 11
17.524290
 21
66.311239
  0
LINE
  8
1
  6
CONTINUOUS
 10
17.524290
 20
66.311239
 11
36.948018
 21
66.311239
  0
LINE
  8
1
  6
CONTINUOUS
 10
20.013406
 20
66.811240
 11
20.013406
 21
66.311239
  0
LINE
  8
1
  6
CONTINUOUS
 10
22.151119
 20
66.811240
 11
22.151119
 21
66.311239
  0
LINE
  8
1
  6
CONTINUOUS
 10
23.526486
 20
66.811240
 11
23.526486
 21
66.311239
  0
LINE
  8
1
  6
CONTINUOUS
 10
27.690999
 20
66.811240
 11
27.690999
 21
66.311239
  0
LINE
  8
1
  6
CONTINUOUS
 10
30.679122
 20
66.811240
 11
30.679122
 21
66.311239
  0
LINE
  8
1
  6
CONTINUOUS
 10
31.723938
 20
66.811240
 11
31.723938
 21
66.311239
  0
LINE
  8
1
  6
CONTINUOUS
 10
32.768754
 20
66.811240
 11
32.768754
 21
66.311239
  0
LINE
  8
1
  6
CONTINUOUS
 10
33.813570
 20
66.811240
 11
33.813570
 21
66.311239
  0
LINE
  8
1
  6
CONTINUOUS
 10
33.813570
 20
66.311239
 11
33.813570
 21
66.811240
  0
LINE
  8
1
  6
CONTINUOUS
 10
33.813570
 20
66.811240
 11
33.813570
 21
66.311239
  0
LINE
  8
1
  6
CONTINUOUS
 10
35.380794
 20
66.811240
 11
35.380794
 21
66.311239
  0
LINE
  8
1
  6
CONTINUOUS
 10
36.948018
 20
66.811240
 11
36.948018
 21
66.311239
  0
LINE
  8
1
  6
CONTINUOUS
 10
17.524290
 20
66.311239
 11
17.524290
 21
65.811239
  0
LINE
  8
1
  6
CONTINUOUS
 10
17.524290
 20
65.811239
 11
36.948018
 21
65.811239
  0
LINE
  8
1
  6
CONTINUOUS
 10
20.013406
 20
66.311239
 11
20.013406
 21
65.811239
  0
LINE
  8
1
  6
CONTINUOUS
 10
22.151119
 20
66.311239
 11
22.151119
 21
65.811239
  0
LINE
  8
1
  6
CONTINUOUS
 10
23.526486
 20
66.311239
 11
23.526486
 21
65.811239
  0
LINE
  8
1
  6
CONTINUOUS
 10
27.690999
 20
66.311239
 11
27.690999
 21
65.811239
  0
LINE
  8
1
  6
CONTINUOUS
 10
30.679122
 20
66.311239
 11
30.679122
 21
65.811239
  0
LINE
  8
1
  6
CONTINUOUS
 10
31.723938
 20
66.311239
 11
31.723938
 21
65.811239
  0
LINE
  8
1
  6
CONTINUOUS
 10
32.768754
 20
66.311239
 11
32.768754
 21
65.811239
  0
LINE
  8
1
  6
CONTINUOUS
 10
33.813570
 20
66.311239
 11
33.813570
 21
65.811239
  0
LINE
  8
1
  6
CONTINUOUS
 10
33.813570
 20
65.811239
 11
33.813570
 21
66.311239
  0
LINE
  8
1
  6
CONTINUOUS
 10
33.813570
 20
66.311239
 11
33.813570
 21
65.811239
  0
LINE
  8
1
  6
CONTINUOUS
 10
35.380794
 20
66.311239
 11
35.380794
 21
65.811239
  0
LINE
  8
1
  6
CONTINUOUS
 10
36.948018
 20
66.311239
 11
36.948018
 21
65.811239
  0
LINE
  8
1
  6
CONTINUOUS
 10
17.524290
 20
65.811238
 11
17.524290
 21
65.311238
  0
LINE
  8
1
  6
CONTINUOUS
 10
17.524290
 20
65.311238
 11
36.948018
 21
65.311238
  0
LINE
  8
1
  6
CONTINUOUS
 10
20.013406
 20
65.811238
 11
20.013406
 21
65.311238
  0
LINE
  8
1
  6
CONTINUOUS
 10
22.151119
 20
65.811238
 11
22.151119
 21
65.311238
  0
LINE
  8
1
  6
CONTINUOUS
 10
23.526486
 20
65.811238
 11
23.526486
 21
65.311238
  0
LINE
  8
1
  6
CONTINUOUS
 10
27.690999
 20
65.811238
 11
27.690999
 21
65.311238
  0
LINE
  8
1
  6
CONTINUOUS
 10
30.679122
 20
65.811238
 11
30.679122
 21
65.311238
  0
LINE
  8
1
  6
CONTINUOUS
 10
31.723938
 20
65.811238
 11
31.723938
 21
65.311238
  0
LINE
  8
1
  6
CONTINUOUS
 10
32.768754
 20
65.811238
 11
32.768754
 21
65.311238
  0
LINE
  8
1
  6
CONTINUOUS
 10
33.813570
 20
65.811238
 11
33.813570
 21
65.311238
  0
LINE
  8
1
  6
CONTINUOUS
 10
33.813570
 20
65.311238
 11
33.813570
 21
65.811238
  0
LINE
  8
1
  6
CONTINUOUS
 10
33.813570
 20
65.811239
 11
33.813570
 21
65.311238
  0
LINE
  8
1
  6
CONTINUOUS
 10
35.380794
 20
65.811238
 11
35.380794
 21
65.311238
  0
LINE
  8
1
  6
CONTINUOUS
 10
36.948018
 20
65.811238
 11
36.948018
 21
65.311238
  0
LINE
  8
1
  6
CONTINUOUS
 10
17.524290
 20
65.311237
 11
17.524290
 21
64.811237
  0
LINE
  8
1
  6
CONTINUOUS
 10
17.524290
 20
64.811237
 11
36.948018
 21
64.811237
  0
LINE
  8
1
  6
CONTINUOUS
 10
20.013406
 20
65.311237
 11
20.013406
 21
64.811237
  0
LINE
  8
1
  6
CONTINUOUS
 10
22.151119
 20
65.311237
 11
22.151119
 21
64.811237
  0
LINE
  8
1
  6
CONTINUOUS
 10
23.526486
 20
65.311237
 11
23.526486
 21
64.811237
  0
LINE
  8
1
  6
CONTINUOUS
 10
27.690999
 20
65.311237
 11
27.690999
 21
64.811237
  0
LINE
  8
1
  6
CONTINUOUS
 10
30.679122
 20
65.311237
 11
30.679122
 21
64.811237
  0
LINE
  8
1
  6
CONTINUOUS
 10
31.723938
 20
65.311237
 11
31.723938
 21
64.811237
  0
LINE
  8
1
  6
CONTINUOUS
 10
32.768754
 20
65.311237
 11
32.768754
 21
64.811237
  0
LINE
  8
1
  6
CONTINUOUS
 10
33.813570
 20
65.311237
 11
33.813570
 21
64.811237
  0
LINE
  8
1
  6
CONTINUOUS
 10
33.813570
 20
64.811237
 11
33.813570
 21
65.311237
  0
LINE
  8
1
  6
CONTINUOUS
 10
33.813570
 20
65.311238
 11
33.813570
 21
64.811237
  0
LINE
  8
1
  6
CONTINUOUS
 10
35.380794
 20
65.311237
 11
35.380794
 21
64.811237
  0
LINE
  8
1
  6
CONTINUOUS
 10
36.948018
 20
65.311237
 11
36.948018
 21
64.811237
  0
LINE
  8
1
  6
CONTINUOUS
 10
17.524290
 20
64.811237
 11
17.524290
 21
64.311237
  0
LINE
  8
1
  6
CONTINUOUS
 10
17.524290
 20
64.311237
 11
36.948018
 21
64.311237
  0
LINE
  8
1
  6
CONTINUOUS
 10
20.013406
 20
64.811237
 11
20.013406
 21
64.311237
  0
LINE
  8
1
  6
CONTINUOUS
 10
22.151119
 20
64.811237
 11
22.151119
 21
64.311237
  0
LINE
  8
1
  6
CONTINUOUS
 10
23.526486
 20
64.811237
 11
23.526486
 21
64.311237
  0
LINE
  8
1
  6
CONTINUOUS
 10
27.690999
 20
64.811237
 11
27.690999
 21
64.311237
  0
LINE
  8
1
  6
CONTINUOUS
 10
30.679122
 20
64.811237
 11
30.679122
 21
64.311237
  0
LINE
  8
1
  6
CONTINUOUS
 10
31.723938
 20
64.811237
 11
31.723938
 21
64.311237
  0
LINE
  8
1
  6
CONTINUOUS
 10
32.768754
 20
64.811237
 11
32.768754
 21
64.311237
  0
LINE
  8
1
  6
CONTINUOUS
 10
33.813570
 20
64.811237
 11
33.813570
 21
64.311237
  0
LINE
  8
1
  6
CONTINUOUS
 10
33.813570
 20
64.311237
 11
33.813570
 21
64.811237
  0
LINE
  8
1
  6
CONTINUOUS
 10
33.813570
 20
64.811237
 11
33.813570
 21
64.311236
  0
LINE
  8
1
  6
CONTINUOUS
 10
35.380794
 20
64.811237
 11
35.380794
 21
64.311237
  0
LINE
  8
1
  6
CONTINUOUS
 10
36.948018
 20
64.811237
 11
36.948018
 21
64.311237
  0
LINE
  8
1
  6
CONTINUOUS
 10
17.524290
 20
63.673884
 11
30.807382
 21
63.673884
  0
LINE
  8
1
  6
CONTINUOUS
 10
17.524290
 20
62.311236
 11
30.807382
 21
62.311236
  0
LINE
  8
1
  6
CONTINUOUS
 10
17.524290
 20
61.811236
 11
26.445999
 21
61.811236
  0
LINE
  8
1
  6
CONTINUOUS
 10
26.445999
 20
61.811236
 11
28.634122
 21
61.811236
  0
LINE
  8
1
  6
CONTINUOUS
 10
28.014102
 20
61.811236
 11
29.058918
 21
61.811236
  0
LINE
  8
1
  6
CONTINUOUS
 10
29.058918
 20
61.811236
 11
30.723754
 21
61.811236
  0
LINE
  8
1
  6
CONTINUOUS
 10
30.723754
 20
61.811236
 11
30.807382
 21
61.811236
  0
LINE
  8
1
  6
CONTINUOUS
 10
17.524290
 20
63.673884
 11
17.524290
 21
60.811236
  0
LINE
  8
1
  6
CONTINUOUS
 10
17.524290
 20
60.811236
 11
30.807382
 21
60.811237
  0
LINE
  8
1
  6
CONTINUOUS
 10
19.662002
 20
61.811236
 11
19.662002
 21
60.811236
  0
LINE
  8
1
  6
CONTINUOUS
 10
21.850126
 20
60.811236
 11
21.850126
 21
61.811236
  0
LINE
  8
1
  6
CONTINUOUS
 10
28.717750
 20
61.811236
 11
28.717750
 21
60.811237
  0
LINE
  8
1
  6
CONTINUOUS
 10
29.762567
 20
61.811236
 11
29.762567
 21
60.811237
  0
LINE
  8
1
  6
CONTINUOUS
 10
23.552938
 20
60.811236
 11
23.552938
 21
61.311236
  0
LINE
  8
1
  6
CONTINUOUS
 10
30.807382
 20
60.811237
 11
30.807382
 21
63.673884
  0
LINE
  8
1
  6
CONTINUOUS
 10
21.850126
 20
61.311236
 11
27.672935
 21
61.311236
  0
LINE
  8
1
  6
CONTINUOUS
 10
27.672935
 20
60.811237
 11
27.672935
 21
62.311236
  0
LINE
  8
1
  6
CONTINUOUS
 10
25.612937
 20
60.811236
 11
25.612937
 21
61.311236
  0
LINE
  8
1
  6
CONTINUOUS
 10
17.524290
 20
60.811236
 11
17.524290
 21
60.311235
  0
LINE
  8
1
  6
CONTINUOUS
 10
19.662002
 20
60.811236
 11
19.662002
 21
60.311235
  0
LINE
  8
1
  6
CONTINUOUS
 10
21.850126
 20
60.811236
 11
21.850126
 21
60.311235
  0
LINE
  8
1
  6
CONTINUOUS
 10
17.524290
 20
60.311235
 11
30.807382
 21
60.311235
  0
LINE
  8
1
  6
CONTINUOUS
 10
27.672935
 20
60.811236
 11
27.672935
 21
60.311236
  0
LINE
  8
1
  6
CONTINUOUS
 10
28.717750
 20
60.811236
 11
28.717750
 21
60.311236
  0
LINE
  8
1
  6
CONTINUOUS
 10
29.762567
 20
60.811236
 11
29.762567
 21
60.311236
  0
LINE
  8
1
  6
CONTINUOUS
 10
23.552938
 20
60.811236
 11
23.552938
 21
60.311235
  0
LINE
  8
1
  6
CONTINUOUS
 10
25.612937
 20
60.311235
 11
25.612937
 21
60.811236
  0
LINE
  8
1
  6
CONTINUOUS
 10
27.672935
 20
60.311235
 11
27.672935
 21
60.811236
  0
LINE
  8
1
  6
CONTINUOUS
 10
30.807382
 20
60.811236
 11
30.807382
 21
60.311235
  0
LINE
  8
1
  6
CONTINUOUS
 10
17.524290
 20
60.311235
 11
17.524290
 21
59.811235
  0
LINE
  8
1
  6
CONTINUOUS
 10
19.662002
 20
60.311235
 11
19.662002
 21
59.811235
  0
LINE
  8
1
  6
CONTINUOUS
 10
21.850126
 20
60.311235
 11
21.850126
 21
59.811235
  0
LINE
  8
1
  6
CONTINUOUS
 10
17.524290
 20
59.811235
 11
30.807382
 21
59.811235
  0
LINE
  8
1
  6
CONTINUOUS
 10
27.672935
 20
60.311235
 11
27.672935
 21
59.811235
  0
LINE
  8
1
  6
CONTINUOUS
 10
28.717750
 20
60.311235
 11
28.717750
 21
59.811235
  0
LINE
  8
1
  6
CONTINUOUS
 10
29.762567
 20
60.311235
 11
29.762567
 21
59.811235
  0
LINE
  8
1
  6
CONTINUOUS
 10
23.552938
 20
60.311235
 11
23.552938
 21
59.811235
  0
LINE
  8
1
  6
CONTINUOUS
 10
25.612937
 20
59.811235
 11
25.612937
 21
60.311235
  0
LINE
  8
1
  6
CONTINUOUS
 10
27.672935
 20
59.811235
 11
27.672935
 21
60.311235
  0
LINE
  8
1
  6
CONTINUOUS
 10
30.807382
 20
60.311235
 11
30.807382
 21
59.811235
  0
LINE
  8
2
  6
CONTINUOUS
 10
101.700000
 20
23.900000
 11
101.700000
 21
23.900000
  0
LINE
  8
2
  6
CONTINUOUS
 10
118.000000
 20
23.900000
 11
118.000000
 21
23.900000
  0
LINE
  8
2
  6
CONTINUOUS
 10
118.000000
 20
23.900000
 11
101.700000
 21
23.900000
  0
LINE
  8
2
  6
CONTINUOUS
 10
118.000000
 20
22.200000
 11
101.700000
 21
22.200000
  0
LINE
  8
2
  6
CONTINUOUS
 10
101.700000
 20
23.900000
 11
101.700000
 21
22.200000
  0
LINE
  8
2
  6
CONTINUOUS
 10
118.000000
 20
22.200000
 11
118.000000
 21
23.900000
  0
POLYLINE
  8
1
  6
CONTINUOUS
 66
     1
  0
VERTEX
  8
1
  6
CONTINUOUS
 10
32.326562
 20
29.893763
  0
VERTEX
  8
1
  6
CONTINUOUS
 10
20.126562
 20
29.893763
  0
SEQEND
  8
1
  6
CONTINUOUS
  0
POLYLINE
  8
1
  6
CONTINUOUS
 66
     1
  0
VERTEX
  8
1
  6
CONTINUOUS
 10
20.126562
 20
29.493763
  0
VERTEX
  8
1
  6
CONTINUOUS
 10
32.326562
 20
29.493763
  0
SEQEND
  8
1
  6
CONTINUOUS
  0
POLYLINE
  8
1
  6
CONTINUOUS
 66
     1
  0
VERTEX
  8
1
  6
CONTINUOUS
 10
45.020820
 20
29.893763
  0
VERTEX
  8
1
  6
CONTINUOUS
 10
32.726562
 20
29.893763
  0
SEQEND
  8
1
  6
CONTINUOUS
  0
POLYLINE
  8
1
  6
CONTINUOUS
 66
     1
  0
VERTEX
  8
1
  6
CONTINUOUS
 10
32.726562
 20
29.493763
  0
VERTEX
  8
1
  6
CONTINUOUS
 10
45.020820
 20
29.493763
  0
SEQEND
  8
1
  6
CONTINUOUS
  0
POLYLINE
  8
1
  6
CONTINUOUS
 66
     1
  0
VERTEX
  8
1
  6
CONTINUOUS
 10
58.310437
 20
29.893763
  0
VERTEX
  8
1
  6
CONTINUOUS
 10
45.420820
 20
29.893763
  0
SEQEND
  8
1
  6
CONTINUOUS
  0
POLYLINE
  8
1
  6
CONTINUOUS
 66
     1
  0
VERTEX
  8
1
  6
CONTINUOUS
 10
45.420820
 20
29.493763
  0
VERTEX
  8
1
  6
CONTINUOUS
 10
58.310437
 20
29.493763
  0
SEQEND
  8
1
  6
CONTINUOUS
  0
POLYLINE
  8
1
  6
CONTINUOUS
 66
     1
  0
VERTEX
  8
1
  6
CONTINUOUS
 10
69.058175
 20
29.893763
  0
VERTEX
  8
1
  6
CONTINUOUS
 10
58.710437
 20
29.893763
  0
SEQEND
  8
1
  6
CONTINUOUS
  0
POLYLINE
  8
1
  6
CONTINUOUS
 66
     1
  0
VERTEX
  8
1
  6
CONTINUOUS
 10
58.710437
 20
29.493763
  0
VERTEX
  8
1
  6
CONTINUOUS
 10
69.058175
 20
29.493763
  0
SEQEND
  8
1
  6
CONTINUOUS
  0
POLYLINE
  8
1
  6
CONTINUOUS
 66
     1
  0
VERTEX
  8
1
  6
CONTINUOUS
 10
26.356562
 20
11.408597
  0
VERTEX
  8
1
  6
CONTINUOUS
 10
20.126562
 20
11.408597
  0
SEQEND
  8
1
  6
CONTINUOUS
  0
POLYLINE
  8
1
  6
CONTINUOUS
 66
     1
  0
VERTEX
  8
1
  6
CONTINUOUS
 10
20.126562
 20
11.008597
  0
VERTEX
  8
1
  6
CONTINUOUS
 10
25.956562
 20
11.008597
  0
SEQEND
  8
1
  6
CONTINUOUS
  0
POLYLINE
  8
1
  6
CONTINUOUS
 66
     1
  0
VERTEX
  8
1
  6
CONTINUOUS
 10
19.726562
 20
20.251180
  0
VERTEX
  8
1
  6
CONTINUOUS
 10
19.726562
 20
11.408597
  0
SEQEND
  8
1
  6
CONTINUOUS
  0
POLYLINE
  8
1
  6
CONTINUOUS
 66
     1
  0
VERTEX
  8
1
  6
CONTINUOUS
 10
20.126562
 20
11.408597
  0
VERTEX
  8
1
  6
CONTINUOUS
 10
20.126562
 20
20.251180
  0
SEQEND
  8
1
  6
CONTINUOUS
  0
POLYLINE
  8
1
  6
CONTINUOUS
 66
     1
  0
VERTEX
  8
1
  6
CONTINUOUS
 10
19.726562
 20
29.493763
  0
VERTEX
  8
1
  6
CONTINUOUS
 10
19.726562
 20
20.651180
  0
SEQEND
  8
1
  6
CONTINUOUS
  0
POLYLINE
  8
1
  6
CONTINUOUS
 66
     1
  0
VERTEX
  8
1
  6
CONTINUOUS
 10
20.126562
 20
20.651180
  0
VERTEX
  8
1
  6
CONTINUOUS
 10
20.126562
 20
29.493763
  0
SEQEND
  8
1
  6
CONTINUOUS
  0
POLYLINE
  8
1
  6
ESTILO_TQS_0001
 66
     1
  0
VERTEX
  8
1
  6
ESTILO_TQS_0001
 10
81.247110
 20
16.008597
  0
VERTEX
  8
1
  6
ESTILO_TQS_0001
 10
81.247110
 20
6.708597
  0
SEQEND
  8
1
  6
ESTILO_TQS_0001
  0
POLYLINE
  8
1
  6
CONTINUOUS
 66
     1
  0
VERTEX
  8
1
  6
CONTINUOUS
 10
81.647110
 20
6.708597
  0
VERTEX
  8
1
  6
CONTINUOUS
 10
81.647110
 20
16.008597
  0
SEQEND
  8
1
  6
CONTINUOUS
  0
POLYLINE
  8
1
  6
ESTILO_TQS_0001
 66
     1
  0
VERTEX
  8
1
  6
ESTILO_TQS_0001
 10
81.247110
 20
25.901050
  0
VERTEX
  8
1
  6
ESTILO_TQS_0001
 10
81.247110
 20
16.408597
  0
SEQEND
  8
1
  6
ESTILO_TQS_0001
  0
POLYLINE
  8
1
  6
CONTINUOUS
 66
     1
  0
VERTEX
  8
1
  6
CONTINUOUS
 10
81.647110
 20
16.408597
  0
VERTEX
  8
1
  6
CONTINUOUS
 10
81.647110
 20
25.901050
  0
SEQEND
  8
1
  6
CONTINUOUS
  0
POLYLINE
  8
1
  6
ESTILO_TQS_0001
 66
     1
  0
VERTEX
  8
1
  6
ESTILO_TQS_0001
 10
81.247110
 20
35.701050
  0
VERTEX
  8
1
  6
ESTILO_TQS_0001
 10
81.247110
 20
26.301050
  0
SEQEND
  8
1
  6
ESTILO_TQS_0001
  0
POLYLINE
  8
1
  6
CONTINUOUS
 66
     1
  0
VERTEX
  8
1
  6
CONTINUOUS
 10
81.647110
 20
26.301050
  0
VERTEX
  8
1
  6
CONTINUOUS
 10
81.647110
 20
35.701050
  0
SEQEND
  8
1
  6
CONTINUOUS
  0
POLYLINE
  8
1
  6
CONTINUOUS
 66
     1
  0
VERTEX
  8
1
  6
CONTINUOUS
 10
25.956562
 20
11.008597
  0
VERTEX
  8
1
  6
CONTINUOUS
 10
25.956562
 20
6.308597
  0
SEQEND
  8
1
  6
CONTINUOUS
  0
POLYLINE
  8
1
  6
CONTINUOUS
 66
     1
  0
VERTEX
  8
1
  6
CONTINUOUS
 10
26.356562
 20
6.708597
  0
VERTEX
  8
1
  6
CONTINUOUS
 10
26.356562
 20
11.408597
  0
SEQEND
  8
1
  6
CONTINUOUS
  0
POLYLINE
  8
1
  6
CONTINUOUS
 66
     1
  0
VERTEX
  8
1
  6
CONTINUOUS
 10
58.320820
 20
6.708597
  0
VERTEX
  8
1
  6
CONTINUOUS
 10
26.356562
 20
6.708597
  0
SEQEND
  8
1
  6
CONTINUOUS
  0
POLYLINE
  8
1
  6
CONTINUOUS
 66
     1
  0
VERTEX
  8
1
  6
CONTINUOUS
 10
25.956562
 20
6.308597
  0
VERTEX
  8
1
  6
CONTINUOUS
 10
58.320820
 20
6.308597
  0
SEQEND
  8
1
  6
CONTINUOUS
  0
POLYLINE
  8
1
  6
CONTINUOUS
 66
     1
  0
VERTEX
  8
1
  6
CONTINUOUS
 10
69.783965
 20
6.708597
  0
VERTEX
  8
1
  6
CONTINUOUS
 10
58.720820
 20
6.708597
  0
SEQEND
  8
1
  6
CONTINUOUS
  0
POLYLINE
  8
1
  6
CONTINUOUS
 66
     1
  0
VERTEX
  8
1
  6
CONTINUOUS
 10
58.720820
 20
6.308597
  0
VERTEX
  8
1
  6
CONTINUOUS
 10
69.783965
 20
6.308597
  0
SEQEND
  8
1
  6
CONTINUOUS
  0
POLYLINE
  8
1
  6
CONTINUOUS
 66
     1
  0
VERTEX
  8
1
  6
CONTINUOUS
 10
75.216324
 20
6.708597
  0
VERTEX
  8
1
  6
CONTINUOUS
 10
70.183965
 20
6.708597
  0
SEQEND
  8
1
  6
CONTINUOUS
  0
POLYLINE
  8
1
  6
CONTINUOUS
 66
     1
  0
VERTEX
  8
1
  6
CONTINUOUS
 10
70.183965
 20
6.308597
  0
VERTEX
  8
1
  6
CONTINUOUS
 10
75.400112
 20
6.308597
  0
SEQEND
  8
1
  6
CONTINUOUS
  0
POLYLINE
  8
1
  6
ESTILO_TQS_0001
 66
     1
  0
VERTEX
  8
1
  6
ESTILO_TQS_0001
 10
81.247110
 20
6.708597
  0
VERTEX
  8
1
  6
ESTILO_TQS_0001
 10
75.617754
 20
6.708597
  0
SEQEND
  8
1
  6
ESTILO_TQS_0001
  0
POLYLINE
  8
1
  6
CONTINUOUS
 66
     1
  0
VERTEX
  8
1
  6
CONTINUOUS
 10
75.400112
 20
6.308597
  0
VERTEX
  8
1
  6
CONTINUOUS
 10
81.247110
 20
6.308597
  0
SEQEND
  8
1
  6
CONTINUOUS
  0
POLYLINE
  8
1
  6
CONTINUOUS
 66
     1
  0
VERTEX
  8
1
  6
CONTINUOUS
 10
75.216324
 20
6.308597
  0
VERTEX
  8
1
  6
CONTINUOUS
 10
75.216324
 20
6.708597
  0
SEQEND
  8
1
  6
CONTINUOUS
  0
POLYLINE
  8
1
  6
CONTINUOUS
 66
     1
  0
VERTEX
  8
1
  6
CONTINUOUS
 10
69.861293
 20
71.530912
  0
VERTEX
  8
1
  6
CONTINUOUS
 10
61.558176
 20
71.530912
  0
SEQEND
  8
1
  6
CONTINUOUS
  0
POLYLINE
  8
1
  6
CONTINUOUS
 66
     1
  0
VERTEX
  8
1
  6
CONTINUOUS
 10
61.558176
 20
71.130912
  0
VERTEX
  8
1
  6
CONTINUOUS
 10
69.861293
 20
71.130912
  0
SEQEND
  8
1
  6
CONTINUOUS
  0
POLYLINE
  8
1
  6
CONTINUOUS
 66
     1
  0
VERTEX
  8
1
  6
CONTINUOUS
 10
69.861293
 20
67.230913
  0
VERTEX
  8
1
  6
CONTINUOUS
 10
61.558176
 20
67.230913
  0
SEQEND
  8
1
  6
CONTINUOUS
  0
POLYLINE
  8
1
  6
CONTINUOUS
 66
     1
  0
VERTEX
  8
1
  6
CONTINUOUS
 10
61.558180
 20
66.830913
  0
VERTEX
  8
1
  6
CONTINUOUS
 10
69.861293
 20
66.830913
  0
SEQEND
  8
1
  6
CONTINUOUS
  0
POLYLINE
  8
1
  6
CONTINUOUS
 66
     1
  0
VERTEX
  8
1
  6
CONTINUOUS
 10
69.861297
 20
66.830912
  0
VERTEX
  8
1
  6
CONTINUOUS
 10
69.861297
 20
61.430079
  0
SEQEND
  8
1
  6
CONTINUOUS
  0
POLYLINE
  8
1
  6
CONTINUOUS
 66
     1
  0
VERTEX
  8
1
  6
CONTINUOUS
 10
70.261297
 20
61.830079
  0
VERTEX
  8
1
  6
CONTINUOUS
 10
70.261297
 20
66.830912
  0
SEQEND
  8
1
  6
CONTINUOUS
  0
POLYLINE
  8
1
  6
CONTINUOUS
 66
     1
  0
VERTEX
  8
1
  6
CONTINUOUS
 10
61.158180
 20
45.191045
  0
VERTEX
  8
1
  6
CONTINUOUS
 10
61.158180
 20
36.101050
  0
SEQEND
  8
1
  6
CONTINUOUS
  0
POLYLINE
  8
1
  6
CONTINUOUS
 66
     1
  0
VERTEX
  8
1
  6
CONTINUOUS
 10
61.558180
 20
36.101050
  0
VERTEX
  8
1
  6
CONTINUOUS
 10
61.558180
 20
45.191040
  0
SEQEND
  8
1
  6
CONTINUOUS
  0
POLYLINE
  8
1
  6
CONTINUOUS
 66
     1
  0
VERTEX
  8
1
  6
CONTINUOUS
 10
61.158180
 20
52.531040
  0
VERTEX
  8
1
  6
CONTINUOUS
 10
61.158180
 20
45.991045
  0
SEQEND
  8
1
  6
CONTINUOUS
  0
POLYLINE
  8
1
  6
CONTINUOUS
 66
     1
  0
VERTEX
  8
1
  6
CONTINUOUS
 10
61.558180
 20
45.991045
  0
VERTEX
  8
1
  6
CONTINUOUS
 10
61.558180
 20
52.531040
  0
SEQEND
  8
1
  6
CONTINUOUS
  0
POLYLINE
  8
1
  6
CONTINUOUS
 66
     1
  0
VERTEX
  8
1
  6
CONTINUOUS
 10
61.158180
 20
66.830912
  0
VERTEX
  8
1
  6
CONTINUOUS
 10
61.158180
 20
57.131040
  0
SEQEND
  8
1
  6
CONTINUOUS
  0
POLYLINE
  8
1
  6
CONTINUOUS
 66
     1
  0
VERTEX
  8
1
  6
CONTINUOUS
 10
61.558180
 20
57.131040
  0
VERTEX
  8
1
  6
CONTINUOUS
 10
61.558180
 20
66.830912
  0
SEQEND
  8
1
  6
CONTINUOUS
  0
POLYLINE
  8
1
  6
CONTINUOUS
 66
     1
  0
VERTEX
  8
1
  6
CONTINUOUS
 10
65.058176
 20
52.931040
  0
VERTEX
  8
1
  6
CONTINUOUS
 10
61.558176
 20
52.931040
  0
SEQEND
  8
1
  6
CONTINUOUS
  0
POLYLINE
  8
1
  6
CONTINUOUS
 66
     1
  0
VERTEX
  8
1
  6
CONTINUOUS
 10
61.558180
 20
52.531040
  0
VERTEX
  8
1
  6
CONTINUOUS
 10
65.058176
 20
52.531040
  0
SEQEND
  8
1
  6
CONTINUOUS
  0
POLYLINE
  8
1
  6
CONTINUOUS
 66
     1
  0
VERTEX
  8
1
  6
CONTINUOUS
 10
65.458569
 20
56.731045
  0
VERTEX
  8
1
  6
CONTINUOUS
 10
65.458569
 20
52.931045
  0
SEQEND
  8
1
  6
CONTINUOUS
  0
POLYLINE
  8
1
  6
CONTINUOUS
 66
     1
  0
VERTEX
  8
1
  6
CONTINUOUS
 10
65.858569
 20
52.931045
  0
VERTEX
  8
1
  6
CONTINUOUS
 10
65.858569
 20
56.731040
  0
SEQEND
  8
1
  6
CONTINUOUS
  0
POLYLINE
  8
1
  6
CONTINUOUS
 66
     1
  0
VERTEX
  8
1
  6
CONTINUOUS
 10
65.058176
 20
57.131040
  0
VERTEX
  8
1
  6
CONTINUOUS
 10
61.558180
 20
57.131040
  0
SEQEND
  8
1
  6
CONTINUOUS
  0
POLYLINE
  8
1
  6
CONTINUOUS
 66
     1
  0
VERTEX
  8
1
  6
CONTINUOUS
 10
61.558176
 20
56.731040
  0
VERTEX
  8
1
  6
CONTINUOUS
 10
65.058176
 20
56.731040
  0
SEQEND
  8
1
  6
CONTINUOUS
  0
POLYLINE
  8
1
  6
CONTINUOUS
 66
     1
  0
VERTEX
  8
1
  6
CONTINUOUS
 10
69.048180
 20
57.131040
  0
VERTEX
  8
1
  6
CONTINUOUS
 10
65.858176
 20
57.131040
  0
SEQEND
  8
1
  6
CONTINUOUS
  0
POLYLINE
  8
1
  6
CONTINUOUS
 66
     1
  0
VERTEX
  8
1
  6
CONTINUOUS
 10
65.858569
 20
56.731040
  0
VERTEX
  8
1
  6
CONTINUOUS
 10
69.048180
 20
56.731040
  0
SEQEND
  8
1
  6
CONTINUOUS
  0
POLYLINE
  8
1
  6
CONTINUOUS
 66
     1
  0
VERTEX
  8
1
  6
CONTINUOUS
 10
69.048180
 20
50.761040
  0
VERTEX
  8
1
  6
CONTINUOUS
 10
69.048180
 20
45.991040
  0
SEQEND
  8
1
  6
CONTINUOUS
  0
POLYLINE
  8
1
  6
CONTINUOUS
 66
     1
  0
VERTEX
  8
1
  6
CONTINUOUS
 10
69.448180
 20
45.991040
  0
VERTEX
  8
1
  6
CONTINUOUS
 10
69.448180
 20
50.761040
  0
SEQEND
  8
1
  6
CONTINUOUS
  0
POLYLINE
  8
1
  6
CONTINUOUS
 66
     1
  0
VERTEX
  8
1
  6
CONTINUOUS
 10
69.048180
 20
56.331040
  0
VERTEX
  8
1
  6
CONTINUOUS
 10
69.048180
 20
51.561040
  0
SEQEND
  8
1
  6
CONTINUOUS
  0
POLYLINE
  8
1
  6
CONTINUOUS
 66
     1
  0
VERTEX
  8
1
  6
CONTINUOUS
 10
69.448180
 20
51.561040
  0
VERTEX
  8
1
  6
CONTINUOUS
 10
69.448180
 20
56.331040
  0
SEQEND
  8
1
  6
CONTINUOUS
  0
POLYLINE
  8
1
  6
CONTINUOUS
 66
     1
  0
VERTEX
  8
1
  6
CONTINUOUS
 10
69.048180
 20
45.591040
  0
VERTEX
  8
1
  6
CONTINUOUS
 10
61.558176
 20
45.591040
  0
SEQEND
  8
1
  6
CONTINUOUS
  0
POLYLINE
  8
1
  6
CONTINUOUS
 66
     1
  0
VERTEX
  8
1
  6
CONTINUOUS
 10
61.558180
 20
45.191040
  0
VERTEX
  8
1
  6
CONTINUOUS
 10
69.048180
 20
45.191040
  0
SEQEND
  8
1
  6
CONTINUOUS
  0
POLYLINE
  8
1
  6
CONTINUOUS
 66
     1
  0
VERTEX
  8
1
  6
CONTINUOUS
 10
72.971725
 20
61.830079
  0
VERTEX
  8
1
  6
CONTINUOUS
 10
70.261297
 20
61.830079
  0
SEQEND
  8
1
  6
CONTINUOUS
  0
POLYLINE
  8
1
  6
CONTINUOUS
 66
     1
  0
VERTEX
  8
1
  6
CONTINUOUS
 10
69.861297
 20
61.430079
  0
VERTEX
  8
1
  6
CONTINUOUS
 10
72.971725
 20
61.430079
  0
SEQEND
  8
1
  6
CONTINUOUS
  0
POLYLINE
  8
1
  6
CONTINUOUS
 66
     1
  0
VERTEX
  8
1
  6
CONTINUOUS
 10
72.458175
 20
45.635235
  0
VERTEX
  8
1
  6
CONTINUOUS
 10
72.458175
 20
36.101050
  0
SEQEND
  8
1
  6
CONTINUOUS
  0
POLYLINE
  8
1
  6
CONTINUOUS
 66
     1
  0
VERTEX
  8
1
  6
CONTINUOUS
 10
72.858175
 20
36.101050
  0
VERTEX
  8
1
  6
CONTINUOUS
 10
72.858175
 20
45.635235
  0
SEQEND
  8
1
  6
CONTINUOUS
  0
POLYLINE
  8
1
  6
CONTINUOUS
 66
     1
  0
VERTEX
  8
1
  6
CONTINUOUS
 10
72.458175
 20
53.935173
  0
VERTEX
  8
1
  6
CONTINUOUS
 10
72.458175
 20
46.035235
  0
SEQEND
  8
1
  6
CONTINUOUS
  0
POLYLINE
  8
1
  6
CONTINUOUS
 66
     1
  0
VERTEX
  8
1
  6
CONTINUOUS
 10
72.858175
 20
46.035235
  0
VERTEX
  8
1
  6
CONTINUOUS
 10
72.858175
 20
53.935173
  0
SEQEND
  8
1
  6
CONTINUOUS
  0
POLYLINE
  8
1
  6
CONTINUOUS
 66
     1
  0
VERTEX
  8
1
  6
CONTINUOUS
 10
73.551725
 20
54.335173
  0
VERTEX
  8
1
  6
CONTINUOUS
 10
72.858175
 20
54.335173
  0
SEQEND
  8
1
  6
CONTINUOUS
  0
POLYLINE
  8
1
  6
CONTINUOUS
 66
     1
  0
VERTEX
  8
1
  6
CONTINUOUS
 10
72.858175
 20
53.935173
  0
VERTEX
  8
1
  6
CONTINUOUS
 10
73.831725
 20
53.935173
  0
SEQEND
  8
1
  6
CONTINUOUS
  0
POLYLINE
  8
1
  6
CONTINUOUS
 66
     1
  0
VERTEX
  8
1
  6
CONTINUOUS
 10
73.551725
 20
61.430079
  0
VERTEX
  8
1
  6
CONTINUOUS
 10
73.551725
 20
54.335173
  0
SEQEND
  8
1
  6
CONTINUOUS
  0
POLYLINE
  8
1
  6
CONTINUOUS
 66
     1
  0
VERTEX
  8
1
  6
CONTINUOUS
 10
73.831725
 20
53.935173
  0
VERTEX
  8
1
  6
CONTINUOUS
 10
73.831725
 20
61.430079
  0
SEQEND
  8
1
  6
CONTINUOUS
  0
POLYLINE
  8
1
  6
CONTINUOUS
 66
     1
  0
VERTEX
  8
1
  6
CONTINUOUS
 10
69.258175
 20
36.101050
  0
VERTEX
  8
1
  6
CONTINUOUS
 10
61.558180
 20
36.101050
  0
SEQEND
  8
1
  6
CONTINUOUS
  0
POLYLINE
  8
1
  6
CONTINUOUS
 66
     1
  0
VERTEX
  8
1
  6
CONTINUOUS
 10
61.558180
 20
35.701050
  0
VERTEX
  8
1
  6
CONTINUOUS
 10
69.058175
 20
35.701050
  0
SEQEND
  8
1
  6
CONTINUOUS
  0
POLYLINE
  8
1
  6
CONTINUOUS
 66
     1
  0
VERTEX
  8
1
  6
CONTINUOUS
 10
72.458175
 20
36.101050
  0
VERTEX
  8
1
  6
CONTINUOUS
 10
69.258175
 20
36.101050
  0
SEQEND
  8
1
  6
CONTINUOUS
  0
POLYLINE
  8
1
  6
CONTINUOUS
 66
     1
  0
VERTEX
  8
1
  6
CONTINUOUS
 10
69.458175
 20
35.701050
  0
VERTEX
  8
1
  6
CONTINUOUS
 10
72.458175
 20
35.701050
  0
SEQEND
  8
1
  6
CONTINUOUS
  0
POLYLINE
  8
1
  6
CONTINUOUS
 66
     1
  0
VERTEX
  8
1
  6
CONTINUOUS
 10
77.887807
 20
36.101050
  0
VERTEX
  8
1
  6
CONTINUOUS
 10
73.258175
 20
36.101050
  0
SEQEND
  8
1
  6
CONTINUOUS
  0
POLYLINE
  8
1
  6
CONTINUOUS
 66
     1
  0
VERTEX
  8
1
  6
CONTINUOUS
 10
73.258175
 20
35.701050
  0
VERTEX
  8
1
  6
CONTINUOUS
 10
77.670164
 20
35.701050
  0
SEQEND
  8
1
  6
CONTINUOUS
  0
POLYLINE
  8
1
  6
CONTINUOUS
 66
     1
  0
VERTEX
  8
1
  6
CONTINUOUS
 10
81.247110
 20
36.101050
  0
VERTEX
  8
1
  6
CONTINUOUS
 10
77.887807
 20
36.101050
  0
SEQEND
  8
1
  6
CONTINUOUS
  0
POLYLINE
  8
1
  6
ESTILO_TQS_0001
 66
     1
  0
VERTEX
  8
1
  6
ESTILO_TQS_0001
 10
78.071594
 20
35.701050
  0
VERTEX
  8
1
  6
ESTILO_TQS_0001
 10
81.247110
 20
35.701050
  0
SEQEND
  8
1
  6
ESTILO_TQS_0001
  0
POLYLINE
  8
1
  6
CONTINUOUS
 66
     1
  0
VERTEX
  8
1
  6
CONTINUOUS
 10
77.670164
 20
36.101050
  0
VERTEX
  8
1
  6
CONTINUOUS
 10
77.670164
 20
35.701050
  0
SEQEND
  8
1
  6
CONTINUOUS
  0
POLYLINE
  8
1
  6
CONTINUOUS
 66
     1
  0
VERTEX
  8
1
  6
CONTINUOUS
 10
69.058175
 20
35.701050
  0
VERTEX
  8
1
  6
CONTINUOUS
 10
69.058175
 20
29.893763
  0
SEQEND
  8
1
  6
CONTINUOUS
  0
POLYLINE
  8
1
  6
CONTINUOUS
 66
     1
  0
VERTEX
  8
1
  6
CONTINUOUS
 10
69.458175
 20
29.893763
  0
VERTEX
  8
1
  6
CONTINUOUS
 10
69.458175
 20
35.701050
  0
SEQEND
  8
1
  6
CONTINUOUS
  0
POLYLINE
  8
1
  6
CONTINUOUS
 66
     1
  0
VERTEX
  8
1
  6
CONTINUOUS
 10
75.634219
 20
11.646083
  0
VERTEX
  8
1
  6
CONTINUOUS
 10
75.216324
 20
6.708597
  0
SEQEND
  8
1
  6
CONTINUOUS
  0
POLYLINE
  8
1
  6
ESTILO_TQS_0001
 66
     1
  0
VERTEX
  8
1
  6
ESTILO_TQS_0001
 10
75.617754
 20
6.708597
  0
VERTEX
  8
1
  6
ESTILO_TQS_0001
 10
76.032794
 20
11.612347
  0
SEQEND
  8
1
  6
ESTILO_TQS_0001
  0
POLYLINE
  8
1
  6
CONTINUOUS
 66
     1
  0
VERTEX
  8
1
  6
CONTINUOUS
 10
76.674056
 20
23.931899
  0
VERTEX
  8
1
  6
CONTINUOUS
 10
75.718555
 20
12.642520
  0
SEQEND
  8
1
  6
CONTINUOUS
  0
POLYLINE
  8
1
  6
ESTILO_TQS_0001
 66
     1
  0
VERTEX
  8
1
  6
ESTILO_TQS_0001
 10
76.117129
 20
12.608785
  0
VERTEX
  8
1
  6
ESTILO_TQS_0001
 10
77.072631
 20
23.898163
  0
SEQEND
  8
1
  6
ESTILO_TQS_0001
  0
POLYLINE
  8
1
  6
CONTINUOUS
 66
     1
  0
VERTEX
  8
1
  6
CONTINUOUS
 10
77.670164
 20
35.701050
  0
VERTEX
  8
1
  6
CONTINUOUS
 10
76.758392
 20
24.928336
  0
SEQEND
  8
1
  6
CONTINUOUS
  0
POLYLINE
  8
1
  6
ESTILO_TQS_0001
 66
     1
  0
VERTEX
  8
1
  6
ESTILO_TQS_0001
 10
77.156967
 20
24.894601
  0
VERTEX
  8
1
  6
ESTILO_TQS_0001
 10
78.071594
 20
35.701050
  0
SEQEND
  8
1
  6
ESTILO_TQS_0001
  0
LINE
  8
1
  6
CONTINUOUS
 10
61.358176
 20
45.591045
 11
61.358176
 21
45.591045
  0
POLYLINE
  8
1
  6
CONTINUOUS
 66
     1
  0
VERTEX
  8
1
  6
CONTINUOUS
 10
61.158176
 20
45.191045
  0
VERTEX
  8
1
  6
CONTINUOUS
 10
61.558176
 20
45.191045
  0
VERTEX
  8
1
  6
CONTINUOUS
 10
61.558176
 20
45.991045
  0
VERTEX
  8
1
  6
CONTINUOUS
 10
61.158176
 20
45.991045
  0
VERTEX
  8
1
  6
CONTINUOUS
 10
61.158176
 20
45.191045
  0
SEQEND
  8
1
  6
CONTINUOUS
  0
LINE
  8
1
  6
CONTINUOUS
 10
19.926562
 20
11.208597
 11
19.926562
 21
11.208597
  0
POLYLINE
  8
1
  6
CONTINUOUS
 66
     1
  0
VERTEX
  8
1
  6
CONTINUOUS
 10
19.726562
 20
11.008597
  0
VERTEX
  8
1
  6
CONTINUOUS
 10
20.126562
 20
11.008597
  0
VERTEX
  8
1
  6
CONTINUOUS
 10
20.126562
 20
11.408597
  0
VERTEX
  8
1
  6
CONTINUOUS
 10
19.726562
 20
11.408597
  0
VERTEX
  8
1
  6
CONTINUOUS
 10
19.726562
 20
11.008597
  0
SEQEND
  8
1
  6
CONTINUOUS
  0
LINE
  8
1
  6
CONTINUOUS
 10
45.220820
 20
11.208597
 11
45.220820
 21
11.208597
  0
POLYLINE
  8
1
  6
CONTINUOUS
 66
     1
  0
VERTEX
  8
1
  6
CONTINUOUS
 10
45.020820
 20
11.008597
  0
VERTEX
  8
1
  6
CONTINUOUS
 10
45.420820
 20
11.008597
  0
VERTEX
  8
1
  6
CONTINUOUS
 10
45.420820
 20
11.408597
  0
VERTEX
  8
1
  6
CONTINUOUS
 10
45.020820
 20
11.408597
  0
VERTEX
  8
1
  6
CONTINUOUS
 10
45.020820
 20
11.008597
  0
SEQEND
  8
1
  6
CONTINUOUS
  0
LINE
  8
1
  6
CONTINUOUS
 10
58.520820
 20
13.908597
 11
58.520820
 21
13.908597
  0
POLYLINE
  8
1
  6
CONTINUOUS
 66
     1
  0
VERTEX
  8
1
  6
CONTINUOUS
 10
58.320820
 20
13.708597
  0
VERTEX
  8
1
  6
CONTINUOUS
 10
58.720820
 20
13.708597
  0
VERTEX
  8
1
  6
CONTINUOUS
 10
58.720820
 20
14.108597
  0
VERTEX
  8
1
  6
CONTINUOUS
 10
58.320820
 20
14.108597
  0
VERTEX
  8
1
  6
CONTINUOUS
 10
58.320820
 20
13.708597
  0
SEQEND
  8
1
  6
CONTINUOUS
  0
LINE
  8
1
  6
CONTINUOUS
 10
45.220820
 20
23.088597
 11
45.220820
 21
23.088597
  0
POLYLINE
  8
1
  6
CONTINUOUS
 66
     1
  0
VERTEX
  8
1
  6
CONTINUOUS
 10
45.020820
 20
22.888597
  0
VERTEX
  8
1
  6
CONTINUOUS
 10
45.420820
 20
22.888597
  0
VERTEX
  8
1
  6
CONTINUOUS
 10
45.420820
 20
23.288597
  0
VERTEX
  8
1
  6
CONTINUOUS
 10
45.020820
 20
23.288597
  0
VERTEX
  8
1
  6
CONTINUOUS
 10
45.020820
 20
22.888597
  0
SEQEND
  8
1
  6
CONTINUOUS
  0
LINE
  8
1
  6
CONTINUOUS
 10
58.520820
 20
23.088597
 11
58.520820
 21
23.088597
  0
POLYLINE
  8
1
  6
CONTINUOUS
 66
     1
  0
VERTEX
  8
1
  6
CONTINUOUS
 10
58.320820
 20
22.888597
  0
VERTEX
  8
1
  6
CONTINUOUS
 10
58.720820
 20
22.888597
  0
VERTEX
  8
1
  6
CONTINUOUS
 10
58.720820
 20
23.288597
  0
VERTEX
  8
1
  6
CONTINUOUS
 10
58.320820
 20
23.288597
  0
VERTEX
  8
1
  6
CONTINUOUS
 10
58.320820
 20
22.888597
  0
SEQEND
  8
1
  6
CONTINUOUS
  0
LINE
  8
1
  6
CONTINUOUS
 10
45.220820
 20
29.693763
 11
45.220820
 21
29.693763
  0
POLYLINE
  8
1
  6
CONTINUOUS
 66
     1
  0
VERTEX
  8
1
  6
CONTINUOUS
 10
45.020820
 20
29.493763
  0
VERTEX
  8
1
  6
CONTINUOUS
 10
45.420820
 20
29.493763
  0
VERTEX
  8
1
  6
CONTINUOUS
 10
45.420820
 20
29.893763
  0
VERTEX
  8
1
  6
CONTINUOUS
 10
45.020820
 20
29.893763
  0
VERTEX
  8
1
  6
CONTINUOUS
 10
45.020820
 20
29.493763
  0
SEQEND
  8
1
  6
CONTINUOUS
  0
LINE
  8
1
  6
CONTINUOUS
 10
61.158180
 20
35.901050
 11
61.158180
 21
35.901050
  0
POLYLINE
  8
1
  6
CONTINUOUS
 66
     1
  0
VERTEX
  8
1
  6
CONTINUOUS
 10
60.758180
 20
35.701050
  0
VERTEX
  8
1
  6
CONTINUOUS
 10
61.558180
 20
35.701050
  0
VERTEX
  8
1
  6
CONTINUOUS
 10
61.558180
 20
36.101050
  0
VERTEX
  8
1
  6
CONTINUOUS
 10
60.758180
 20
36.101050
  0
VERTEX
  8
1
  6
CONTINUOUS
 10
60.758180
 20
35.701050
  0
SEQEND
  8
1
  6
CONTINUOUS
  0
LINE
  8
1
  6
CONTINUOUS
 10
58.520820
 20
6.508597
 11
58.520820
 21
6.508597
  0
POLYLINE
  8
1
  6
CONTINUOUS
 66
     1
  0
VERTEX
  8
1
  6
CONTINUOUS
 10
58.320820
 20
6.308597
  0
VERTEX
  8
1
  6
CONTINUOUS
 10
58.720820
 20
6.308597
  0
VERTEX
  8
1
  6
CONTINUOUS
 10
58.720820
 20
6.708597
  0
VERTEX
  8
1
  6
CONTINUOUS
 10
58.320820
 20
6.708597
  0
VERTEX
  8
1
  6
CONTINUOUS
 10
58.320820
 20
6.308597
  0
SEQEND
  8
1
  6
CONTINUOUS
  0
LINE
  8
1
  6
CONTINUOUS
 10
81.447110
 20
16.208597
 11
81.447110
 21
16.208597
  0
POLYLINE
  8
1
  6
CONTINUOUS
 66
     1
  0
VERTEX
  8
1
  6
CONTINUOUS
 10
81.247110
 20
16.008597
  0
VERTEX
  8
1
  6
CONTINUOUS
 10
81.647110
 20
16.008597
  0
VERTEX
  8
1
  6
CONTINUOUS
 10
81.647110
 20
16.408597
  0
VERTEX
  8
1
  6
CONTINUOUS
 10
81.247110
 20
16.408597
  0
VERTEX
  8
1
  6
CONTINUOUS
 10
81.247110
 20
16.008597
  0
SEQEND
  8
1
  6
CONTINUOUS
  0
LINE
  8
1
  6
CONTINUOUS
 10
81.447110
 20
26.101050
 11
81.447110
 21
26.101050
  0
POLYLINE
  8
1
  6
CONTINUOUS
 66
     1
  0
VERTEX
  8
1
  6
CONTINUOUS
 10
81.247110
 20
25.901050
  0
VERTEX
  8
1
  6
CONTINUOUS
 10
81.647110
 20
25.901050
  0
VERTEX
  8
1
  6
CONTINUOUS
 10
81.647110
 20
26.301050
  0
VERTEX
  8
1
  6
CONTINUOUS
 10
81.247110
 20
26.301050
  0
VERTEX
  8
1
  6
CONTINUOUS
 10
81.247110
 20
25.901050
  0
SEQEND
  8
1
  6
CONTINUOUS
  0
LINE
  8
1
  6
CONTINUOUS
 10
81.447110
 20
35.901050
 11
81.447110
 21
35.901050
  0
POLYLINE
  8
1
  6
CONTINUOUS
 66
     1
  0
VERTEX
  8
1
  6
CONTINUOUS
 10
81.247110
 20
35.701050
  0
VERTEX
  8
1
  6
CONTINUOUS
 10
81.647110
 20
35.701050
  0
VERTEX
  8
1
  6
CONTINUOUS
 10
81.647110
 20
36.101050
  0
VERTEX
  8
1
  6
CONTINUOUS
 10
81.247110
 20
36.101050
  0
VERTEX
  8
1
  6
CONTINUOUS
 10
81.247110
 20
35.701050
  0
SEQEND
  8
1
  6
CONTINUOUS
  0
LINE
  8
1
  6
CONTINUOUS
 10
81.447110
 20
6.508597
 11
81.447110
 21
6.508597
  0
POLYLINE
  8
1
  6
CONTINUOUS
 66
     1
  0
VERTEX
  8
1
  6
CONTINUOUS
 10
81.247110
 20
6.308597
  0
VERTEX
  8
1
  6
CONTINUOUS
 10
81.647110
 20
6.308597
  0
VERTEX
  8
1
  6
CONTINUOUS
 10
81.647110
 20
6.708597
  0
VERTEX
  8
1
  6
CONTINUOUS
 10
81.247110
 20
6.708597
  0
VERTEX
  8
1
  6
CONTINUOUS
 10
81.247110
 20
6.308597
  0
SEQEND
  8
1
  6
CONTINUOUS
  0
LINE
  8
1
  6
CONTINUOUS
 10
61.358176
 20
69.180912
 11
61.358176
 21
69.180912
  0
POLYLINE
  8
1
  6
CONTINUOUS
 66
     1
  0
VERTEX
  8
1
  6
CONTINUOUS
 10
61.158176
 20
66.830912
  0
VERTEX
  8
1
  6
CONTINUOUS
 10
61.558176
 20
66.830912
  0
VERTEX
  8
1
  6
CONTINUOUS
 10
61.558176
 20
71.530912
  0
VERTEX
  8
1
  6
CONTINUOUS
 10
61.158176
 20
71.530912
  0
VERTEX
  8
1
  6
CONTINUOUS
 10
61.158176
 20
66.830912
  0
SEQEND
  8
1
  6
CONTINUOUS
  0
LINE
  8
1
  6
CONTINUOUS
 10
70.061293
 20
69.180912
 11
70.061293
 21
69.180912
  0
POLYLINE
  8
1
  6
CONTINUOUS
 66
     1
  0
VERTEX
  8
1
  6
CONTINUOUS
 10
69.861293
 20
66.830912
  0
VERTEX
  8
1
  6
CONTINUOUS
 10
70.261293
 20
66.830912
  0
VERTEX
  8
1
  6
CONTINUOUS
 10
70.261293
 20
71.530912
  0
VERTEX
  8
1
  6
CONTINUOUS
 10
69.861293
 20
71.530912
  0
VERTEX
  8
1
  6
CONTINUOUS
 10
69.861293
 20
66.830912
  0
SEQEND
  8
1
  6
CONTINUOUS
  0
LINE
  8
1
  6
CONTINUOUS
 10
69.248180
 20
45.591040
 11
69.248180
 21
45.591040
  0
POLYLINE
  8
1
  6
CONTINUOUS
 66
     1
  0
VERTEX
  8
1
  6
CONTINUOUS
 10
69.048180
 20
45.191040
  0
VERTEX
  8
1
  6
CONTINUOUS
 10
69.448180
 20
45.191040
  0
VERTEX
  8
1
  6
CONTINUOUS
 10
69.448180
 20
45.991040
  0
VERTEX
  8
1
  6
CONTINUOUS
 10
69.048180
 20
45.991040
  0
VERTEX
  8
1
  6
CONTINUOUS
 10
69.048180
 20
45.191040
  0
SEQEND
  8
1
  6
CONTINUOUS
  0
LINE
  8
1
  6
CONTINUOUS
 10
69.248180
 20
56.731040
 11
69.248180
 21
56.731040
  0
POLYLINE
  8
1
  6
CONTINUOUS
 66
     1
  0
VERTEX
  8
1
  6
CONTINUOUS
 10
69.048180
 20
56.331040
  0
VERTEX
  8
1
  6
CONTINUOUS
 10
69.448180
 20
56.331040
  0
VERTEX
  8
1
  6
CONTINUOUS
 10
69.448180
 20
57.131040
  0
VERTEX
  8
1
  6
CONTINUOUS
 10
69.048180
 20
57.131040
  0
VERTEX
  8
1
  6
CONTINUOUS
 10
69.048180
 20
56.331040
  0
SEQEND
  8
1
  6
CONTINUOUS
  0
LINE
  8
1
  6
CONTINUOUS
 10
65.458176
 20
56.931045
 11
65.458176
 21
56.931045
  0
POLYLINE
  8
1
  6
CONTINUOUS
 66
     1
  0
VERTEX
  8
1
  6
CONTINUOUS
 10
65.058176
 20
56.731045
  0
VERTEX
  8
1
  6
CONTINUOUS
 10
65.858176
 20
56.731045
  0
VERTEX
  8
1
  6
CONTINUOUS
 10
65.858176
 20
57.131045
  0
VERTEX
  8
1
  6
CONTINUOUS
 10
65.058176
 20
57.131045
  0
VERTEX
  8
1
  6
CONTINUOUS
 10
65.058176
 20
56.731045
  0
SEQEND
  8
1
  6
CONTINUOUS
  0
LINE
  8
1
  6
CONTINUOUS
 10
65.458176
 20
52.731045
 11
65.458176
 21
52.731045
  0
POLYLINE
  8
1
  6
CONTINUOUS
 66
     1
  0
VERTEX
  8
1
  6
CONTINUOUS
 10
65.058176
 20
52.531045
  0
VERTEX
  8
1
  6
CONTINUOUS
 10
65.858176
 20
52.531045
  0
VERTEX
  8
1
  6
CONTINUOUS
 10
65.858176
 20
52.931045
  0
VERTEX
  8
1
  6
CONTINUOUS
 10
65.058176
 20
52.931045
  0
VERTEX
  8
1
  6
CONTINUOUS
 10
65.058176
 20
52.531045
  0
SEQEND
  8
1
  6
CONTINUOUS
  0
LINE
  8
1
  6
CONTINUOUS
 10
69.248180
 20
51.161040
 11
69.248180
 21
51.161040
  0
POLYLINE
  8
1
  6
CONTINUOUS
 66
     1
  0
VERTEX
  8
1
  6
CONTINUOUS
 10
69.048180
 20
50.761040
  0
VERTEX
  8
1
  6
CONTINUOUS
 10
69.448180
 20
50.761040
  0
VERTEX
  8
1
  6
CONTINUOUS
 10
69.448180
 20
51.561040
  0
VERTEX
  8
1
  6
CONTINUOUS
 10
69.048180
 20
51.561040
  0
VERTEX
  8
1
  6
CONTINUOUS
 10
69.048180
 20
50.761040
  0
SEQEND
  8
1
  6
CONTINUOUS
  0
LINE
  8
1
  6
CONTINUOUS
 10
61.358176
 20
54.831040
 11
61.358176
 21
54.831040
  0
POLYLINE
  8
1
  6
CONTINUOUS
 66
     1
  0
VERTEX
  8
1
  6
CONTINUOUS
 10
61.158176
 20
52.531040
  0
VERTEX
  8
1
  6
CONTINUOUS
 10
61.558176
 20
52.531040
  0
VERTEX
  8
1
  6
CONTINUOUS
 10
61.558176
 20
57.131040
  0
VERTEX
  8
1
  6
CONTINUOUS
 10
61.158176
 20
57.131040
  0
VERTEX
  8
1
  6
CONTINUOUS
 10
61.158176
 20
52.531040
  0
SEQEND
  8
1
  6
CONTINUOUS
  0
LINE
  8
1
  6
CONTINUOUS
 10
75.875674
 20
12.127434
 11
75.875674
 21
12.127434
  0
POLYLINE
  8
1
  6
CONTINUOUS
 66
     1
  0
VERTEX
  8
1
  6
CONTINUOUS
 10
76.032792
 20
11.612348
  0
VERTEX
  8
1
  6
CONTINUOUS
 10
76.117131
 20
12.608785
  0
VERTEX
  8
1
  6
CONTINUOUS
 10
75.718556
 20
12.642520
  0
VERTEX
  8
1
  6
CONTINUOUS
 10
75.634217
 20
11.646083
  0
VERTEX
  8
1
  6
CONTINUOUS
 10
76.032792
 20
11.612348
  0
SEQEND
  8
1
  6
CONTINUOUS
  0
LINE
  8
1
  6
CONTINUOUS
 10
76.915477
 20
24.413253
 11
76.915477
 21
24.413253
  0
POLYLINE
  8
1
  6
CONTINUOUS
 66
     1
  0
VERTEX
  8
1
  6
CONTINUOUS
 10
77.072595
 20
23.898166
  0
VERTEX
  8
1
  6
CONTINUOUS
 10
77.156934
 20
24.894604
  0
VERTEX
  8
1
  6
CONTINUOUS
 10
76.758359
 20
24.928339
  0
VERTEX
  8
1
  6
CONTINUOUS
 10
76.674020
 20
23.931902
  0
VERTEX
  8
1
  6
CONTINUOUS
 10
77.072595
 20
23.898166
  0
SEQEND
  8
1
  6
CONTINUOUS
  0
LINE
  8
1
  6
CONTINUOUS
 10
19.926562
 20
29.693763
 11
19.926562
 21
29.693763
  0
POLYLINE
  8
1
  6
CONTINUOUS
 66
     1
  0
VERTEX
  8
1
  6
CONTINUOUS
 10
19.726562
 20
29.493763
  0
VERTEX
  8
1
  6
CONTINUOUS
 10
20.126562
 20
29.493763
  0
VERTEX
  8
1
  6
CONTINUOUS
 10
20.126562
 20
29.893763
  0
VERTEX
  8
1
  6
CONTINUOUS
 10
19.726562
 20
29.893763
  0
VERTEX
  8
1
  6
CONTINUOUS
 10
19.726562
 20
29.493763
  0
SEQEND
  8
1
  6
CONTINUOUS
  0
LINE
  8
1
  6
CONTINUOUS
 10
72.658175
 20
45.835235
 11
72.658175
 21
45.835235
  0
POLYLINE
  8
1
  6
CONTINUOUS
 66
     1
  0
VERTEX
  8
1
  6
CONTINUOUS
 10
72.458175
 20
45.635235
  0
VERTEX
  8
1
  6
CONTINUOUS
 10
72.858175
 20
45.635235
  0
VERTEX
  8
1
  6
CONTINUOUS
 10
72.858175
 20
46.035235
  0
VERTEX
  8
1
  6
CONTINUOUS
 10
72.458175
 20
46.035235
  0
VERTEX
  8
1
  6
CONTINUOUS
 10
72.458175
 20
45.635235
  0
SEQEND
  8
1
  6
CONTINUOUS
  0
LINE
  8
1
  6
CONTINUOUS
 10
72.658175
 20
54.135173
 11
72.658175
 21
54.135173
  0
POLYLINE
  8
1
  6
CONTINUOUS
 66
     1
  0
VERTEX
  8
1
  6
CONTINUOUS
 10
72.458175
 20
53.935173
  0
VERTEX
  8
1
  6
CONTINUOUS
 10
72.858175
 20
53.935173
  0
VERTEX
  8
1
  6
CONTINUOUS
 10
72.858175
 20
54.335173
  0
VERTEX
  8
1
  6
CONTINUOUS
 10
72.458175
 20
54.335173
  0
VERTEX
  8
1
  6
CONTINUOUS
 10
72.458175
 20
53.935173
  0
SEQEND
  8
1
  6
CONTINUOUS
  0
LINE
  8
1
  6
CONTINUOUS
 10
73.401725
 20
61.630079
 11
73.401725
 21
61.630079
  0
POLYLINE
  8
1
  6
CONTINUOUS
 66
     1
  0
VERTEX
  8
1
  6
CONTINUOUS
 10
72.971725
 20
61.430079
  0
VERTEX
  8
1
  6
CONTINUOUS
 10
73.831725
 20
61.430079
  0
VERTEX
  8
1
  6
CONTINUOUS
 10
73.831725
 20
61.830079
  0
VERTEX
  8
1
  6
CONTINUOUS
 10
72.971725
 20
61.830079
  0
VERTEX
  8
1
  6
CONTINUOUS
 10
72.971725
 20
61.430079
  0
SEQEND
  8
1
  6
CONTINUOUS
  0
LINE
  8
1
  6
CONTINUOUS
 10
72.858175
 20
35.901050
 11
72.858175
 21
35.901050
  0
POLYLINE
  8
1
  6
CONTINUOUS
 66
     1
  0
VERTEX
  8
1
  6
CONTINUOUS
 10
72.458175
 20
35.701050
  0
VERTEX
  8
1
  6
CONTINUOUS
 10
73.258175
 20
35.701050
  0
VERTEX
  8
1
  6
CONTINUOUS
 10
73.258175
 20
36.101050
  0
VERTEX
  8
1
  6
CONTINUOUS
 10
72.458175
 20
36.101050
  0
VERTEX
  8
1
  6
CONTINUOUS
 10
72.458175
 20
35.701050
  0
SEQEND
  8
1
  6
CONTINUOUS
  0
LINE
  8
1
  6
CONTINUOUS
 10
58.510437
 20
29.693763
 11
58.510437
 21
29.693763
  0
POLYLINE
  8
1
  6
CONTINUOUS
 66
     1
  0
VERTEX
  8
1
  6
CONTINUOUS
 10
58.310437
 20
29.493763
  0
VERTEX
  8
1
  6
CONTINUOUS
 10
58.710437
 20
29.493763
  0
VERTEX
  8
1
  6
CONTINUOUS
 10
58.710437
 20
29.893763
  0
VERTEX
  8
1
  6
CONTINUOUS
 10
58.310437
 20
29.893763
  0
VERTEX
  8
1
  6
CONTINUOUS
 10
58.310437
 20
29.493763
  0
SEQEND
  8
1
  6
CONTINUOUS
  0
LINE
  8
1
  6
CONTINUOUS
 10
69.258175
 20
29.693763
 11
69.258175
 21
29.693763
  0
POLYLINE
  8
1
  6
CONTINUOUS
 66
     1
  0
VERTEX
  8
1
  6
CONTINUOUS
 10
69.058175
 20
29.493763
  0
VERTEX
  8
1
  6
CONTINUOUS
 10
69.458175
 20
29.493763
  0
VERTEX
  8
1
  6
CONTINUOUS
 10
69.458175
 20
29.893763
  0
VERTEX
  8
1
  6
CONTINUOUS
 10
69.058175
 20
29.893763
  0
VERTEX
  8
1
  6
CONTINUOUS
 10
69.058175
 20
29.493763
  0
SEQEND
  8
1
  6
CONTINUOUS
  0
LINE
  8
1
  6
CONTINUOUS
 10
31.182373
 20
11.208597
 11
31.182373
 21
11.208597
  0
POLYLINE
  8
1
  6
CONTINUOUS
 66
     1
  0
VERTEX
  8
1
  6
CONTINUOUS
 10
30.982373
 20
11.008597
  0
VERTEX
  8
1
  6
CONTINUOUS
 10
31.382373
 20
11.008597
  0
VERTEX
  8
1
  6
CONTINUOUS
 10
31.382373
 20
11.408597
  0
VERTEX
  8
1
  6
CONTINUOUS
 10
30.982373
 20
11.408597
  0
VERTEX
  8
1
  6
CONTINUOUS
 10
30.982373
 20
11.008597
  0
SEQEND
  8
1
  6
CONTINUOUS
  0
LINE
  8
1
  6
CONTINUOUS
 10
32.526562
 20
29.693763
 11
32.526562
 21
29.693763
  0
POLYLINE
  8
1
  6
CONTINUOUS
 66
     1
  0
VERTEX
  8
1
  6
CONTINUOUS
 10
32.326562
 20
29.493763
  0
VERTEX
  8
1
  6
CONTINUOUS
 10
32.726562
 20
29.493763
  0
VERTEX
  8
1
  6
CONTINUOUS
 10
32.726562
 20
29.893763
  0
VERTEX
  8
1
  6
CONTINUOUS
 10
32.326562
 20
29.893763
  0
VERTEX
  8
1
  6
CONTINUOUS
 10
32.326562
 20
29.493763
  0
SEQEND
  8
1
  6
CONTINUOUS
  0
LINE
  8
1
  6
CONTINUOUS
 10
19.926562
 20
20.451180
 11
19.926562
 21
20.451180
  0
POLYLINE
  8
1
  6
CONTINUOUS
 66
     1
  0
VERTEX
  8
1
  6
CONTINUOUS
 10
19.726562
 20
20.251180
  0
VERTEX
  8
1
  6
CONTINUOUS
 10
20.126562
 20
20.251180
  0
VERTEX
  8
1
  6
CONTINUOUS
 10
20.126562
 20
20.651180
  0
VERTEX
  8
1
  6
CONTINUOUS
 10
19.726562
 20
20.651180
  0
VERTEX
  8
1
  6
CONTINUOUS
 10
19.726562
 20
20.251180
  0
SEQEND
  8
1
  6
CONTINUOUS
  0
LINE
  8
1
  6
CONTINUOUS
 10
32.568691
 20
20.451180
 11
32.568691
 21
20.451180
  0
POLYLINE
  8
1
  6
CONTINUOUS
 66
     1
  0
VERTEX
  8
1
  6
CONTINUOUS
 10
32.368691
 20
20.251180
  0
VERTEX
  8
1
  6
CONTINUOUS
 10
32.768691
 20
20.251180
  0
VERTEX
  8
1
  6
CONTINUOUS
 10
32.768691
 20
20.651180
  0
VERTEX
  8
1
  6
CONTINUOUS
 10
32.368691
 20
20.651180
  0
VERTEX
  8
1
  6
CONTINUOUS
 10
32.368691
 20
20.251180
  0
SEQEND
  8
1
  6
CONTINUOUS
  0
LINE
  8
1
  6
CONTINUOUS
 10
69.983945
 20
18.101180
 11
69.983945
 21
18.101180
  0
POLYLINE
  8
1
  6
CONTINUOUS
 66
     1
  0
VERTEX
  8
1
  6
CONTINUOUS
 10
69.783945
 20
17.901180
  0
VERTEX
  8
1
  6
CONTINUOUS
 10
70.183945
 20
17.901180
  0
VERTEX
  8
1
  6
CONTINUOUS
 10
70.183945
 20
18.301180
  0
VERTEX
  8
1
  6
CONTINUOUS
 10
69.783945
 20
18.301180
  0
VERTEX
  8
1
  6
CONTINUOUS
 10
69.783945
 20
17.901180
  0
SEQEND
  8
1
  6
CONTINUOUS
  0
LINE
  8
1
  6
CONTINUOUS
 10
69.983965
 20
6.508597
 11
69.983965
 21
6.508597
  0
POLYLINE
  8
1
  6
CONTINUOUS
 66
     1
  0
VERTEX
  8
1
  6
CONTINUOUS
 10
69.783965
 20
6.308597
  0
VERTEX
  8
1
  6
CONTINUOUS
 10
70.183965
 20
6.308597
  0
VERTEX
  8
1
  6
CONTINUOUS
 10
70.183965
 20
6.708597
  0
VERTEX
  8
1
  6
CONTINUOUS
 10
69.783965
 20
6.708597
  0
VERTEX
  8
1
  6
CONTINUOUS
 10
69.783965
 20
6.308597
  0
SEQEND
  8
1
  6
CONTINUOUS
  0
LINE
  8
4
  6
CONTINUOUS
 10
19.926562
 20
28.962472
 11
19.026562
 21
28.962472
  0
LINE
  8
4
  6
CONTINUOUS
 10
19.026562
 20
29.029972
 11
19.026562
 21
28.894972
  0
LINE
  8
4
  6
CONTINUOUS
 10
19.026562
 20
29.029972
 11
18.126562
 21
28.962472
  0
LINE
  8
4
  6
CONTINUOUS
 10
19.026562
 20
28.894972
 11
18.126562
 21
28.962472
  0
LINE
  8
4
  6
CONTINUOUS
 10
19.296562
 20
29.097472
 11
19.296562
 21
28.827472
  0
LINE
  8
4
  6
CONTINUOUS
 10
75.914222
 20
28.962472
 11
77.114222
 21
28.962472
  0
LINE
  8
4
  6
CONTINUOUS
 10
77.114222
 20
28.842472
 11
77.114222
 21
29.082472
  0
LINE
  8
4
  6
CONTINUOUS
 10
77.090222
 20
28.842472
 11
77.090222
 21
29.082472
  0
LINE
  8
4
  6
CONTINUOUS
 10
77.066222
 20
28.842472
 11
77.066222
 21
29.082472
  0
POLYLINE
  8
4
  6
CONTINUOUS
 66
     1
  0
VERTEX
  8
4
  6
CONTINUOUS
 10
75.914222
 20
28.962472
  0
VERTEX
  8
4
  6
CONTINUOUS
 10
19.926562
 20
28.962472
  0
SEQEND
  8
4
  6
CONTINUOUS
  0
LINE
  8
4
  6
CONTINUOUS
 10
19.926562
 20
27.942472
 11
19.026562
 21
27.942472
  0
LINE
  8
4
  6
CONTINUOUS
 10
19.026562
 20
28.009972
 11
19.026562
 21
27.874972
  0
LINE
  8
4
  6
CONTINUOUS
 10
19.026562
 20
28.009972
 11
18.126562
 21
27.942472
  0
LINE
  8
4
  6
CONTINUOUS
 10
19.026562
 20
27.874972
 11
18.126562
 21
27.942472
  0
LINE
  8
4
  6
CONTINUOUS
 10
19.296562
 20
28.077472
 11
19.296562
 21
27.807472
  0
LINE
  8
4
  6
CONTINUOUS
 10
75.914222
 20
27.942472
 11
77.114222
 21
27.942472
  0
LINE
  8
4
  6
CONTINUOUS
 10
77.114222
 20
27.822472
 11
77.114222
 21
28.062472
  0
LINE
  8
4
  6
CONTINUOUS
 10
77.090222
 20
27.822472
 11
77.090222
 21
28.062472
  0
LINE
  8
4
  6
CONTINUOUS
 10
77.066222
 20
27.822472
 11
77.066222
 21
28.062472
  0
POLYLINE
  8
4
  6
CONTINUOUS
 66
     1
  0
VERTEX
  8
4
  6
CONTINUOUS
 10
75.914222
 20
27.942472
  0
VERTEX
  8
4
  6
CONTINUOUS
 10
19.926562
 20
27.942472
  0
SEQEND
  8
4
  6
CONTINUOUS
  0
LINE
  8
4
  6
CONTINUOUS
 10
19.926562
 20
26.922472
 11
19.026562
 21
26.922472
  0
LINE
  8
4
  6
CONTINUOUS
 10
19.026562
 20
26.989972
 11
19.026562
 21
26.854972
  0
LINE
  8
4
  6
CONTINUOUS
 10
19.026562
 20
26.989972
 11
18.126562
 21
26.922472
  0
LINE
  8
4
  6
CONTINUOUS
 10
19.026562
 20
26.854972
 11
18.126562
 21
26.922472
  0
LINE
  8
4
  6
CONTINUOUS
 10
19.296562
 20
27.057472
 11
19.296562
 21
26.787472
  0
LINE
  8
4
  6
CONTINUOUS
 10
75.914222
 20
26.922472
 11
77.114222
 21
26.922472
  0
LINE
  8
4
  6
CONTINUOUS
 10
77.114222
 20
26.802472
 11
77.114222
 21
27.042472
  0
LINE
  8
4
  6
CONTINUOUS
 10
77.090222
 20
26.802472
 11
77.090222
 21
27.042472
  0
LINE
  8
4
  6
CONTINUOUS
 10
77.066222
 20
26.802472
 11
77.066222
 21
27.042472
  0
POLYLINE
  8
4
  6
CONTINUOUS
 66
     1
  0
VERTEX
  8
4
  6
CONTINUOUS
 10
75.914222
 20
26.922472
  0
VERTEX
  8
4
  6
CONTINUOUS
 10
19.926562
 20
26.922472
  0
SEQEND
  8
4
  6
CONTINUOUS
  0
LINE
  8
4
  6
CONTINUOUS
 10
19.926562
 20
25.413034
 11
19.026562
 21
25.413034
  0
LINE
  8
4
  6
CONTINUOUS
 10
19.026562
 20
25.480534
 11
19.026562
 21
25.345534
  0
LINE
  8
4
  6
CONTINUOUS
 10
19.026562
 20
25.480534
 11
18.126562
 21
25.413034
  0
LINE
  8
4
  6
CONTINUOUS
 10
19.026562
 20
25.345534
 11
18.126562
 21
25.413034
  0
LINE
  8
4
  6
CONTINUOUS
 10
19.221563
 20
25.548034
 11
19.221563
 21
25.278034
  0
LINE
  8
4
  6
CONTINUOUS
 10
19.371562
 20
25.548034
 11
19.371562
 21
25.278034
  0
LINE
  8
4
  6
CONTINUOUS
 10
75.537625
 20
25.413034
 11
76.737625
 21
25.413034
  0
LINE
  8
4
  6
CONTINUOUS
 10
76.737625
 20
25.293034
 11
76.737625
 21
25.533034
  0
LINE
  8
4
  6
CONTINUOUS
 10
76.713625
 20
25.293034
 11
76.713625
 21
25.533034
  0
LINE
  8
4
  6
CONTINUOUS
 10
76.689625
 20
25.293034
 11
76.689625
 21
25.533034
  0
POLYLINE
  8
4
  6
CONTINUOUS
 66
     1
  0
VERTEX
  8
4
  6
CONTINUOUS
 10
75.537625
 20
25.413034
  0
VERTEX
  8
4
  6
CONTINUOUS
 10
19.926562
 20
25.413034
  0
SEQEND
  8
4
  6
CONTINUOUS
  0
LINE
  8
4
  6
CONTINUOUS
 10
19.926562
 20
23.493034
 11
19.026562
 21
23.493034
  0
LINE
  8
4
  6
CONTINUOUS
 10
19.026562
 20
23.560534
 11
19.026562
 21
23.425534
  0
LINE
  8
4
  6
CONTINUOUS
 10
19.026562
 20
23.560534
 11
18.126562
 21
23.493034
  0
LINE
  8
4
  6
CONTINUOUS
 10
19.026562
 20
23.425534
 11
18.126562
 21
23.493034
  0
LINE
  8
4
  6
CONTINUOUS
 10
19.221563
 20
23.628034
 11
19.221563
 21
23.358034
  0
LINE
  8
4
  6
CONTINUOUS
 10
19.371562
 20
23.628034
 11
19.371562
 21
23.358034
  0
LINE
  8
4
  6
CONTINUOUS
 10
75.537625
 20
23.493034
 11
76.737625
 21
23.493034
  0
LINE
  8
4
  6
CONTINUOUS
 10
76.737625
 20
23.373034
 11
76.737625
 21
23.613034
  0
LINE
  8
4
  6
CONTINUOUS
 10
76.713625
 20
23.373034
 11
76.713625
 21
23.613034
  0
LINE
  8
4
  6
CONTINUOUS
 10
76.689625
 20
23.373034
 11
76.689625
 21
23.613034
  0
POLYLINE
  8
4
  6
CONTINUOUS
 66
     1
  0
VERTEX
  8
4
  6
CONTINUOUS
 10
75.537625
 20
23.493034
  0
VERTEX
  8
4
  6
CONTINUOUS
 10
19.926562
 20
23.493034
  0
SEQEND
  8
4
  6
CONTINUOUS
  0
LINE
  8
4
  6
CONTINUOUS
 10
19.926562
 20
21.573034
 11
19.026562
 21
21.573034
  0
LINE
  8
4
  6
CONTINUOUS
 10
19.026562
 20
21.640534
 11
19.026562
 21
21.505534
  0
LINE
  8
4
  6
CONTINUOUS
 10
19.026562
 20
21.640534
 11
18.126562
 21
21.573034
  0
LINE
  8
4
  6
CONTINUOUS
 10
19.026562
 20
21.505534
 11
18.126562
 21
21.573034
  0
LINE
  8
4
  6
CONTINUOUS
 10
19.221563
 20
21.708034
 11
19.221563
 21
21.438034
  0
LINE
  8
4
  6
CONTINUOUS
 10
19.371562
 20
21.708034
 11
19.371562
 21
21.438034
  0
LINE
  8
4
  6
CONTINUOUS
 10
75.537625
 20
21.573034
 11
76.737625
 21
21.573034
  0
LINE
  8
4
  6
CONTINUOUS
 10
76.737625
 20
21.453034
 11
76.737625
 21
21.693034
  0
LINE
  8
4
  6
CONTINUOUS
 10
76.713625
 20
21.453034
 11
76.713625
 21
21.693034
  0
LINE
  8
4
  6
CONTINUOUS
 10
76.689625
 20
21.453034
 11
76.689625
 21
21.693034
  0
POLYLINE
  8
4
  6
CONTINUOUS
 66
     1
  0
VERTEX
  8
4
  6
CONTINUOUS
 10
75.537625
 20
21.573034
  0
VERTEX
  8
4
  6
CONTINUOUS
 10
19.926562
 20
21.573034
  0
SEQEND
  8
4
  6
CONTINUOUS
  0
LINE
  8
4
  6
CONTINUOUS
 10
19.926562
 20
19.864102
 11
19.026562
 21
19.864102
  0
LINE
  8
4
  6
CONTINUOUS
 10
19.026562
 20
19.931602
 11
19.026562
 21
19.796602
  0
LINE
  8
4
  6
CONTINUOUS
 10
19.026562
 20
19.931602
 11
18.126562
 21
19.864102
  0
LINE
  8
4
  6
CONTINUOUS
 10
19.026562
 20
19.796602
 11
18.126562
 21
19.864102
  0
LINE
  8
4
  6
CONTINUOUS
 10
19.221563
 20
19.999102
 11
19.221563
 21
19.729102
  0
LINE
  8
4
  6
CONTINUOUS
 10
19.371562
 20
19.999102
 11
19.371562
 21
19.729102
  0
LINE
  8
4
  6
CONTINUOUS
 10
75.108606
 20
19.864102
 11
76.308606
 21
19.864102
  0
LINE
  8
4
  6
CONTINUOUS
 10
76.308606
 20
19.744102
 11
76.308606
 21
19.984102
  0
LINE
  8
4
  6
CONTINUOUS
 10
76.284606
 20
19.744102
 11
76.284606
 21
19.984102
  0
LINE
  8
4
  6
CONTINUOUS
 10
76.260606
 20
19.744102
 11
76.260606
 21
19.984102
  0
POLYLINE
  8
4
  6
CONTINUOUS
 66
     1
  0
VERTEX
  8
4
  6
CONTINUOUS
 10
75.108606
 20
19.864102
  0
VERTEX
  8
4
  6
CONTINUOUS
 10
19.926562
 20
19.864102
  0
SEQEND
  8
4
  6
CONTINUOUS
  0
LINE
  8
4
  6
CONTINUOUS
 10
19.926562
 20
18.424102
 11
19.026562
 21
18.424102
  0
LINE
  8
4
  6
CONTINUOUS
 10
19.026562
 20
18.491602
 11
19.026562
 21
18.356602
  0
LINE
  8
4
  6
CONTINUOUS
 10
19.026562
 20
18.491602
 11
18.126562
 21
18.424102
  0
LINE
  8
4
  6
CONTINUOUS
 10
19.026562
 20
18.356602
 11
18.126562
 21
18.424102
  0
LINE
  8
4
  6
CONTINUOUS
 10
19.221563
 20
18.559102
 11
19.221563
 21
18.289102
  0
LINE
  8
4
  6
CONTINUOUS
 10
19.371562
 20
18.559102
 11
19.371562
 21
18.289102
  0
LINE
  8
4
  6
CONTINUOUS
 10
75.108606
 20
18.424102
 11
76.308606
 21
18.424102
  0
LINE
  8
4
  6
CONTINUOUS
 10
76.308606
 20
18.304102
 11
76.308606
 21
18.544102
  0
LINE
  8
4
  6
CONTINUOUS
 10
76.284606
 20
18.304102
 11
76.284606
 21
18.544102
  0
LINE
  8
4
  6
CONTINUOUS
 10
76.260606
 20
18.304102
 11
76.260606
 21
18.544102
  0
POLYLINE
  8
4
  6
CONTINUOUS
 66
     1
  0
VERTEX
  8
4
  6
CONTINUOUS
 10
75.108606
 20
18.424102
  0
VERTEX
  8
4
  6
CONTINUOUS
 10
19.926562
 20
18.424102
  0
SEQEND
  8
4
  6
CONTINUOUS
  0
LINE
  8
4
  6
CONTINUOUS
 10
19.926562
 20
16.984102
 11
19.026562
 21
16.984102
  0
LINE
  8
4
  6
CONTINUOUS
 10
19.026562
 20
17.051602
 11
19.026562
 21
16.916602
  0
LINE
  8
4
  6
CONTINUOUS
 10
19.026562
 20
17.051602
 11
18.126562
 21
16.984102
  0
LINE
  8
4
  6
CONTINUOUS
 10
19.026562
 20
16.916602
 11
18.126562
 21
16.984102
  0
LINE
  8
4
  6
CONTINUOUS
 10
19.221563
 20
17.119102
 11
19.221563
 21
16.849102
  0
LINE
  8
4
  6
CONTINUOUS
 10
19.371562
 20
17.119102
 11
19.371562
 21
16.849102
  0
LINE
  8
4
  6
CONTINUOUS
 10
75.108606
 20
16.984102
 11
76.308606
 21
16.984102
  0
LINE
  8
4
  6
CONTINUOUS
 10
76.308606
 20
16.864102
 11
76.308606
 21
17.104102
  0
LINE
  8
4
  6
CONTINUOUS
 10
76.284606
 20
16.864102
 11
76.284606
 21
17.104102
  0
LINE
  8
4
  6
CONTINUOUS
 10
76.260606
 20
16.864102
 11
76.260606
 21
17.104102
  0
POLYLINE
  8
4
  6
CONTINUOUS
 66
     1
  0
VERTEX
  8
4
  6
CONTINUOUS
 10
75.108606
 20
16.984102
  0
VERTEX
  8
4
  6
CONTINUOUS
 10
19.926562
 20
16.984102
  0
SEQEND
  8
4
  6
CONTINUOUS
  0
LINE
  8
4
  6
CONTINUOUS
 10
19.926562
 20
15.430956
 11
19.026562
 21
15.430956
  0
LINE
  8
4
  6
CONTINUOUS
 10
19.026562
 20
15.498456
 11
19.026562
 21
15.363456
  0
LINE
  8
4
  6
CONTINUOUS
 10
19.026562
 20
15.498456
 11
18.126562
 21
15.430956
  0
LINE
  8
4
  6
CONTINUOUS
 10
19.026562
 20
15.363456
 11
18.126562
 21
15.430956
  0
LINE
  8
4
  6
CONTINUOUS
 10
19.221563
 20
15.565956
 11
19.221563
 21
15.295956
  0
LINE
  8
4
  6
CONTINUOUS
 10
19.371562
 20
15.565956
 11
19.371562
 21
15.295956
  0
LINE
  8
4
  6
CONTINUOUS
 10
74.719859
 20
15.430956
 11
75.919859
 21
15.430956
  0
LINE
  8
4
  6
CONTINUOUS
 10
75.919859
 20
15.310956
 11
75.919859
 21
15.550956
  0
LINE
  8
4
  6
CONTINUOUS
 10
75.895859
 20
15.310956
 11
75.895859
 21
15.550956
  0
LINE
  8
4
  6
CONTINUOUS
 10
75.871859
 20
15.310956
 11
75.871859
 21
15.550956
  0
POLYLINE
  8
4
  6
CONTINUOUS
 66
     1
  0
VERTEX
  8
4
  6
CONTINUOUS
 10
74.719859
 20
15.430956
  0
VERTEX
  8
4
  6
CONTINUOUS
 10
19.926562
 20
15.430956
  0
SEQEND
  8
4
  6
CONTINUOUS
  0
LINE
  8
4
  6
CONTINUOUS
 10
19.926562
 20
13.830956
 11
19.026562
 21
13.830956
  0
LINE
  8
4
  6
CONTINUOUS
 10
19.026562
 20
13.898456
 11
19.026562
 21
13.763456
  0
LINE
  8
4
  6
CONTINUOUS
 10
19.026562
 20
13.898456
 11
18.126562
 21
13.830956
  0
LINE
  8
4
  6
CONTINUOUS
 10
19.026562
 20
13.763456
 11
18.126562
 21
13.830956
  0
LINE
  8
4
  6
CONTINUOUS
 10
19.221563
 20
13.965956
 11
19.221563
 21
13.695956
  0
LINE
  8
4
  6
CONTINUOUS
 10
19.371562
 20
13.965956
 11
19.371562
 21
13.695956
  0
LINE
  8
4
  6
CONTINUOUS
 10
74.719859
 20
13.830956
 11
75.919859
 21
13.830956
  0
LINE
  8
4
  6
CONTINUOUS
 10
75.919859
 20
13.710956
 11
75.919859
 21
13.950956
  0
LINE
  8
4
  6
CONTINUOUS
 10
75.895859
 20
13.710956
 11
75.895859
 21
13.950956
  0
LINE
  8
4
  6
CONTINUOUS
 10
75.871859
 20
13.710956
 11
75.871859
 21
13.950956
  0
POLYLINE
  8
4
  6
CONTINUOUS
 66
     1
  0
VERTEX
  8
4
  6
CONTINUOUS
 10
74.719859
 20
13.830956
  0
VERTEX
  8
4
  6
CONTINUOUS
 10
19.926562
 20
13.830956
  0
SEQEND
  8
4
  6
CONTINUOUS
  0
LINE
  8
4
  6
CONTINUOUS
 10
19.926562
 20
12.230956
 11
19.026562
 21
12.230956
  0
LINE
  8
4
  6
CONTINUOUS
 10
19.026562
 20
12.298456
 11
19.026562
 21
12.163456
  0
LINE
  8
4
  6
CONTINUOUS
 10
19.026562
 20
12.298456
 11
18.126562
 21
12.230956
  0
LINE
  8
4
  6
CONTINUOUS
 10
19.026562
 20
12.163456
 11
18.126562
 21
12.230956
  0
LINE
  8
4
  6
CONTINUOUS
 10
19.221563
 20
12.365956
 11
19.221563
 21
12.095956
  0
LINE
  8
4
  6
CONTINUOUS
 10
19.371562
 20
12.365956
 11
19.371562
 21
12.095956
  0
LINE
  8
4
  6
CONTINUOUS
 10
74.719859
 20
12.230956
 11
75.919859
 21
12.230956
  0
LINE
  8
4
  6
CONTINUOUS
 10
75.919859
 20
12.110956
 11
75.919859
 21
12.350956
  0
LINE
  8
4
  6
CONTINUOUS
 10
75.895859
 20
12.110956
 11
75.895859
 21
12.350956
  0
LINE
  8
4
  6
CONTINUOUS
 10
75.871859
 20
12.110956
 11
75.871859
 21
12.350956
  0
POLYLINE
  8
4
  6
CONTINUOUS
 66
     1
  0
VERTEX
  8
4
  6
CONTINUOUS
 10
74.719859
 20
12.230956
  0
VERTEX
  8
4
  6
CONTINUOUS
 10
19.926562
 20
12.230956
  0
SEQEND
  8
4
  6
CONTINUOUS
  0
LINE
  8
4
  6
CONTINUOUS
 10
26.156562
 20
10.618597
 11
25.256562
 21
10.618597
  0
LINE
  8
4
  6
CONTINUOUS
 10
25.256562
 20
10.686097
 11
25.256562
 21
10.551097
  0
LINE
  8
4
  6
CONTINUOUS
 10
25.256562
 20
10.686097
 11
24.356562
 21
10.618597
  0
LINE
  8
4
  6
CONTINUOUS
 10
25.256562
 20
10.551097
 11
24.356562
 21
10.618597
  0
LINE
  8
4
  6
CONTINUOUS
 10
25.451563
 20
10.753597
 11
25.451563
 21
10.483597
  0
LINE
  8
4
  6
CONTINUOUS
 10
25.601562
 20
10.753597
 11
25.601562
 21
10.483597
  0
LINE
  8
4
  6
CONTINUOUS
 10
74.315930
 20
10.618597
 11
75.515930
 21
10.618597
  0
LINE
  8
4
  6
CONTINUOUS
 10
75.515930
 20
10.498597
 11
75.515930
 21
10.738597
  0
LINE
  8
4
  6
CONTINUOUS
 10
75.491930
 20
10.498597
 11
75.491930
 21
10.738597
  0
LINE
  8
4
  6
CONTINUOUS
 10
75.467930
 20
10.498597
 11
75.467930
 21
10.738597
  0
POLYLINE
  8
4
  6
CONTINUOUS
 66
     1
  0
VERTEX
  8
4
  6
CONTINUOUS
 10
74.315930
 20
10.618597
  0
VERTEX
  8
4
  6
CONTINUOUS
 10
26.156562
 20
10.618597
  0
SEQEND
  8
4
  6
CONTINUOUS
  0
LINE
  8
4
  6
CONTINUOUS
 10
26.156562
 20
9.058597
 11
25.256562
 21
9.058597
  0
LINE
  8
4
  6
CONTINUOUS
 10
25.256562
 20
9.126097
 11
25.256562
 21
8.991097
  0
LINE
  8
4
  6
CONTINUOUS
 10
25.256562
 20
9.126097
 11
24.356562
 21
9.058597
  0
LINE
  8
4
  6
CONTINUOUS
 10
25.256562
 20
8.991097
 11
24.356562
 21
9.058597
  0
LINE
  8
4
  6
CONTINUOUS
 10
25.451563
 20
9.193597
 11
25.451563
 21
8.923597
  0
LINE
  8
4
  6
CONTINUOUS
 10
25.601562
 20
9.193597
 11
25.601562
 21
8.923597
  0
LINE
  8
4
  6
CONTINUOUS
 10
74.315930
 20
9.058597
 11
75.515930
 21
9.058597
  0
LINE
  8
4
  6
CONTINUOUS
 10
75.515930
 20
8.938597
 11
75.515930
 21
9.178597
  0
LINE
  8
4
  6
CONTINUOUS
 10
75.491930
 20
8.938597
 11
75.491930
 21
9.178597
  0
LINE
  8
4
  6
CONTINUOUS
 10
75.467930
 20
8.938597
 11
75.467930
 21
9.178597
  0
POLYLINE
  8
4
  6
CONTINUOUS
 66
     1
  0
VERTEX
  8
4
  6
CONTINUOUS
 10
74.315930
 20
9.058597
  0
VERTEX
  8
4
  6
CONTINUOUS
 10
26.156562
 20
9.058597
  0
SEQEND
  8
4
  6
CONTINUOUS
  0
LINE
  8
4
  6
CONTINUOUS
 10
26.156562
 20
7.498597
 11
25.256562
 21
7.498597
  0
LINE
  8
4
  6
CONTINUOUS
 10
25.256562
 20
7.566097
 11
25.256562
 21
7.431097
  0
LINE
  8
4
  6
CONTINUOUS
 10
25.256562
 20
7.566097
 11
24.356562
 21
7.498597
  0
LINE
  8
4
  6
CONTINUOUS
 10
25.256562
 20
7.431097
 11
24.356562
 21
7.498597
  0
LINE
  8
4
  6
CONTINUOUS
 10
25.451563
 20
7.633597
 11
25.451563
 21
7.363597
  0
LINE
  8
4
  6
CONTINUOUS
 10
25.601562
 20
7.633597
 11
25.601562
 21
7.363597
  0
LINE
  8
4
  6
CONTINUOUS
 10
74.315930
 20
7.498597
 11
75.515930
 21
7.498597
  0
LINE
  8
4
  6
CONTINUOUS
 10
75.515930
 20
7.378597
 11
75.515930
 21
7.618597
  0
LINE
  8
4
  6
CONTINUOUS
 10
75.491930
 20
7.378597
 11
75.491930
 21
7.618597
  0
LINE
  8
4
  6
CONTINUOUS
 10
75.467930
 20
7.378597
 11
75.467930
 21
7.618597
  0
POLYLINE
  8
4
  6
CONTINUOUS
 66
     1
  0
VERTEX
  8
4
  6
CONTINUOUS
 10
74.315930
 20
7.498597
  0
VERTEX
  8
4
  6
CONTINUOUS
 10
26.156562
 20
7.498597
  0
SEQEND
  8
4
  6
CONTINUOUS
  0
LINE
  8
1
  6
CONTINUOUS
 10
118.000002
 20
29.700001
 11
119.000002
 21
29.700001
  0
LINE
  8
1
  6
CONTINUOUS
 10
118.000002
 20
59.400002
 11
119.000002
 21
59.400002
  0
LINE
  8
1
  6
CONTINUOUS
 10
0.000000
 20
29.700001
 11
2.500000
 21
29.700001
  0
LINE
  8
1
  6
CONTINUOUS
 10
0.000000
 20
59.400002
 11
2.500000
 21
59.400002
  0
LINE
  8
1
  6
CONTINUOUS
 10
100.500002
 20
82.999998
 11
100.500002
 21
83.999998
  0
LINE
  8
1
  6
CONTINUOUS
 10
82.000002
 20
82.999998
 11
82.000002
 21
83.999998
  0
LINE
  8
1
  6
CONTINUOUS
 10
63.500002
 20
82.999998
 11
63.500002
 21
83.999998
  0
LINE
  8
1
  6
CONTINUOUS
 10
45.000002
 20
82.999998
 11
45.000002
 21
83.999998
  0
LINE
  8
1
  6
CONTINUOUS
 10
33.050001
 20
82.999998
 11
33.050001
 21
83.999998
  0
LINE
  8
1
  6
CONTINUOUS
 10
21.100000
 20
82.999998
 11
21.100000
 21
83.999998
  0
LINE
  8
1
  6
CONTINUOUS
 10
100.500002
 20
0.000000
 11
100.500002
 21
1.000000
  0
LINE
  8
1
  6
CONTINUOUS
 10
82.000002
 20
0.000000
 11
82.000002
 21
1.000000
  0
LINE
  8
1
  6
CONTINUOUS
 10
63.500002
 20
0.000000
 11
63.500002
 21
1.000000
  0
LINE
  8
1
  6
CONTINUOUS
 10
45.000002
 20
0.000000
 11
45.000002
 21
1.000000
  0
LINE
  8
1
  6
CONTINUOUS
 10
33.050001
 20
0.000000
 11
33.050001
 21
1.000000
  0
LINE
  8
1
  6
CONTINUOUS
 10
21.100000
 20
0.000000
 11
21.100000
 21
1.000000
  0
LINE
  8
1
  6
CONTINUOUS
 10
0.000000
 20
0.000000
 11
119.000002
 21
0.000000
  0
LINE
  8
1
  6
CONTINUOUS
 10
119.000002
 20
0.000000
 11
119.000002
 21
83.999998
  0
LINE
  8
1
  6
CONTINUOUS
 10
0.000000
 20
0.000000
 11
0.000000
 21
83.999998
  0
LINE
  8
8
  6
CONTINUOUS
 10
2.500000
 20
1.000000
 11
118.000002
 21
1.000000
  0
LINE
  8
8
  6
CONTINUOUS
 10
118.000002
 20
1.000000
 11
118.000002
 21
82.999998
  0
LINE
  8
1
  6
CONTINUOUS
 10
0.000000
 20
83.999998
 11
119.000002
 21
83.999998
  0
LINE
  8
8
  6
CONTINUOUS
 10
2.500000
 20
82.999998
 11
118.000002
 21
82.999998
  0
LINE
  8
8
  6
CONTINUOUS
 10
2.500000
 20
82.999998
 11
2.500000
 21
1.000000
  0
LINE
  8
2
  6
CONTINUOUS
 10
102.650002
 20
17.625000
 11
102.650002
 21
18.125000
  0
LINE
  8
1
  6
CONTINUOUS
 10
101.700002
 20
18.200000
 11
118.000002
 21
18.200000
  0
LINE
  8
1
  6
CONTINUOUS
 10
101.700002
 20
17.700000
 11
118.000002
 21
17.700000
  0
LINE
  8
1
  6
CONTINUOUS
 10
102.200002
 20
17.700000
 11
118.000002
 21
17.700000
  0
LINE
  8
2
  6
CONTINUOUS
 10
102.650002
 20
17.125000
 11
102.650002
 21
17.625000
  0
LINE
  8
1
  6
CONTINUOUS
 10
102.200002
 20
17.700000
 11
118.000002
 21
17.700000
  0
LINE
  8
1
  6
CONTINUOUS
 10
101.700002
 20
17.200000
 11
118.000002
 21
17.200000
  0
LINE
  8
2
  6
CONTINUOUS
 10
102.650002
 20
16.700000
 11
102.650002
 21
17.200000
  0
LINE
  8
1
  6
CONTINUOUS
 10
116.008223
 20
16.000000
 11
116.008223
 21
22.200000
  0
LINE
  8
1
  6
CONTINUOUS
 10
104.850002
 20
16.000000
 11
104.850002
 21
22.200000
  0
LINE
  8
6
  6
CONTINUOUS
 10
101.700002
 20
16.000000
 11
118.000002
 21
16.000000
  0
LINE
  8
1
  6
CONTINUOUS
 10
102.650002
 20
16.000000
 11
102.650002
 21
16.700000
  0
LINE
  8
1
  6
CONTINUOUS
 10
102.200002
 20
17.200000
 11
118.000002
 21
17.200000
  0
LINE
  8
1
  6
CONTINUOUS
 10
101.700002
 20
16.700000
 11
118.000002
 21
16.700000
  0
LINE
  8
2
  6
CONTINUOUS
 10
102.650002
 20
18.625000
 11
102.650002
 21
22.200000
  0
LINE
  8
6
  6
CONTINUOUS
 10
101.700002
 20
22.200000
 11
118.000002
 21
22.200000
  0
LINE
  8
1
  6
CONTINUOUS
 10
101.700002
 20
18.700000
 11
118.000002
 21
18.700000
  0
LINE
  8
1
  6
CONTINUOUS
 10
102.200002
 20
18.700000
 11
118.000002
 21
18.700000
  0
LINE
  8
2
  6
CONTINUOUS
 10
102.650002
 20
18.125000
 11
102.650002
 21
18.625000
  0
LINE
  8
1
  6
CONTINUOUS
 10
102.200002
 20
18.700000
 11
118.000002
 21
18.700000
  0
LINE
  8
1
  6
CONTINUOUS
 10
102.200002
 20
18.200000
 11
118.000002
 21
18.200000
  0
LINE
  8
1
  6
CONTINUOUS
 10
102.200002
 20
18.200000
 11
118.000002
 21
18.200000
  0
LINE
  8
6
  6
CONTINUOUS
 10
101.700002
 20
6.600000
 11
118.000002
 21
6.600000
  0
LINE
  8
6
  6
CONTINUOUS
 10
101.700002
 20
8.500000
 11
118.000002
 21
8.500000
  0
LINE
  8
6
  6
CONTINUOUS
 10
101.700002
 20
1.000000
 11
101.700002
 21
8.500000
  0
LINE
  8
6
  6
CONTINUOUS
 10
101.700002
 20
16.000000
 11
101.700002
 21
22.200000
  0
LINE
  8
6
  6
CONTINUOUS
 10
101.700002
 20
15.900000
 11
118.000002
 21
15.900000
  0
LINE
  8
6
  6
CONTINUOUS
 10
101.700002
 20
11.400000
 11
101.700002
 21
15.900000
  0
LINE
  8
1
  6
CONTINUOUS
 10
101.700002
 20
14.400000
 11
118.000002
 21
14.400000
  0
LINE
  8
6
  6
CONTINUOUS
 10
101.700002
 20
3.000000
 11
118.000002
 21
3.000000
  0
LINE
  8
6
  6
CONTINUOUS
 10
105.024321
 20
3.000000
 11
105.024321
 21
1.000000
  0
LINE
  8
1
  6
CONTINUOUS
 10
101.700002
 20
12.900000
 11
118.000002
 21
12.900000
  0
POLYLINE
  8
1
  6
CONTINUOUS
 66
     1
  0
VERTEX
  8
1
  6
CONTINUOUS
 10
103.635546
 20
9.498246
  0
VERTEX
  8
1
  6
CONTINUOUS
 10
101.971546
 20
9.498246
  0
VERTEX
  8
1
  6
CONTINUOUS
 10
101.971546
 20
11.162246
  0
VERTEX
  8
1
  6
CONTINUOUS
 10
103.635546
 20
11.162246
  0
VERTEX
  8
1
  6
CONTINUOUS
 10
103.635546
 20
9.498246
  0
SEQEND
  8
1
  6
CONTINUOUS
  0
POLYLINE
  8
13
  6
CONTINUOUS
 66
     1
  0
VERTEX
  8
13
  6
CONTINUOUS
 10
102.095046
 20
10.244446
  0
VERTEX
  8
13
  6
CONTINUOUS
 10
102.095046
 20
9.498246
  0
VERTEX
  8
13
  6
CONTINUOUS
 10
101.971546
 20
9.498246
  0
VERTEX
  8
13
  6
CONTINUOUS
 10
101.971546
 20
11.162246
  0
VERTEX
  8
13
  6
CONTINUOUS
 10
102.095046
 20
11.162246
  0
VERTEX
  8
13
  6
CONTINUOUS
 10
102.095046
 20
10.244446
  0
SEQEND
  8
13
  6
CONTINUOUS
  0
POLYLINE
  8
13
  6
CONTINUOUS
 66
     1
  0
VERTEX
  8
13
  6
CONTINUOUS
 10
102.522746
 20
10.230979
  0
VERTEX
  8
13
  6
CONTINUOUS
 10
102.522746
 20
9.498246
  0
VERTEX
  8
13
  6
CONTINUOUS
 10
102.095046
 20
9.498246
  0
VERTEX
  8
13
  6
CONTINUOUS
 10
102.095046
 20
10.244446
  0
VERTEX
  8
13
  6
CONTINUOUS
 10
102.143544
 20
10.248642
  0
VERTEX
  8
13
  6
CONTINUOUS
 10
102.211078
 20
10.252071
  0
VERTEX
  8
13
  6
CONTINUOUS
 10
102.259959
 20
10.252484
  0
VERTEX
  8
13
  6
CONTINUOUS
 10
102.290321
 20
10.252141
  0
VERTEX
  8
13
  6
CONTINUOUS
 10
102.334203
 20
10.250668
  0
VERTEX
  8
13
  6
CONTINUOUS
 10
102.394518
 20
10.246747
  0
VERTEX
  8
13
  6
CONTINUOUS
 10
102.446340
 20
10.241621
  0
VERTEX
  8
13
  6
CONTINUOUS
 10
102.490083
 20
10.235974
  0
VERTEX
  8
13
  6
CONTINUOUS
 10
102.522746
 20
10.230979
  0
SEQEND
  8
13
  6
CONTINUOUS
  0
POLYLINE
  8
13
  6
CONTINUOUS
 66
     1
  0
VERTEX
  8
13
  6
CONTINUOUS
 10
102.594246
 20
10.217654
  0
VERTEX
  8
13
  6
CONTINUOUS
 10
102.594246
 20
9.498246
  0
VERTEX
  8
13
  6
CONTINUOUS
 10
103.021946
 20
9.498246
  0
VERTEX
  8
13
  6
CONTINUOUS
 10
103.021946
 20
10.064184
  0
VERTEX
  8
13
  6
CONTINUOUS
 10
103.003898
 20
10.073542
  0
VERTEX
  8
13
  6
CONTINUOUS
 10
102.981716
 20
10.084501
  0
VERTEX
  8
13
  6
CONTINUOUS
 10
102.953307
 20
10.098271
  0
VERTEX
  8
13
  6
CONTINUOUS
 10
102.912865
 20
10.116383
  0
VERTEX
  8
13
  6
CONTINUOUS
 10
102.885024
 20
10.128001
  0
VERTEX
  8
13
  6
CONTINUOUS
 10
102.844071
 20
10.144755
  0
VERTEX
  8
13
  6
CONTINUOUS
 10
102.813490
 20
10.155923
  0
VERTEX
  8
13
  6
CONTINUOUS
 10
102.778388
 20
10.168156
  0
VERTEX
  8
13
  6
CONTINUOUS
 10
102.744083
 20
10.178793
  0
VERTEX
  8
13
  6
CONTINUOUS
 10
102.703465
 20
10.191172
  0
VERTEX
  8
13
  6
CONTINUOUS
 10
102.665141
 20
10.201162
  0
VERTEX
  8
13
  6
CONTINUOUS
 10
102.624819
 20
10.210970
  0
VERTEX
  8
13
  6
CONTINUOUS
 10
102.594246
 20
10.217654
  0
SEQEND
  8
13
  6
CONTINUOUS
  0
POLYLINE
  8
13
  6
CONTINUOUS
 66
     1
  0
VERTEX
  8
13
  6
CONTINUOUS
 10
103.093446
 20
10.024343
  0
VERTEX
  8
13
  6
CONTINUOUS
 10
103.093446
 20
9.498246
  0
VERTEX
  8
13
  6
CONTINUOUS
 10
103.521146
 20
9.498246
  0
VERTEX
  8
13
  6
CONTINUOUS
 10
103.521146
 20
9.661030
  0
VERTEX
  8
13
  6
CONTINUOUS
 10
103.507797
 20
9.676793
  0
VERTEX
  8
13
  6
CONTINUOUS
 10
103.495964
 20
9.690528
  0
VERTEX
  8
13
  6
CONTINUOUS
 10
103.473877
 20
9.715277
  0
VERTEX
  8
13
  6
CONTINUOUS
 10
103.454164
 20
9.736530
  0
VERTEX
  8
13
  6
CONTINUOUS
 10
103.434048
 20
9.757502
  0
VERTEX
  8
13
  6
CONTINUOUS
 10
103.410015
 20
9.781535
  0
VERTEX
  8
13
  6
CONTINUOUS
 10
103.399294
 20
9.791943
  0
VERTEX
  8
13
  6
CONTINUOUS
 10
103.388429
 20
9.802406
  0
VERTEX
  8
13
  6
CONTINUOUS
 10
103.359952
 20
9.828752
  0
VERTEX
  8
13
  6
CONTINUOUS
 10
103.325139
 20
9.859181
  0
VERTEX
  8
13
  6
CONTINUOUS
 10
103.286846
 20
9.890826
  0
VERTEX
  8
13
  6
CONTINUOUS
 10
103.251036
 20
9.918745
  0
VERTEX
  8
13
  6
CONTINUOUS
 10
103.200839
 20
9.955427
  0
VERTEX
  8
13
  6
CONTINUOUS
 10
103.134352
 20
9.999676
  0
VERTEX
  8
13
  6
CONTINUOUS
 10
103.093446
 20
10.024343
  0
SEQEND
  8
13
  6
CONTINUOUS
  0
POLYLINE
  8
13
  6
CONTINUOUS
 66
     1
  0
VERTEX
  8
13
  6
CONTINUOUS
 10
102.522746
 20
10.635283
  0
VERTEX
  8
13
  6
CONTINUOUS
 10
102.522746
 20
11.162246
  0
VERTEX
  8
13
  6
CONTINUOUS
 10
102.095046
 20
11.162246
  0
VERTEX
  8
13
  6
CONTINUOUS
 10
102.095046
 20
10.995122
  0
VERTEX
  8
13
  6
CONTINUOUS
 10
102.153689
 20
10.929235
  0
VERTEX
  8
13
  6
CONTINUOUS
 10
102.237359
 20
10.846559
  0
VERTEX
  8
13
  6
CONTINUOUS
 10
102.308389
 20
10.784730
  0
VERTEX
  8
13
  6
CONTINUOUS
 10
102.366624
 20
10.739274
  0
VERTEX
  8
13
  6
CONTINUOUS
 10
102.406322
 20
10.710064
  0
VERTEX
  8
13
  6
CONTINUOUS
 10
102.455827
 20
10.676682
  0
VERTEX
  8
13
  6
CONTINUOUS
 10
102.493954
 20
10.652515
  0
VERTEX
  8
13
  6
CONTINUOUS
 10
102.522746
 20
10.635283
  0
SEQEND
  8
13
  6
CONTINUOUS
  0
POLYLINE
  8
13
  6
CONTINUOUS
 66
     1
  0
VERTEX
  8
13
  6
CONTINUOUS
 10
103.021946
 20
10.443678
  0
VERTEX
  8
13
  6
CONTINUOUS
 10
103.021946
 20
11.162246
  0
VERTEX
  8
13
  6
CONTINUOUS
 10
102.594246
 20
11.162246
  0
VERTEX
  8
13
  6
CONTINUOUS
 10
102.594246
 20
10.595859
  0
VERTEX
  8
13
  6
CONTINUOUS
 10
102.663800
 20
10.561766
  0
VERTEX
  8
13
  6
CONTINUOUS
 10
102.744359
 20
10.527375
  0
VERTEX
  8
13
  6
CONTINUOUS
 10
102.812197
 20
10.501464
  0
VERTEX
  8
13
  6
CONTINUOUS
 10
102.889458
 20
10.476967
  0
VERTEX
  8
13
  6
CONTINUOUS
 10
102.950702
 20
10.460007
  0
VERTEX
  8
13
  6
CONTINUOUS
 10
103.021946
 20
10.443678
  0
SEQEND
  8
13
  6
CONTINUOUS
  0
POLYLINE
  8
13
  6
CONTINUOUS
 66
     1
  0
VERTEX
  8
13
  6
CONTINUOUS
 10
103.093446
 20
10.430307
  0
VERTEX
  8
13
  6
CONTINUOUS
 10
103.093446
 20
11.162246
  0
VERTEX
  8
13
  6
CONTINUOUS
 10
103.521146
 20
11.162246
  0
VERTEX
  8
13
  6
CONTINUOUS
 10
103.521146
 20
10.417580
  0
VERTEX
  8
13
  6
CONTINUOUS
 10
103.476372
 20
10.413637
  0
VERTEX
  8
13
  6
CONTINUOUS
 10
103.416577
 20
10.410480
  0
VERTEX
  8
13
  6
CONTINUOUS
 10
103.366788
 20
10.409453
  0
VERTEX
  8
13
  6
CONTINUOUS
 10
103.336830
 20
10.409453
  0
VERTEX
  8
13
  6
CONTINUOUS
 10
103.286182
 20
10.410821
  0
VERTEX
  8
13
  6
CONTINUOUS
 10
103.241261
 20
10.413321
  0
VERTEX
  8
13
  6
CONTINUOUS
 10
103.205545
 20
10.416539
  0
VERTEX
  8
13
  6
CONTINUOUS
 10
103.155349
 20
10.421044
  0
VERTEX
  8
13
  6
CONTINUOUS
 10
103.093446
 20
10.430307
  0
SEQEND
  8
13
  6
CONTINUOUS
  0
POLYLINE
  8
13
  6
CONTINUOUS
 66
     1
  0
VERTEX
  8
13
  6
CONTINUOUS
 10
102.522746
 20
9.498246
  0
VERTEX
  8
13
  6
CONTINUOUS
 10
102.594246
 20
9.498246
  0
VERTEX
  8
13
  6
CONTINUOUS
 10
102.594246
 20
11.162246
  0
VERTEX
  8
13
  6
CONTINUOUS
 10
102.522746
 20
11.162246
  0
VERTEX
  8
13
  6
CONTINUOUS
 10
102.522746
 20
9.498246
  0
VERTEX
  8
13
  6
CONTINUOUS
 10
102.594246
 20
9.498246
  0
SEQEND
  8
13
  6
CONTINUOUS
  0
POLYLINE
  8
13
  6
CONTINUOUS
 66
     1
  0
VERTEX
  8
13
  6
CONTINUOUS
 10
103.021946
 20
11.162246
  0
VERTEX
  8
13
  6
CONTINUOUS
 10
103.093446
 20
11.162246
  0
VERTEX
  8
13
  6
CONTINUOUS
 10
103.093446
 20
9.498246
  0
VERTEX
  8
13
  6
CONTINUOUS
 10
103.021946
 20
9.498246
  0
VERTEX
  8
13
  6
CONTINUOUS
 10
103.021946
 20
11.162246
  0
SEQEND
  8
13
  6
CONTINUOUS
  0
POLYLINE
  8
13
  6
CONTINUOUS
 66
     1
  0
VERTEX
  8
13
  6
CONTINUOUS
 10
103.521146
 20
9.498246
  0
VERTEX
  8
13
  6
CONTINUOUS
 10
103.635546
 20
9.498246
  0
VERTEX
  8
13
  6
CONTINUOUS
 10
103.635546
 20
11.162246
  0
VERTEX
  8
13
  6
CONTINUOUS
 10
103.521146
 20
11.162246
  0
VERTEX
  8
13
  6
CONTINUOUS
 10
103.521146
 20
9.498246
  0
SEQEND
  8
13
  6
CONTINUOUS
  0
LINE
  8
6
  6
CONTINUOUS
 10
107.924321
 20
3.000000
 11
107.924321
 21
2.000000
  0
LINE
  8
6
  6
CONTINUOUS
 10
101.700002
 20
2.000000
 11
114.124321
 21
2.000000
  0
LINE
  8
6
  6
CONTINUOUS
 10
114.124321
 20
3.000000
 11
114.124321
 21
1.000000
  0
LINE
  8
6
  6
CONTINUOUS
 10
101.700002
 20
8.600000
 11
118.000002
 21
8.600000
  0
LINE
  8
6
  6
CONTINUOUS
 10
101.700002
 20
8.600000
 11
101.700002
 21
11.300000
  0
LINE
  8
6
  6
CONTINUOUS
 10
101.700002
 20
11.300000
 11
118.000002
 21
11.300000
  0
LINE
  8
6
  6
CONTINUOUS
 10
101.700002
 20
11.400000
 11
118.000002
 21
11.400000
  0
LINE
  8
1
  6
CONTINUOUS
 10
101.700002
 20
19.200000
 11
118.000002
 21
19.200000
  0
LINE
  8
1
  6
CONTINUOUS
 10
102.200002
 20
19.200000
 11
118.000002
 21
19.200000
  0
LINE
  8
1
  6
CONTINUOUS
 10
102.200002
 20
19.200000
 11
118.000002
 21
19.200000
  0
LINE
  8
1
  6
CONTINUOUS
 10
101.700002
 20
19.700000
 11
118.000002
 21
19.700000
  0
LINE
  8
1
  6
CONTINUOUS
 10
102.200002
 20
19.700000
 11
118.000002
 21
19.700000
  0
LINE
  8
1
  6
CONTINUOUS
 10
102.200002
 20
19.700000
 11
118.000002
 21
19.700000
  0
LINE
  8
1
  6
CONTINUOUS
 10
101.700002
 20
20.200000
 11
118.000002
 21
20.200000
  0
LINE
  8
1
  6
CONTINUOUS
 10
102.200002
 20
20.200000
 11
118.000002
 21
20.200000
  0
LINE
  8
1
  6
CONTINUOUS
 10
102.200002
 20
20.200000
 11
118.000002
 21
20.200000
  0
LINE
  8
1
  6
CONTINUOUS
 10
101.700002
 20
20.700000
 11
118.000002
 21
20.700000
  0
LINE
  8
1
  6
CONTINUOUS
 10
102.200002
 20
20.700000
 11
118.000002
 21
20.700000
  0
LINE
  8
1
  6
CONTINUOUS
 10
102.200002
 20
20.700000
 11
118.000002
 21
20.700000
  0
LINE
  8
1
  6
CONTINUOUS
 10
101.700002
 20
21.200000
 11
118.000002
 21
21.200000
  0
LINE
  8
1
  6
CONTINUOUS
 10
102.200002
 20
21.200000
 11
118.000002
 21
21.200000
  0
LINE
  8
1
  6
CONTINUOUS
 10
102.200002
 20
21.200000
 11
118.000002
 21
21.200000
  0
LINE
  8
1
  6
CONTINUOUS
 10
101.700002
 20
21.700000
 11
118.000002
 21
21.700000
  0
LINE
  8
6
  6
CONTINUOUS
 10
110.708935
 20
11.300000
 11
110.708935
 21
8.600000
  0
TEXT
  8
1
  6
CONTINUOUS
 10
18.253192
 20
67.161240
 40
0.220000
  1
CABO
  7
TQS_CALIBRI
  0
TEXT
  8
1
  6
CONTINUOUS
 10
25.317673
 20
67.451240
 40
0.220000
  1
COMPRIMENTO
  7
TQS_CALIBRI
  0
TEXT
  8
1
  6
CONTINUOUS
 10
28.311979
 20
66.951240
 40
0.220000
  1
TOTAL
  7
TQS_CALIBRI
  0
TEXT
  8
1
  6
CONTINUOUS
 10
31.142333
 20
66.951240
 40
0.220000
  1
A
  7
TQS_CALIBRI
  0
TEXT
  8
1
  6
CONTINUOUS
 10
32.187149
 20
66.951240
 40
0.220000
  1
P
  7
TQS_CALIBRI
  0
TEXT
  8
1
  6
CONTINUOUS
 10
33.231965
 20
66.951240
 40
0.220000
  1
I
  7
TQS_CALIBRI
  0
TEXT
  8
1
  6
CONTINUOUS
 10
31.159646
 20
67.451240
 40
0.220000
  1
ANCORAGENS
  7
TQS_CALIBRI
  0
TEXT
  8
1
  6
CONTINUOUS
 10
22.712153
 20
67.161240
 40
0.220000
  1
Q
  7
TQS_CALIBRI
  0
TEXT
  8
1
  6
CONTINUOUS
 10
19.411814
 20
68.111240
 40
0.400000
  1
PROTENSÃO: AÇO
  7
TQS_CALIBRI
  0
TEXT
  8
1
  6
CONTINUOUS
 10
24.730543
 20
66.951240
 40
0.220000
  1
UNITÁRIO
  7
TQS_CALIBRI
  0
TEXT
  8
1
  6
CONTINUOUS
 10
34.187028
 20
66.951240
 40
0.220000
  1
INI
  7
TQS_CALIBRI
  0
TEXT
  8
1
  6
CONTINUOUS
 10
35.754252
 20
66.951240
 40
0.220000
  1
FIN
  7
TQS_CALIBRI
  0
TEXT
  8
1
  6
CONTINUOUS
 10
20.641404
 20
67.163459
 40
0.220000
  1
%%c
  7
TQS_CALIBRI
  0
TEXT
  8
1
  6
CONTINUOUS
 10
34.280794
 20
67.451240
 40
0.220000
  1
ALONG
  7
TQS_CALIBRI
  0
TEXT
  8
1
  6
CONTINUOUS
 10
25.740044
 20
68.111240
 40
0.400000
  1
CP190 RB 12.7 - 12.7
  7
TQS_CALIBRI
  0
TEXT
  8
1
  6
CONTINUOUS
 10
20.926552
 20
67.163459
 40
0.220000
  1
(mm)
  7
TQS_CALIBRI
  0
TEXT
  8
1
  6
CONTINUOUS
 10
27.977749
 20
67.451240
 40
0.220000
  1
(m)
  7
TQS_CALIBRI
  0
TEXT
  8
1
  6
CONTINUOUS
 10
35.468290
 20
67.451240
 40
0.220000
  1
(mm)
  7
TQS_CALIBRI
  0
TEXT
  8
1
  6
CONTINUOUS
 10
17.898614
 20
66.451240
 40
0.220000
  1
C1 A C3
  7
TQS_CALIBRI
  0
TEXT
  8
1
  6
CONTINUOUS
 10
20.252095
 20
66.451240
 40
0.220000
  1
1 %%c 12.7
  7
TQS_CALIBRI
  0
TEXT
  8
1
  6
CONTINUOUS
 10
22.466492
 20
66.451240
 40
0.220000
  1
3
  7
TQS_CALIBRI
  0
TEXT
  8
1
  6
CONTINUOUS
 10
24.703075
 20
66.451240
 40
0.220000
  1
29.2
  7
TQS_CALIBRI
  0
TEXT
  8
1
  6
CONTINUOUS
 10
27.979908
 20
66.451240
 40
0.220000
  1
87.6
  7
TQS_CALIBRI
  0
TEXT
  8
1
  6
CONTINUOUS
 10
30.957880
 20
66.451240
 40
0.220000
  1
3
  7
TQS_CALIBRI
  0
TEXT
  8
1
  6
CONTINUOUS
 10
32.002696
 20
66.451240
 40
0.220000
  1
3
  7
TQS_CALIBRI
  0
TEXT
  8
1
  6
CONTINUOUS
 10
34.039519
 20
66.451240
 40
0.220000
  1
0
  7
TQS_CALIBRI
  0
TEXT
  8
1
  6
CONTINUOUS
 10
35.606743
 20
66.451240
 40
0.220000
  1
196
  7
TQS_CALIBRI
  0
TEXT
  8
1
  6
CONTINUOUS
 10
17.898614
 20
65.951239
 40
0.220000
  1
C4 A C6
  7
TQS_CALIBRI
  0
TEXT
  8
1
  6
CONTINUOUS
 10
20.252095
 20
65.951239
 40
0.220000
  1
2 %%c 12.7
  7
TQS_CALIBRI
  0
TEXT
  8
1
  6
CONTINUOUS
 10
22.466492
 20
65.951239
 40
0.220000
  1
3
  7
TQS_CALIBRI
  0
TEXT
  8
1
  6
CONTINUOUS
 10
24.703075
 20
65.951239
 40
0.220000
  1
29
  7
TQS_CALIBRI
  0
TEXT
  8
1
  6
CONTINUOUS
 10
27.979908
 20
65.951239
 40
0.220000
  1
174
  7
TQS_CALIBRI
  0
TEXT
  8
1
  6
CONTINUOUS
 10
30.957880
 20
65.951239
 40
0.220000
  1
6
  7
TQS_CALIBRI
  0
TEXT
  8
1
  6
CONTINUOUS
 10
32.002696
 20
65.951239
 40
0.220000
  1
6
  7
TQS_CALIBRI
  0
TEXT
  8
1
  6
CONTINUOUS
 10
34.039519
 20
65.951239
 40
0.220000
  1
0
  7
TQS_CALIBRI
  0
TEXT
  8
1
  6
CONTINUOUS
 10
35.606743
 20
65.951239
 40
0.220000
  1
194
  7
TQS_CALIBRI
  0
TEXT
  8
1
  6
CONTINUOUS
 10
17.898614
 20
65.451238
 40
0.220000
  1
C7 A C9
  7
TQS_CALIBRI
  0
TEXT
  8
1
  6
CONTINUOUS
 10
20.252095
 20
65.451238
 40
0.220000
  1
   "
  7
TQS_CALIBRI
  0
TEXT
  8
1
  6
CONTINUOUS
 10
22.466492
 20
65.451238
 40
0.220000
  1
3
  7
TQS_CALIBRI
  0
TEXT
  8
1
  6
CONTINUOUS
 10
24.703075
 20
65.451238
 40
0.220000
  1
28.8
  7
TQS_CALIBRI
  0
TEXT
  8
1
  6
CONTINUOUS
 10
27.979908
 20
65.451238
 40
0.220000
  1
172.7
  7
TQS_CALIBRI
  0
TEXT
  8
1
  6
CONTINUOUS
 10
30.957880
 20
65.451238
 40
0.220000
  1
6
  7
TQS_CALIBRI
  0
TEXT
  8
1
  6
CONTINUOUS
 10
32.002696
 20
65.451238
 40
0.220000
  1
6
  7
TQS_CALIBRI
  0
TEXT
  8
1
  6
CONTINUOUS
 10
34.039519
 20
65.451238
 40
0.220000
  1
0
  7
TQS_CALIBRI
  0
TEXT
  8
1
  6
CONTINUOUS
 10
35.606743
 20
65.451238
 40
0.220000
  1
193
  7
TQS_CALIBRI
  0
TEXT
  8
1
  6
CONTINUOUS
 10
17.898614
 20
64.951237
 40
0.220000
  1
C10 A C12
  7
TQS_CALIBRI
  0
TEXT
  8
1
  6
CONTINUOUS
 10
20.252095
 20
64.951237
 40
0.220000
  1
   "
  7
TQS_CALIBRI
  0
TEXT
  8
1
  6
CONTINUOUS
 10
22.466492
 20
64.951237
 40
0.220000
  1
3
  7
TQS_CALIBRI
  0
TEXT
  8
1
  6
CONTINUOUS
 10
24.703075
 20
64.951237
 40
0.220000
  1
28.6
  7
TQS_CALIBRI
  0
TEXT
  8
1
  6
CONTINUOUS
 10
27.979908
 20
64.951237
 40
0.220000
  1
171.6
  7
TQS_CALIBRI
  0
TEXT
  8
1
  6
CONTINUOUS
 10
30.957880
 20
64.951237
 40
0.220000
  1
6
  7
TQS_CALIBRI
  0
TEXT
  8
1
  6
CONTINUOUS
 10
32.002696
 20
64.951237
 40
0.220000
  1
6
  7
TQS_CALIBRI
  0
TEXT
  8
1
  6
CONTINUOUS
 10
34.039519
 20
64.951237
 40
0.220000
  1
0
  7
TQS_CALIBRI
  0
TEXT
  8
1
  6
CONTINUOUS
 10
35.606743
 20
64.951237
 40
0.220000
  1
191
  7
TQS_CALIBRI
  0
TEXT
  8
1
  6
CONTINUOUS
 10
17.898614
 20
64.451237
 40
0.220000
  1
C13 A C15
  7
TQS_CALIBRI
  0
TEXT
  8
1
  6
CONTINUOUS
 10
20.252095
 20
64.451237
 40
0.220000
  1
   "
  7
TQS_CALIBRI
  0
TEXT
  8
1
  6
CONTINUOUS
 10
22.466492
 20
64.451237
 40
0.220000
  1
3
  7
TQS_CALIBRI
  0
TEXT
  8
1
  6
CONTINUOUS
 10
24.703075
 20
64.451237
 40
0.220000
  1
25.3
  7
TQS_CALIBRI
  0
TEXT
  8
1
  6
CONTINUOUS
 10
27.979908
 20
64.451237
 40
0.220000
  1
151.7
  7
TQS_CALIBRI
  0
TEXT
  8
1
  6
CONTINUOUS
 10
30.957880
 20
64.451237
 40
0.220000
  1
6
  7
TQS_CALIBRI
  0
TEXT
  8
1
  6
CONTINUOUS
 10
32.002696
 20
64.451237
 40
0.220000
  1
6
  7
TQS_CALIBRI
  0
TEXT
  8
1
  6
CONTINUOUS
 10
34.039519
 20
64.451237
 40
0.220000
  1
0
  7
TQS_CALIBRI
  0
TEXT
  8
1
  6
CONTINUOUS
 10
35.606743
 20
64.451237
 40
0.220000
  1
170
  7
TQS_CALIBRI
  0
TEXT
  8
1
  6
CONTINUOUS
 10
18.384755
 20
61.451236
 40
0.220000
  1
%%c
  7
TQS_CALIBRI
  0
TEXT
  8
1
  6
CONTINUOUS
 10
21.958293
 20
61.951236
 40
0.220000
  1
CABO
  7
TQS_CALIBRI
  0
TEXT
  8
1
  6
CONTINUOUS
 10
28.142853
 20
61.201237
 40
0.220000
  1
A
  7
TQS_CALIBRI
  0
TEXT
  8
1
  6
CONTINUOUS
 10
29.187668
 20
61.201237
 40
0.220000
  1
P
  7
TQS_CALIBRI
  0
TEXT
  8
1
  6
CONTINUOUS
 10
30.232485
 20
61.201237
 40
0.220000
  1
I
  7
TQS_CALIBRI
  0
TEXT
  8
1
  6
CONTINUOUS
 10
24.454052
 20
61.451236
 40
0.220000
  1
PESO
  7
TQS_CALIBRI
  0
TEXT
  8
1
  6
CONTINUOUS
 10
28.213032
 20
61.951236
 40
0.220000
  1
ANCORAGENS
  7
TQS_CALIBRI
  0
TEXT
  8
1
  6
CONTINUOUS
 10
20.291812
 20
63.034569
 40
0.400000
  1
RESUMO DE PROTENSÃO
  7
TQS_CALIBRI
  0
TEXT
  8
1
  6
CONTINUOUS
 10
19.829949
 20
62.471869
 40
0.300000
  1
Monocordoalhas não aderentes
  7
TQS_CALIBRI
  0
TEXT
  8
1
  6
CONTINUOUS
 10
20.221050
 20
61.451236
 40
0.220000
  1
COMPR
  7
TQS_CALIBRI
  0
TEXT
  8
1
  6
CONTINUOUS
 10
22.070838
 20
60.951237
 40
0.220000
  1
kgf/m
  7
TQS_CALIBRI
  0
TEXT
  8
1
  6
CONTINUOUS
 10
24.222615
 20
60.951237
 40
0.220000
  1
kgf
  7
TQS_CALIBRI
  0
TEXT
  8
1
  6
CONTINUOUS
 10
26.037007
 20
60.951237
 40
0.220000
  1
kgf+4%
  7
TQS_CALIBRI
  0
TEXT
  8
1
  6
CONTINUOUS
 10
20.225596
 20
60.951237
 40
0.220000
  1
m
  7
TQS_CALIBRI
  0
TEXT
  8
1
  6
CONTINUOUS
 10
18.363135
 20
60.951237
 40
0.220000
  1
mm
  7
TQS_CALIBRI
  0
TEXT
  8
1
  6
CONTINUOUS
 10
19.950912
 20
60.451236
 40
0.220000
  1
88
  7
TQS_CALIBRI
  0
TEXT
  8
1
  6
CONTINUOUS
 10
28.996509
 20
60.451236
 40
0.220000
  1
3
  7
TQS_CALIBRI
  0
TEXT
  8
1
  6
CONTINUOUS
 10
27.951692
 20
60.451236
 40
0.220000
  1
3
  7
TQS_CALIBRI
  0
TEXT
  8
1
  6
CONTINUOUS
 10
22.070838
 20
60.451236
 40
0.220000
  1
0.886
  7
TQS_CALIBRI
  0
TEXT
  8
1
  6
CONTINUOUS
 10
23.660167
 20
60.451236
 40
0.220000
  1
78
  7
TQS_CALIBRI
  0
TEXT
  8
1
  6
CONTINUOUS
 10
25.720165
 20
60.451236
 40
0.220000
  1
81
  7
TQS_CALIBRI
  0
TEXT
  8
1
  6
CONTINUOUS
 10
17.762979
 20
60.451236
 40
0.220000
  1
1 %%c 12.7
  7
TQS_CALIBRI
  0
TEXT
  8
1
  6
CONTINUOUS
 10
19.950912
 20
59.951235
 40
0.220000
  1
670
  7
TQS_CALIBRI
  0
TEXT
  8
1
  6
CONTINUOUS
 10
28.996509
 20
59.951235
 40
0.220000
  1
24
  7
TQS_CALIBRI
  0
TEXT
  8
1
  6
CONTINUOUS
 10
27.951692
 20
59.951235
 40
0.220000
  1
24
  7
TQS_CALIBRI
  0
TEXT
  8
1
  6
CONTINUOUS
 10
22.070838
 20
59.951235
 40
0.220000
  1
0.886
  7
TQS_CALIBRI
  0
TEXT
  8
1
  6
CONTINUOUS
 10
23.660167
 20
59.951235
 40
0.220000
  1
594
  7
TQS_CALIBRI
  0
TEXT
  8
1
  6
CONTINUOUS
 10
25.720165
 20
59.951235
 40
0.220000
  1
617
  7
TQS_CALIBRI
  0
TEXT
  8
1
  6
CONTINUOUS
 10
17.762979
 20
59.951235
 40
0.220000
  1
2 %%c 12.7
  7
TQS_CALIBRI
  0
TEXT
  8
1
  6
CONTINUOUS
 10
101.932386
 20
23.396411
 40
0.350000
  1
NOTAS:
  7
TQS_CALIBRI
  0
TEXT
  8
2
  6
CONTINUOUS
 10
101.965840
 20
22.812661
 40
0.240000
  1
1) CONFERIR INFORMAÇÕES DA TABELA ACIMA (TABELA DE FERRERAGEM) NA OBRA
  7
TQS_CALIBRI
  0
TEXT
  8
2
  6
CONTINUOUS
 10
101.965840
 20
22.343353
 40
0.240000
  1
ANTES DA COMPRA DAS ARMADURAS.
  7
TQS_CALIBRI
  0
TEXT
  8
1
  6
CONTINUOUS
 10
44.489424
 20
17.793330
 40
0.300000
  1
L5
  7
TQS_CALIBRI
  0
TEXT
  8
1
  6
CONTINUOUS
 10
65.468241
 20
68.913913
 40
0.300000
  1
L1
  7
TQS_CALIBRI
  0
TEXT
  8
1
  6
CONTINUOUS
 10
67.744868
 20
39.682402
 40
0.300000
  1
L4
  7
TQS_CALIBRI
  0
TEXT
  8
1
  6
CONTINUOUS
 10
66.015975
 20
49.168474
 40
0.300000
  1
L3
  7
TQS_CALIBRI
  0
TEXT
  8
1
  6
CONTINUOUS
 10
63.282567
 20
54.431737
 40
0.300000
  1
L2
  7
TQS_CALIBRI
  0
TEXT
  8
1
  6
CONTINUOUS
 10
78.885866
 20
20.762679
 40
0.300000
  1
L6
  7
TQS_CALIBRI
  0
TEXT
  8
1
  6
CONTINUOUS
 10
61.708176
 20
44.816045
 40
0.300000
  1
P187
  7
TQS_CALIBRI
  0
TEXT
  8
1
  6
CONTINUOUS
 10
20.276562
 20
10.633597
 40
0.300000
  1
P515
  7
TQS_CALIBRI
  0
TEXT
  8
1
  6
CONTINUOUS
 10
45.570820
 20
10.633597
 40
0.300000
  1
P517
  7
TQS_CALIBRI
  0
TEXT
  8
1
  6
CONTINUOUS
 10
58.870820
 20
13.333597
 40
0.300000
  1
P514
  7
TQS_CALIBRI
  0
TEXT
  8
1
  6
CONTINUOUS
 10
45.570820
 20
22.513597
 40
0.300000
  1
P508
  7
TQS_CALIBRI
  0
TEXT
  8
1
  6
CONTINUOUS
 10
58.870820
 20
22.513597
 40
0.300000
  1
P509
  7
TQS_CALIBRI
  0
TEXT
  8
1
  6
CONTINUOUS
 10
45.570820
 20
29.118763
 40
0.300000
  1
P503
  7
TQS_CALIBRI
  0
TEXT
  8
1
  6
CONTINUOUS
 10
61.708180
 20
35.326050
 40
0.300000
  1
P405
  7
TQS_CALIBRI
  0
TEXT
  8
1
  6
CONTINUOUS
 10
58.870820
 20
5.933597
 40
0.300000
  1
P518
  7
TQS_CALIBRI
  0
TEXT
  8
1
  6
CONTINUOUS
 10
81.797110
 20
15.633597
 40
0.300000
  1
P513
  7
TQS_CALIBRI
  0
TEXT
  8
1
  6
CONTINUOUS
 10
81.797110
 20
25.526050
 40
0.300000
  1
P507
  7
TQS_CALIBRI
  0
TEXT
  8
1
  6
CONTINUOUS
 10
81.797110
 20
35.326050
 40
0.300000
  1
P506
  7
TQS_CALIBRI
  0
TEXT
  8
1
  6
CONTINUOUS
 10
81.797110
 20
5.933597
 40
0.300000
  1
P520
  7
TQS_CALIBRI
  0
TEXT
  8
1
  6
CONTINUOUS
 10
61.708176
 20
66.455912
 40
0.300000
  1
PC5
  7
TQS_CALIBRI
  0
TEXT
  8
1
  6
CONTINUOUS
 10
70.411293
 20
66.455912
 40
0.300000
  1
PC6
  7
TQS_CALIBRI
  0
TEXT
  8
1
  6
CONTINUOUS
 10
69.598180
 20
44.816040
 40
0.300000
  1
P188
  7
TQS_CALIBRI
  0
TEXT
  8
1
  6
CONTINUOUS
 10
69.598180
 20
55.956040
 40
0.300000
  1
P183
  7
TQS_CALIBRI
  0
TEXT
  8
1
  6
CONTINUOUS
 10
66.008176
 20
56.356045
 40
0.300000
  1
PC8
  7
TQS_CALIBRI
  0
TEXT
  8
1
  6
CONTINUOUS
 10
66.008176
 20
52.156045
 40
0.300000
  1
PC9
  7
TQS_CALIBRI
  0
TEXT
  8
1
  6
CONTINUOUS
 10
69.598180
 20
50.386040
 40
0.300000
  1
P185
  7
TQS_CALIBRI
  0
TEXT
  8
1
  6
CONTINUOUS
 10
61.708176
 20
52.156040
 40
0.300000
  1
PC7
  7
TQS_CALIBRI
  0
TEXT
  8
1
  6
CONTINUOUS
 10
76.267131
 20
11.237348
 40
0.300000
  1
P115C
  7
TQS_CALIBRI
  0
TEXT
  8
1
  6
CONTINUOUS
 10
77.306934
 20
23.523166
 40
0.300000
  1
P110C
  7
TQS_CALIBRI
  0
TEXT
  8
1
  6
CONTINUOUS
 10
20.276562
 20
29.118763
 40
0.300000
  1
P501
  7
TQS_CALIBRI
  0
TEXT
  8
1
  6
CONTINUOUS
 10
73.008175
 20
45.260235
 40
0.300000
  1
P311
  7
TQS_CALIBRI
  0
TEXT
  8
1
  6
CONTINUOUS
 10
71.246860
 20
54.398990
 40
0.300000
  1
P310
  7
TQS_CALIBRI
  0
TEXT
  8
1
  6
CONTINUOUS
 10
73.981725
 20
61.055079
 40
0.300000
  1
P308
  7
TQS_CALIBRI
  0
TEXT
  8
1
  6
CONTINUOUS
 10
73.408175
 20
35.326050
 40
0.300000
  1
P406
  7
TQS_CALIBRI
  0
TEXT
  8
1
  6
CONTINUOUS
 10
58.860437
 20
29.118763
 40
0.300000
  1
P504
  7
TQS_CALIBRI
  0
TEXT
  8
1
  6
CONTINUOUS
 10
69.608175
 20
29.118763
 40
0.300000
  1
P505
  7
TQS_CALIBRI
  0
TEXT
  8
1
  6
CONTINUOUS
 10
31.532373
 20
10.633597
 40
0.300000
  1
P516
  7
TQS_CALIBRI
  0
TEXT
  8
1
  6
CONTINUOUS
 10
32.876562
 20
29.118763
 40
0.300000
  1
P502
  7
TQS_CALIBRI
  0
TEXT
  8
1
  6
CONTINUOUS
 10
20.276562
 20
19.876180
 40
0.300000
  1
P510
  7
TQS_CALIBRI
  0
TEXT
  8
1
  6
CONTINUOUS
 10
32.918691
 20
19.876180
 40
0.300000
  1
P511
  7
TQS_CALIBRI
  0
TEXT
  8
1
  6
CONTINUOUS
 10
70.333945
 20
17.526180
 40
0.300000
  1
P512
  7
TQS_CALIBRI
  0
TEXT
  8
1
  6
CONTINUOUS
 10
70.333965
 20
5.933597
 40
0.300000
  1
P519
  7
TQS_CALIBRI
  0
TEXT
  8
4
  6
CONTINUOUS
 10
48.570392
 20
29.037472
 40
0.300000
 50
0.000000
  1
C1
  7
TQS_CALIBRI
  0
TEXT
  8
4
  6
CONTINUOUS
 10
48.570392
 20
28.017472
 40
0.300000
 50
0.000000
  1
C2
  7
TQS_CALIBRI
  0
TEXT
  8
4
  6
CONTINUOUS
 10
48.570392
 20
26.997472
 40
0.300000
 50
0.000000
  1
C3
  7
TQS_CALIBRI
  0
TEXT
  8
4
  6
CONTINUOUS
 10
48.382094
 20
25.488034
 40
0.300000
 50
0.000000
  1
C4
  7
TQS_CALIBRI
  0
TEXT
  8
4
  6
CONTINUOUS
 10
48.382094
 20
23.568034
 40
0.300000
 50
0.000000
  1
C5
  7
TQS_CALIBRI
  0
TEXT
  8
4
  6
CONTINUOUS
 10
48.382094
 20
21.648034
 40
0.300000
 50
0.000000
  1
C6
  7
TQS_CALIBRI
  0
TEXT
  8
4
  6
CONTINUOUS
 10
48.167584
 20
19.939102
 40
0.300000
 50
360.000000
  1
C7
  7
TQS_CALIBRI
  0
TEXT
  8
4
  6
CONTINUOUS
 10
48.167584
 20
18.499102
 40
0.300000
 50
360.000000
  1
C8
  7
TQS_CALIBRI
  0
TEXT
  8
4
  6
CONTINUOUS
 10
48.167584
 20
17.059102
 40
0.300000
 50
360.000000
  1
C9
  7
TQS_CALIBRI
  0
TEXT
  8
4
  6
CONTINUOUS
 10
47.973210
 20
15.505956
 40
0.300000
 50
0.000000
  1
C10
  7
TQS_CALIBRI
  0
TEXT
  8
4
  6
CONTINUOUS
 10
47.973210
 20
13.905956
 40
0.300000
 50
0.000000
  1
C11
  7
TQS_CALIBRI
  0
TEXT
  8
4
  6
CONTINUOUS
 10
47.973210
 20
12.305956
 40
0.300000
 50
0.000000
  1
C12
  7
TQS_CALIBRI
  0
TEXT
  8
4
  6
CONTINUOUS
 10
50.886246
 20
10.693597
 40
0.300000
 50
0.000000
  1
C13
  7
TQS_CALIBRI
  0
TEXT
  8
4
  6
CONTINUOUS
 10
50.886246
 20
9.133597
 40
0.300000
 50
0.000000
  1
C14
  7
TQS_CALIBRI
  0
TEXT
  8
4
  6
CONTINUOUS
 10
50.886246
 20
7.573597
 40
0.300000
 50
0.000000
  1
C15
  7
TQS_CALIBRI
  0
TEXT
  8
1
  6
CONTINUOUS
 10
102.073109
 20
8.835799
 40
0.455000
  1
ENGENHARIA
  7
TQS_CALIBRI
  0
TEXT
  8
1
  6
CONTINUOUS
 10
101.876737
 20
16.222571
 40
0.250000
  1
REV
  7
TQS_CALIBRI
  0
TEXT
  8
1
  6
CONTINUOUS
 10
103.356169
 20
16.222571
 40
0.250000
  1
DATA
  7
TQS_CALIBRI
  0
TEXT
  8
1
  6
CONTINUOUS
 10
105.030516
 20
16.222571
 40
0.250000
  1
ASSUNTO
  7
TQS_CALIBRI
  0
TEXT
  8
1
  6
CONTINUOUS
 10
101.832253
 20
14.047181
 40
0.250000
  1
PROPRIETÁRIO - 
  7
TQS_CALIBRI
  0
TEXT
  8
1
  6
CONTINUOUS
 10
108.042444
 20
2.579059
 40
0.250000
  1
ENGENHEIRO:
  7
TQS_CALIBRI
  0
TEXT
  8
1
  6
CONTINUOUS
 10
108.046365
 20
2.149652
 40
0.250000
  1
CREA REG.:
  7
TQS_CALIBRI
  0
TEXT
  8
1
  6
CONTINUOUS
 10
110.430567
 20
2.160333
 40
0.250000
  1
020930945-8
  7
TQS_CALIBRI
  0
TEXT
  8
1
  6
CONTINUOUS
 10
103.739739
 20
9.759850
 40
1.000000
  1
VGF
  7
TQS_CALIBRI
  0
TEXT
  8
1
  6
CONTINUOUS
 10
101.832253
 20
12.147181
 40
0.250000
  1
PROJETO              Eng. Civil - CREA:020930945-8
  7
TQS_CALIBRI
  0
TEXT
  8
1
  6
CONTINUOUS
 10
101.800510
 20
2.752624
 40
0.150000
  1
DATA:
  7
TQS_CALIBRI
  0
TEXT
  8
1
  6
CONTINUOUS
 10
101.788178
 20
1.752624
 40
0.150000
  1
FASE:
  7
TQS_CALIBRI
  0
TEXT
  8
1
  6
CONTINUOUS
 10
105.124829
 20
2.752624
 40
0.150000
  1
ESCALA:
  7
TQS_CALIBRI
  0
TEXT
  8
1
  6
CONTINUOUS
 10
105.112497
 20
1.752624
 40
0.150000
  1
PLANTA:
  7
TQS_CALIBRI
  0
TEXT
  8
1
  6
CONTINUOUS
 10
101.800510
 20
6.352624
 40
0.150000
  1
TÍTULO:
  7
TQS_CALIBRI
  0
TEXT
  8
1
  6
CONTINUOUS
 10
101.787482
 20
5.577767
 40
0.150000
  1
ELEMENTOS DA PRANCHA:
  7
TQS_CALIBRI
  0
TEXT
  8
1
  6
CONTINUOUS
 10
101.800510
 20
8.252624
 40
0.150000
  1
EMPREENDIMENTO/LOCAL:
  7
TQS_CALIBRI
  0
TEXT
  8
1
  6
CONTINUOUS
 10
106.761120
 20
11.025301
 40
0.150000
  1
CONTATOS:
  7
TQS_CALIBRI
  0
TEXT
  8
1
  6
CONTINUOUS
 10
114.224829
 20
2.752624
 40
0.150000
  1
PLANTA-REVISÃO:
  7
TQS_CALIBRI
  0
TEXT
  8
1
  6
CONTINUOUS
 10
102.041441
 20
16.843956
 40
0.200000
  1
00
  7
TQS_CALIBRI
  0
TEXT
  8
1
  6
CONTINUOUS
 10
102.041441
 20
17.343956
 40
0.200000
  1
01
  7
TQS_CALIBRI
  0
TEXT
  8
1
  6
CONTINUOUS
 10
102.041441
 20
17.843956
 40
0.200000
  1
02
  7
TQS_CALIBRI
  0
TEXT
  8
1
  6
CONTINUOUS
 10
102.041441
 20
18.343956
 40
0.200000
  1
03
  7
TQS_CALIBRI
  0
TEXT
  8
1
  6
CONTINUOUS
 10
102.041441
 20
18.843956
 40
0.200000
  1
04
  7
TQS_CALIBRI
  0
TEXT
  8
1
  6
CONTINUOUS
 10
102.041441
 20
19.343956
 40
0.200000
  1
05
  7
TQS_CALIBRI
  0
TEXT
  8
1
  6
CONTINUOUS
 10
102.041441
 20
19.843956
 40
0.200000
  1
06
  7
TQS_CALIBRI
  0
TEXT
  8
1
  6
CONTINUOUS
 10
102.041441
 20
20.343956
 40
0.200000
  1
07
  7
TQS_CALIBRI
  0
TEXT
  8
1
  6
CONTINUOUS
 10
102.041441
 20
20.843956
 40
0.200000
  1
08
  7
TQS_CALIBRI
  0
TEXT
  8
1
  6
CONTINUOUS
 10
102.041441
 20
21.343956
 40
0.200000
  1
09
  7
TQS_CALIBRI
  0
TEXT
  8
1
  6
CONTINUOUS
 10
102.041441
 20
21.843956
 40
0.200000
  1
10
  7
TQS_CALIBRI
  0
TEXT
  8
1
  6
CONTINUOUS
 10
116.437973
 20
16.222571
 40
0.250000
  1
AUTOR
  7
TQS_CALIBRI
  0
TEXT
  8
1
  6
CONTINUOUS
 10
106.749019
 20
10.335784
 40
0.195000
  1
Tel: 99928-2128
  7
TQS_CALIBRI
  0
TEXT
  8
1
  6
CONTINUOUS
 10
106.749019
 20
10.012284
 40
0.195000
  1
franciscogonca@hotmail.com 
  7
TQS_CALIBRI
  0
TEXT
  8
1
  6
CONTINUOUS
 10
106.749019
 20
9.680784
 40
0.195000
  1
Tel: 99981-6458
  7
TQS_CALIBRI
  0
TEXT
  8
1
  6
CONTINUOUS
 10
106.749019
 20
9.357284
 40
0.195000
  1
tiago@vgfengenharia.com.br 
  7
TQS_CALIBRI
  0
TEXT
  8
1
  6
CONTINUOUS
 10
106.749019
 20
9.025784
 40
0.195000
  1
Tel: 99912-8379
  7
TQS_CALIBRI
  0
TEXT
  8
1
  6
CONTINUOUS
 10
110.809443
 20
11.052624
 40
0.150000
  1
CLIENTE:
  7
TQS_CALIBRI
  0
TEXT
  8
1
  6
CONTINUOUS
 10
116.009770
 20
1.647683
 40
0.500000
  1
-R
  7
TQS_CALIBRI
  0
TEXT
  8
1
  6
CONTINUOUS
 10
101.832253
 20
12.547181
 40
0.250000
  1
RESPONSÁVEL -  Diego de Vasconcelos Gonçalves Ferreira
  7
TQS_CALIBRI
  0
TEXT
  8
1
  6
CONTINUOUS
 10
110.422141
 20
2.578345
 40
0.250000
  1
Diego Vasconcelos
  7
TQS_CALIBRI
  0
TEXT
  8
1
  6
CONTINUOUS
 10
106.749019
 20
10.667284
 40
0.195000
  1
diego@vgfengenharia.com.br 
  7
TQS_CALIBRI
  0
TEXT
  8
1
  6
CONTINUOUS
 10
104.982892
 20
16.853163
 40
0.200000
  1
Emissão inicial.
  7
TQS_CALIBRI
  0
TEXT
  8
1
  6
CONTINUOUS
 10
101.795719
 20
7.825700
 40
0.250000
  1
Assembléia Legislativa de Alagoas
  7
TQS_CALIBRI
  0
TEXT
  8
1
  6
CONTINUOUS
 10
104.517953
 20
14.045361
 40
0.250000
  1
ALA
  7
TQS_CALIBRI
  0
TEXT
  8
1
  6
CONTINUOUS
 10
101.789281
 20
2.263237
 40
0.250000
  1
27/02/2024
  7
TQS_CALIBRI
  0
TEXT
  8
1
  6
CONTINUOUS
 10
102.992347
 20
16.854551
 40
0.200000
  1
27/02/24
  7
TQS_CALIBRI
  0
TEXT
  8
1
  6
CONTINUOUS
 10
101.787954
 20
7.415393
 40
0.200000
  1
RUA SÁ E ALBUQUERQUE, NÚMERO 807, JARAGUÁ - MACEIÓ-AL
  7
TQS_CALIBRI
  0
TEXT
  8
1
  6
CONTINUOUS
 10
101.789859
 20
1.251887
 40
0.250000
  1
PE
  7
TQS_CALIBRI
  0
TEXT
  8
1
  6
CONTINUOUS
 10
105.114178
 20
1.251887
 40
0.250000
  1
CLA-EEM-EST-PE-0732-ARM-R00
  7
TQS_CALIBRI
  0
TEXT
  8
1
  6
CONTINUOUS
 10
116.547332
 20
16.842370
 40
0.200000
  1
DIEGO
  7
TQS_CALIBRI
  0
TEXT
  8
1
  6
CONTINUOUS
 10
114.396264
 20
1.644018
 40
0.500000
  1
0732
  7
TQS_CALIBRI
  0
TEXT
  8
1
  6
CONTINUOUS
 10
116.689770
 20
1.647683
 40
0.500000
  1
00
  7
TQS_CALIBRI
  0
TEXT
  8
1
  6
CONTINUOUS
 10
110.802729
 20
10.513659
 40
0.400000
  1
ALA
  7
TQS_CALIBRI
  0
TEXT
  8
1
  6
CONTINUOUS
 10
101.762319
 20
5.951739
 40
0.250000
  1
ARM. PROTENSÃO HORIZONTAL (06-Niv+1395) - 01 - J
  7
TQS_CALIBRI
  0
ENDSEC
  0
EOF
