  0
SECTION
  2
HEADER
  9
$ACADVER
  1
AC1002
  9
$USERI1
 70
0
  9
$INSBASE
 10
0.000000
 20
0.000000
  9
$EXTMIN
 10
0.000000
 20
0.000000
  9
$EXTMAX
 10
7.761771
 20
4.436620
  9
$LIMMIN
 10
0.000000
 20
0.000000
  9
$LIMMAX
 10
12.000000
 20
9.000000
  9
$VIEWCTR
 10
78.887138
 20
59.361758
  9
$VIEWSIZE
 40
127.522840
  9
$TEXTSIZE
 40
0.100000
  9
$TRACEWID
 40
0.010000
  9
$LTSCALE
 40
1.000000
  0
ENDSEC
  0
SECTION
  2
TABLES
  0
TABLE
  2
LTYPE
 70
     3
  0
LTYPE
  2
CONTINUOUS
 70
    64
  3
Solid line
 72
    65
 73
     0
 40
0.000000
  0
LTYPE
  2
ESTILO_TQS_0001
 70
    64
  3
-  -  -  -  -  -
 72
    65
 73
     2
 40
1.000000
 49
0.700000
 49
-0.300000
  0
LTYPE
  2
ESTILO_TQS_0002
 70
    64
  3
. . . . . . . .
 72
    65
 73
     2
 40
0.400000
 49
0.100000
 49
-0.300000
  0
LTYPE
  2
ESTILO_TQS_0003
 70
    64
  3
- . - . - . - .
 72
    65
 73
     4
 40
0.910000
 49
0.500000
 49
-0.200000
 49
0.010000
 49
-0.200000
  0
LTYPE
  2
ESTILO_TQS_0004
 70
    64
  3
- .. - .. - ..
 72
    65
 73
     6
 40
1.120000
 49
0.500000
 49
-0.200000
 49
0.010000
 49
-0.200000
 49
0.010000
 49
-0.200000
  0
LTYPE
  2
CONTINUOUS
 70
    64
  3
- - - - - - - -
 72
    65
 73
     2
 40
0.400000
 49
0.300000
 49
-0.100000
  0
ENDTAB
  0
TABLE
  2
LAYER
 70
    89
  0
LAYER
  2
0
 70
     0
 62
     7
  6
CONTINUOUS
  0
LAYER
  2
1
 70
     0
 62
     1
  6
CONTINUOUS
  0
LAYER
  2
2
 70
     0
 62
     2
  6
CONTINUOUS
  0
LAYER
  2
3
 70
     0
 62
     3
  6
CONTINUOUS
  0
LAYER
  2
4
 70
     0
 62
     4
  6
CONTINUOUS
  0
LAYER
  2
5
 70
     0
 62
     5
  6
CONTINUOUS
  0
LAYER
  2
6
 70
     0
 62
     6
  6
CONTINUOUS
  0
LAYER
  2
7
 70
     0
 62
     7
  6
CONTINUOUS
  0
LAYER
  2
8
 70
     0
 62
     8
  6
CONTINUOUS
  0
LAYER
  2
9
 70
     0
 62
     9
  6
CONTINUOUS
  0
LAYER
  2
10
 70
     0
 62
    10
  6
CONTINUOUS
  0
LAYER
  2
11
 70
     0
 62
    11
  6
CONTINUOUS
  0
LAYER
  2
12
 70
     0
 62
    12
  6
CONTINUOUS
  0
LAYER
  2
13
 70
     0
 62
    13
  6
CONTINUOUS
  0
LAYER
  2
14
 70
     0
 62
    14
  6
CONTINUOUS
  0
LAYER
  2
15
 70
     0
 62
    15
  6
CONTINUOUS
  0
LAYER
  2
16
 70
     0
 62
     7
  6
CONTINUOUS
  0
LAYER
  2
17
 70
     0
 62
     2
  6
CONTINUOUS
  0
LAYER
  2
18
 70
     0
 62
     4
  6
CONTINUOUS
  0
LAYER
  2
19
 70
     0
 62
     5
  6
CONTINUOUS
  0
LAYER
  2
20
 70
     0
 62
     4
  6
CONTINUOUS
  0
LAYER
  2
21
 70
     0
 62
     2
  6
CONTINUOUS
  0
LAYER
  2
22
 70
     0
 62
     1
  6
CONTINUOUS
  0
LAYER
  2
23
 70
     0
 62
     7
  6
CONTINUOUS
  0
LAYER
  2
24
 70
     0
 62
     6
  6
CONTINUOUS
  0
LAYER
  2
25
 70
     0
 62
     1
  6
CONTINUOUS
  0
LAYER
  2
26
 70
     0
 62
     3
  6
CONTINUOUS
  0
LAYER
  2
27
 70
     0
 62
     4
  6
CONTINUOUS
  0
LAYER
  2
28
 70
     0
 62
     4
  6
CONTINUOUS
  0
LAYER
  2
30
 70
     0
 62
     4
  6
CONTINUOUS
  0
LAYER
  2
100
 70
     0
 62
     1
  6
CONTINUOUS
  0
LAYER
  2
101
 70
     0
 62
     9
  6
CONTINUOUS
  0
LAYER
  2
102
 70
     0
 62
     7
  6
CONTINUOUS
  0
LAYER
  2
103
 70
     0
 62
     2
  6
CONTINUOUS
  0
LAYER
  2
104
 70
     0
 62
    11
  6
CONTINUOUS
  0
LAYER
  2
105
 70
     0
 62
     3
  6
CONTINUOUS
  0
LAYER
  2
106
 70
     0
 62
     5
  6
CONTINUOUS
  0
LAYER
  2
107
 70
     0
 62
     3
  6
CONTINUOUS
  0
LAYER
  2
108
 70
     0
 62
     5
  6
CONTINUOUS
  0
LAYER
  2
109
 70
     0
 62
     3
  6
CONTINUOUS
  0
LAYER
  2
197
 70
     0
 62
     3
  6
CONTINUOUS
  0
LAYER
  2
198
 70
     0
 62
     2
  6
CONTINUOUS
  0
LAYER
  2
199
 70
     0
 62
     6
  6
CONTINUOUS
  0
LAYER
  2
200
 70
     0
 62
     7
  6
ESTILO_TQS_0002
  0
LAYER
  2
201
 70
     0
 62
     7
  6
ESTILO_TQS_0001
  0
LAYER
  2
202
 70
     0
 62
     7
  6
CONTINUOUS
  0
LAYER
  2
203
 70
     0
 62
     7
  6
ESTILO_TQS_0001
  0
LAYER
  2
204
 70
     0
 62
     7
  6
ESTILO_TQS_0003
  0
LAYER
  2
205
 70
     0
 62
     5
  6
ESTILO_TQS_0004
  0
LAYER
  2
206
 70
     0
 62
    15
  6
CONTINUOUS
  0
LAYER
  2
207
 70
     0
 62
     2
  6
CONTINUOUS
  0
LAYER
  2
208
 70
     0
 62
     5
  6
CONTINUOUS
  0
LAYER
  2
210
 70
     0
 62
    15
  6
ESTILO_TQS_0002
  0
LAYER
  2
211
 70
     0
 62
     7
  6
ESTILO_TQS_0001
  0
LAYER
  2
214
 70
     0
 62
    15
  6
CONTINUOUS
  0
LAYER
  2
215
 70
     0
 62
     2
  6
CONTINUOUS
  0
LAYER
  2
216
 70
     0
 62
     3
  6
CONTINUOUS
  0
LAYER
  2
217
 70
     0
 62
     3
  6
CONTINUOUS
  0
LAYER
  2
218
 70
     0
 62
     2
  6
CONTINUOUS
  0
LAYER
  2
219
 70
     0
 62
    15
  6
CONTINUOUS
  0
LAYER
  2
220
 70
     0
 62
    10
  6
CONTINUOUS
  0
LAYER
  2
221
 70
     0
 62
    11
  6
CONTINUOUS
  0
LAYER
  2
222
 70
     0
 62
    12
  6
CONTINUOUS
  0
LAYER
  2
223
 70
     0
 62
     6
  6
CONTINUOUS
  0
LAYER
  2
224
 70
     0
 62
     1
  6
CONTINUOUS
  0
LAYER
  2
225
 70
     0
 62
    15
  6
CONTINUOUS
  0
LAYER
  2
226
 70
     0
 62
     2
  6
CONTINUOUS
  0
LAYER
  2
227
 70
     0
 62
    10
  6
CONTINUOUS
  0
LAYER
  2
228
 70
     0
 62
    11
  6
CONTINUOUS
  0
LAYER
  2
229
 70
     0
 62
    12
  6
CONTINUOUS
  0
LAYER
  2
230
 70
     0
 62
     6
  6
CONTINUOUS
  0
LAYER
  2
231
 70
     0
 62
     3
  6
CONTINUOUS
  0
LAYER
  2
232
 70
     0
 62
    12
  6
CONTINUOUS
  0
LAYER
  2
233
 70
     0
 62
     4
  6
CONTINUOUS
  0
LAYER
  2
234
 70
     0
 62
    13
  6
CONTINUOUS
  0
LAYER
  2
235
 70
     0
 62
     5
  6
CONTINUOUS
  0
LAYER
  2
236
 70
     0
 62
     2
  6
CONTINUOUS
  0
LAYER
  2
237
 70
     0
 62
     6
  6
CONTINUOUS
  0
LAYER
  2
238
 70
     0
 62
    12
  6
CONTINUOUS
  0
LAYER
  2
239
 70
     0
 62
    11
  6
CONTINUOUS
  0
LAYER
  2
240
 70
     0
 62
    11
  6
CONTINUOUS
  0
LAYER
  2
241
 70
     0
 62
    12
  6
CONTINUOUS
  0
ENDTAB
  0
TABLE
  2
STYLE
 70
     1
  0
STYLE
  2
STANDARD
 70
    64
 40
0.000000
 41
1.000000
 50
0.000000
 71
     0
 42
0.200000
  3
ROMANS.SHX
  4

  0
STYLE
  2
TQS_CALIBRI
 70
     0
 40
0.000000
 41
1.000000
 50
0.000000
 71
     0
 42
0.200000
  3
calibri.ttf
  0
STYLE
  2
TQS_CALIBRI_U
 70
     0
 40
0.000000
 41
1.000000
 50
0.000000
 71
     0
 42
0.200000
  3
calibri.ttf
  0
STYLE
  2
TQS_CALIBRI_I
 70
     0
 40
0.000000
 41
1.000000
 50
0.000000
 71
     0
 42
0.200000
  3
calibri.ttf
  0
STYLE
  2
TQS_CALIBRI_I_U
 70
     0
 40
0.000000
 41
1.000000
 50
0.000000
 71
     0
 42
0.200000
  3
calibri.ttf
  0
STYLE
  2
TQS_CALIBRI_B
 70
     0
 40
0.000000
 41
1.000000
 50
0.000000
 71
     0
 42
0.200000
  3
calibri.ttf
  0
STYLE
  2
TQS_CALIBRI_B_U
 70
     0
 40
0.000000
 41
1.000000
 50
0.000000
 71
     0
 42
0.200000
  3
calibri.ttf
  0
STYLE
  2
TQS_CALIBRI_B_I
 70
     0
 40
0.000000
 41
1.000000
 50
0.000000
 71
     0
 42
0.200000
  3
calibri.ttf
  0
STYLE
  2
TQS_CALIBRI_B_I_U
 70
     0
 40
0.000000
 41
1.000000
 50
0.000000
 71
     0
 42
0.200000
  3
calibri.ttf
  0
ENDTAB
  0
TABLE
  2
VIEW
 70
     0
  0
ENDTAB
  0
ENDSEC
  0
SECTION
  2
BLOCKS
  0
BLOCK
  8
0
  2
_PLWTQS
 70
    64
 10
0.000000
 20
0.000000
  0
TEXT
  8
0
  6
CONTINUOUS
 10
0.000000
 20
0.000000
 40
0.200000
  1
$PLWDWGGlBMVwAAAAAAAChABAAAABMAwISWV6Am2UD57H74XzDLb1MokEd+pMligQFL2LD6OsO7pkGY903FsUQVPd2mt9HDDQCMGgbjxUnlsTzxjHxlqDiwJxaErOpqIdDz9M5fDX8yusgle0oRIfxUUwE3XJkNWIIl5lcXvfwk02taNAs=
  7
TQS_CALIBRI
  0
TEXT
  8
0
  6
CONTINUOUS
 10
0.000000
 20
-0.250000
 40
0.200000
  1
$PLWDWGKjY94vaBuBF5O7U0EglRZ/iASTdtt/X19ucSMNOBQpaPmTJU3Gk3Hh2E8LQIQc33jhrRIg13SFjdzBoD8ky4xD4ZPKZq+M4glq0FewU7M22Qy+1aKmPLcweXPcRrB9vFelFhhOhRQmxa2+CWPrpUnJQwjOrb20kHMuz4+uibkOM=
  7
TQS_CALIBRI
  0
TEXT
  8
0
  6
CONTINUOUS
 10
0.000000
 20
-0.500000
 40
0.200000
  1
$PLWDWGY2AsZO09Y3n19a5ROp49rdOCeWMzQ7PIBeONJZZ4oJj/4h8+BQO6bv9GMGTd5MbRNzKIumzJwtD3oabRfrL1s2uvNQv4KCntgkAq69VAoP41Ft4ToVoCvkCYssRTZATbs1K14/Yaku9UHHV4PEe1+rep9MrZZFpKfSxVIK6gXjo=
  7
TQS_CALIBRI
  0
TEXT
  8
0
  6
CONTINUOUS
 10
0.000000
 20
-0.750000
 40
0.200000
  1
$PLWDWGv9HBzHVvTPMsC1h+Dp1BSps0xOikc2Iiy0N2Fc+Kj5Jy9biVWPKyIya2GaZyKGgBQlyGZhEeWplIdQ9n3Qs8IHWKNDLbc6Vb6HvzjLE+gJc3fhcyaJ6ohmge+RvQ6CjyG2oA3yZmWJNPwg5xRevsQBEiveX8HX3yXUupZptCVp0=
  7
TQS_CALIBRI
  0
TEXT
  8
0
  6
CONTINUOUS
 10
0.000000
 20
-1.000000
 40
0.200000
  1
$PLWDWGcagAZ/KbbqqOWccHaxiazjx5nNUOS/e0Vxz0GYqQzRFOS5npj2sQ0lfWMKmZZ7Pc1kJtM5tUg3ABcTGqDoznChmSkgQ/RF7Ut0uuXVjyJNghCRCpJqsalOMjXs5Tg/WBYbbTUjqkTWVpSdCiqeMnG0LU+nwKv8lvGNTauZSiEMw=
  7
TQS_CALIBRI
  0
TEXT
  8
0
  6
CONTINUOUS
 10
0.000000
 20
-1.250000
 40
0.200000
  1
$PLWDWG+/WsBslVIgpLg2vW/CojVwnSXOktnP7z4HI1capzSpMtftiFxtux/xme5+NyQGhNb4T8Cc8q7hK/bHtTS5hw0jrC9oOAVTdri7xgxNpa5SCbLSm+fEH4fjFiUQjZocGLdNbP9mDJPRvDbQ6Q/RqsQYYZHDzs3PSKTlio5a7QjK0=
  7
TQS_CALIBRI
  0
TEXT
  8
0
  6
CONTINUOUS
 10
0.000000
 20
-1.500000
 40
0.200000
  1
$PLWDWGe3b3/k7VopWfGaqtSrBuVRK8AKKLc3nNMi1wD6BjPjXItk6kfg/ATPgjoFI9YwZ4dnCZNi0msI2kDDf4AkCmuKM7lIjfnnoXydNdWuuPOKYbn/bXg7jWqyuBhebydGH7/fKECOttEiq1a8xtFNLe0hCxzJE4dsVwc3ytKCSnVqE=
  7
TQS_CALIBRI
  0
TEXT
  8
0
  6
CONTINUOUS
 10
0.000000
 20
-1.750000
 40
0.200000
  1
$PLWDWGLvUClp42exi6cwBDRWHdi5fEOsGuWltNv6pd2X2+XBX8U44sOTxF9JUja+aZWVcEmsHNUkysCTcAAAAAYKz+esxW7PHYqymGQ6WtXprBzVJMrAk3AAAAAA==
  7
TQS_CALIBRI
  0
ENDBLK
  8
0
  0
ENDSEC
  0
SECTION
  2
ENTITIES
  0
SOLID
  8
13
  6
CONTINUOUS
 10
102.095046
 20
10.244446
 11
102.095046
 21
9.498246
 12
101.971546
 22
9.498246
 13
101.971546
 23
9.498246
  0
SOLID
  8
13
  6
CONTINUOUS
 10
102.095046
 20
10.244446
 11
101.971546
 21
9.498246
 12
101.971546
 22
11.162246
 13
101.971546
 23
11.162246
  0
SOLID
  8
13
  6
CONTINUOUS
 10
102.095046
 20
10.244446
 11
101.971546
 21
11.162246
 12
102.095046
 22
11.162246
 13
102.095046
 23
11.162246
  0
SOLID
  8
13
  6
CONTINUOUS
 10
102.095046
 20
10.244446
 11
102.095046
 21
11.162246
 12
102.095046
 22
10.244446
 13
102.095046
 23
10.244446
  0
SOLID
  8
13
  6
CONTINUOUS
 10
102.522746
 20
10.230979
 11
102.522746
 21
9.498246
 12
102.095046
 22
9.498246
 13
102.095046
 23
9.498246
  0
SOLID
  8
13
  6
CONTINUOUS
 10
102.522746
 20
10.230979
 11
102.095046
 21
9.498246
 12
102.095046
 22
10.244446
 13
102.095046
 23
10.244446
  0
SOLID
  8
13
  6
CONTINUOUS
 10
102.522746
 20
10.230979
 11
102.095046
 21
10.244446
 12
102.143544
 22
10.248642
 13
102.143544
 23
10.248642
  0
SOLID
  8
13
  6
CONTINUOUS
 10
102.522746
 20
10.230979
 11
102.143544
 21
10.248642
 12
102.211078
 22
10.252071
 13
102.211078
 23
10.252071
  0
SOLID
  8
13
  6
CONTINUOUS
 10
102.522746
 20
10.230979
 11
102.211078
 21
10.252071
 12
102.259959
 22
10.252484
 13
102.259959
 23
10.252484
  0
SOLID
  8
13
  6
CONTINUOUS
 10
102.522746
 20
10.230979
 11
102.259959
 21
10.252484
 12
102.290321
 22
10.252141
 13
102.290321
 23
10.252141
  0
SOLID
  8
13
  6
CONTINUOUS
 10
102.522746
 20
10.230979
 11
102.290321
 21
10.252141
 12
102.334203
 22
10.250668
 13
102.334203
 23
10.250668
  0
SOLID
  8
13
  6
CONTINUOUS
 10
102.522746
 20
10.230979
 11
102.334203
 21
10.250668
 12
102.394518
 22
10.246747
 13
102.394518
 23
10.246747
  0
SOLID
  8
13
  6
CONTINUOUS
 10
102.522746
 20
10.230979
 11
102.394518
 21
10.246747
 12
102.446340
 22
10.241621
 13
102.446340
 23
10.241621
  0
SOLID
  8
13
  6
CONTINUOUS
 10
102.522746
 20
10.230979
 11
102.446340
 21
10.241621
 12
102.490083
 22
10.235974
 13
102.490083
 23
10.235974
  0
SOLID
  8
13
  6
CONTINUOUS
 10
102.522746
 20
10.230979
 11
102.490083
 21
10.235974
 12
102.522746
 22
10.230979
 13
102.522746
 23
10.230979
  0
SOLID
  8
13
  6
CONTINUOUS
 10
102.594246
 20
10.217654
 11
102.594246
 21
9.498246
 12
103.021946
 22
9.498246
 13
103.021946
 23
9.498246
  0
SOLID
  8
13
  6
CONTINUOUS
 10
102.594246
 20
10.217654
 11
103.021946
 21
9.498246
 12
103.021946
 22
10.064184
 13
103.021946
 23
10.064184
  0
SOLID
  8
13
  6
CONTINUOUS
 10
102.594246
 20
10.217654
 11
103.021946
 21
10.064184
 12
103.003898
 22
10.073542
 13
103.003898
 23
10.073542
  0
SOLID
  8
13
  6
CONTINUOUS
 10
102.594246
 20
10.217654
 11
103.003898
 21
10.073542
 12
102.981716
 22
10.084501
 13
102.981716
 23
10.084501
  0
SOLID
  8
13
  6
CONTINUOUS
 10
102.594246
 20
10.217654
 11
102.981716
 21
10.084501
 12
102.953307
 22
10.098271
 13
102.953307
 23
10.098271
  0
SOLID
  8
13
  6
CONTINUOUS
 10
102.594246
 20
10.217654
 11
102.953307
 21
10.098271
 12
102.912865
 22
10.116383
 13
102.912865
 23
10.116383
  0
SOLID
  8
13
  6
CONTINUOUS
 10
102.594246
 20
10.217654
 11
102.912865
 21
10.116383
 12
102.885024
 22
10.128001
 13
102.885024
 23
10.128001
  0
SOLID
  8
13
  6
CONTINUOUS
 10
102.594246
 20
10.217654
 11
102.885024
 21
10.128001
 12
102.844071
 22
10.144755
 13
102.844071
 23
10.144755
  0
SOLID
  8
13
  6
CONTINUOUS
 10
102.594246
 20
10.217654
 11
102.844071
 21
10.144755
 12
102.813490
 22
10.155923
 13
102.813490
 23
10.155923
  0
SOLID
  8
13
  6
CONTINUOUS
 10
102.594246
 20
10.217654
 11
102.813490
 21
10.155923
 12
102.778388
 22
10.168156
 13
102.778388
 23
10.168156
  0
SOLID
  8
13
  6
CONTINUOUS
 10
102.594246
 20
10.217654
 11
102.778388
 21
10.168156
 12
102.744083
 22
10.178793
 13
102.744083
 23
10.178793
  0
SOLID
  8
13
  6
CONTINUOUS
 10
102.594246
 20
10.217654
 11
102.744083
 21
10.178793
 12
102.703465
 22
10.191172
 13
102.703465
 23
10.191172
  0
SOLID
  8
13
  6
CONTINUOUS
 10
102.594246
 20
10.217654
 11
102.703465
 21
10.191172
 12
102.665141
 22
10.201162
 13
102.665141
 23
10.201162
  0
SOLID
  8
13
  6
CONTINUOUS
 10
102.594246
 20
10.217654
 11
102.665141
 21
10.201162
 12
102.624819
 22
10.210970
 13
102.624819
 23
10.210970
  0
SOLID
  8
13
  6
CONTINUOUS
 10
102.594246
 20
10.217654
 11
102.624819
 21
10.210970
 12
102.594246
 22
10.217654
 13
102.594246
 23
10.217654
  0
SOLID
  8
13
  6
CONTINUOUS
 10
103.093446
 20
10.024343
 11
103.093446
 21
9.498246
 12
103.521146
 22
9.498246
 13
103.521146
 23
9.498246
  0
SOLID
  8
13
  6
CONTINUOUS
 10
103.093446
 20
10.024343
 11
103.521146
 21
9.498246
 12
103.521146
 22
9.661030
 13
103.521146
 23
9.661030
  0
SOLID
  8
13
  6
CONTINUOUS
 10
103.093446
 20
10.024343
 11
103.521146
 21
9.661030
 12
103.507797
 22
9.676793
 13
103.507797
 23
9.676793
  0
SOLID
  8
13
  6
CONTINUOUS
 10
103.093446
 20
10.024343
 11
103.507797
 21
9.676793
 12
103.495964
 22
9.690528
 13
103.495964
 23
9.690528
  0
SOLID
  8
13
  6
CONTINUOUS
 10
103.093446
 20
10.024343
 11
103.495964
 21
9.690528
 12
103.473877
 22
9.715277
 13
103.473877
 23
9.715277
  0
SOLID
  8
13
  6
CONTINUOUS
 10
103.093446
 20
10.024343
 11
103.473877
 21
9.715277
 12
103.454164
 22
9.736530
 13
103.454164
 23
9.736530
  0
SOLID
  8
13
  6
CONTINUOUS
 10
103.093446
 20
10.024343
 11
103.454164
 21
9.736530
 12
103.434048
 22
9.757502
 13
103.434048
 23
9.757502
  0
SOLID
  8
13
  6
CONTINUOUS
 10
103.093446
 20
10.024343
 11
103.434048
 21
9.757502
 12
103.410015
 22
9.781535
 13
103.410015
 23
9.781535
  0
SOLID
  8
13
  6
CONTINUOUS
 10
103.093446
 20
10.024343
 11
103.410015
 21
9.781535
 12
103.399294
 22
9.791943
 13
103.399294
 23
9.791943
  0
SOLID
  8
13
  6
CONTINUOUS
 10
103.093446
 20
10.024343
 11
103.399294
 21
9.791943
 12
103.388429
 22
9.802406
 13
103.388429
 23
9.802406
  0
SOLID
  8
13
  6
CONTINUOUS
 10
103.093446
 20
10.024343
 11
103.388429
 21
9.802406
 12
103.359952
 22
9.828752
 13
103.359952
 23
9.828752
  0
SOLID
  8
13
  6
CONTINUOUS
 10
103.093446
 20
10.024343
 11
103.359952
 21
9.828752
 12
103.325139
 22
9.859181
 13
103.325139
 23
9.859181
  0
SOLID
  8
13
  6
CONTINUOUS
 10
103.093446
 20
10.024343
 11
103.325139
 21
9.859181
 12
103.286846
 22
9.890826
 13
103.286846
 23
9.890826
  0
SOLID
  8
13
  6
CONTINUOUS
 10
103.093446
 20
10.024343
 11
103.286846
 21
9.890826
 12
103.251036
 22
9.918745
 13
103.251036
 23
9.918745
  0
SOLID
  8
13
  6
CONTINUOUS
 10
103.093446
 20
10.024343
 11
103.251036
 21
9.918745
 12
103.200839
 22
9.955427
 13
103.200839
 23
9.955427
  0
SOLID
  8
13
  6
CONTINUOUS
 10
103.093446
 20
10.024343
 11
103.200839
 21
9.955427
 12
103.134352
 22
9.999676
 13
103.134352
 23
9.999676
  0
SOLID
  8
13
  6
CONTINUOUS
 10
103.093446
 20
10.024343
 11
103.134352
 21
9.999676
 12
103.093446
 22
10.024343
 13
103.093446
 23
10.024343
  0
SOLID
  8
13
  6
CONTINUOUS
 10
102.522746
 20
10.635283
 11
102.522746
 21
11.162246
 12
102.095046
 22
11.162246
 13
102.095046
 23
11.162246
  0
SOLID
  8
13
  6
CONTINUOUS
 10
102.522746
 20
10.635283
 11
102.095046
 21
11.162246
 12
102.095046
 22
10.995122
 13
102.095046
 23
10.995122
  0
SOLID
  8
13
  6
CONTINUOUS
 10
102.522746
 20
10.635283
 11
102.095046
 21
10.995122
 12
102.153689
 22
10.929235
 13
102.153689
 23
10.929235
  0
SOLID
  8
13
  6
CONTINUOUS
 10
102.522746
 20
10.635283
 11
102.153689
 21
10.929235
 12
102.237359
 22
10.846559
 13
102.237359
 23
10.846559
  0
SOLID
  8
13
  6
CONTINUOUS
 10
102.522746
 20
10.635283
 11
102.237359
 21
10.846559
 12
102.308389
 22
10.784730
 13
102.308389
 23
10.784730
  0
SOLID
  8
13
  6
CONTINUOUS
 10
102.522746
 20
10.635283
 11
102.308389
 21
10.784730
 12
102.366624
 22
10.739274
 13
102.366624
 23
10.739274
  0
SOLID
  8
13
  6
CONTINUOUS
 10
102.522746
 20
10.635283
 11
102.366624
 21
10.739274
 12
102.406322
 22
10.710064
 13
102.406322
 23
10.710064
  0
SOLID
  8
13
  6
CONTINUOUS
 10
102.522746
 20
10.635283
 11
102.406322
 21
10.710064
 12
102.455827
 22
10.676682
 13
102.455827
 23
10.676682
  0
SOLID
  8
13
  6
CONTINUOUS
 10
102.522746
 20
10.635283
 11
102.455827
 21
10.676682
 12
102.493954
 22
10.652515
 13
102.493954
 23
10.652515
  0
SOLID
  8
13
  6
CONTINUOUS
 10
102.522746
 20
10.635283
 11
102.493954
 21
10.652515
 12
102.522746
 22
10.635283
 13
102.522746
 23
10.635283
  0
SOLID
  8
13
  6
CONTINUOUS
 10
103.021946
 20
10.443678
 11
103.021946
 21
11.162246
 12
102.594246
 22
11.162246
 13
102.594246
 23
11.162246
  0
SOLID
  8
13
  6
CONTINUOUS
 10
103.021946
 20
10.443678
 11
102.594246
 21
11.162246
 12
102.594246
 22
10.595859
 13
102.594246
 23
10.595859
  0
SOLID
  8
13
  6
CONTINUOUS
 10
103.021946
 20
10.443678
 11
102.594246
 21
10.595859
 12
102.663800
 22
10.561766
 13
102.663800
 23
10.561766
  0
SOLID
  8
13
  6
CONTINUOUS
 10
103.021946
 20
10.443678
 11
102.663800
 21
10.561766
 12
102.744359
 22
10.527375
 13
102.744359
 23
10.527375
  0
SOLID
  8
13
  6
CONTINUOUS
 10
103.021946
 20
10.443678
 11
102.744359
 21
10.527375
 12
102.812197
 22
10.501464
 13
102.812197
 23
10.501464
  0
SOLID
  8
13
  6
CONTINUOUS
 10
103.021946
 20
10.443678
 11
102.812197
 21
10.501464
 12
102.889458
 22
10.476967
 13
102.889458
 23
10.476967
  0
SOLID
  8
13
  6
CONTINUOUS
 10
103.021946
 20
10.443678
 11
102.889458
 21
10.476967
 12
102.950702
 22
10.460007
 13
102.950702
 23
10.460007
  0
SOLID
  8
13
  6
CONTINUOUS
 10
103.021946
 20
10.443678
 11
102.950702
 21
10.460007
 12
103.021946
 22
10.443678
 13
103.021946
 23
10.443678
  0
SOLID
  8
13
  6
CONTINUOUS
 10
103.093446
 20
10.430307
 11
103.093446
 21
11.162246
 12
103.521146
 22
11.162246
 13
103.521146
 23
11.162246
  0
SOLID
  8
13
  6
CONTINUOUS
 10
103.093446
 20
10.430307
 11
103.521146
 21
11.162246
 12
103.521146
 22
10.417580
 13
103.521146
 23
10.417580
  0
SOLID
  8
13
  6
CONTINUOUS
 10
103.093446
 20
10.430307
 11
103.521146
 21
10.417580
 12
103.476372
 22
10.413637
 13
103.476372
 23
10.413637
  0
SOLID
  8
13
  6
CONTINUOUS
 10
103.093446
 20
10.430307
 11
103.476372
 21
10.413637
 12
103.416577
 22
10.410480
 13
103.416577
 23
10.410480
  0
SOLID
  8
13
  6
CONTINUOUS
 10
103.093446
 20
10.430307
 11
103.416577
 21
10.410480
 12
103.366788
 22
10.409453
 13
103.366788
 23
10.409453
  0
SOLID
  8
13
  6
CONTINUOUS
 10
103.093446
 20
10.430307
 11
103.366788
 21
10.409453
 12
103.336830
 22
10.409453
 13
103.336830
 23
10.409453
  0
SOLID
  8
13
  6
CONTINUOUS
 10
103.093446
 20
10.430307
 11
103.336830
 21
10.409453
 12
103.286182
 22
10.410821
 13
103.286182
 23
10.410821
  0
SOLID
  8
13
  6
CONTINUOUS
 10
103.093446
 20
10.430307
 11
103.286182
 21
10.410821
 12
103.241261
 22
10.413321
 13
103.241261
 23
10.413321
  0
SOLID
  8
13
  6
CONTINUOUS
 10
103.093446
 20
10.430307
 11
103.241261
 21
10.413321
 12
103.205545
 22
10.416539
 13
103.205545
 23
10.416539
  0
SOLID
  8
13
  6
CONTINUOUS
 10
103.093446
 20
10.430307
 11
103.205545
 21
10.416539
 12
103.155349
 22
10.421044
 13
103.155349
 23
10.421044
  0
SOLID
  8
13
  6
CONTINUOUS
 10
103.093446
 20
10.430307
 11
103.155349
 21
10.421044
 12
103.093446
 22
10.430307
 13
103.093446
 23
10.430307
  0
SOLID
  8
13
  6
CONTINUOUS
 10
102.594246
 20
9.498246
 11
102.594246
 21
11.162246
 12
102.522746
 22
11.162246
 13
102.522746
 23
11.162246
  0
SOLID
  8
13
  6
CONTINUOUS
 10
102.594246
 20
9.498246
 11
102.522746
 21
11.162246
 12
102.522746
 22
9.498246
 13
102.522746
 23
9.498246
  0
SOLID
  8
13
  6
CONTINUOUS
 10
102.594246
 20
9.498246
 11
102.522746
 21
9.498246
 12
102.522746
 22
9.498246
 13
102.522746
 23
9.498246
  0
SOLID
  8
13
  6
CONTINUOUS
 10
103.021946
 20
11.162246
 11
103.093446
 21
11.162246
 12
103.093446
 22
9.498246
 13
103.093446
 23
9.498246
  0
SOLID
  8
13
  6
CONTINUOUS
 10
103.021946
 20
11.162246
 11
103.093446
 21
9.498246
 12
103.021946
 22
9.498246
 13
103.021946
 23
9.498246
  0
SOLID
  8
13
  6
CONTINUOUS
 10
103.021946
 20
11.162246
 11
103.021946
 21
9.498246
 12
103.021946
 22
11.162246
 13
103.021946
 23
11.162246
  0
SOLID
  8
13
  6
CONTINUOUS
 10
103.521146
 20
9.498246
 11
103.635546
 21
9.498246
 12
103.635546
 22
11.162246
 13
103.635546
 23
11.162246
  0
SOLID
  8
13
  6
CONTINUOUS
 10
103.521146
 20
9.498246
 11
103.635546
 21
11.162246
 12
103.521146
 22
11.162246
 13
103.521146
 23
11.162246
  0
SOLID
  8
13
  6
CONTINUOUS
 10
103.521146
 20
9.498246
 11
103.521146
 21
11.162246
 12
103.521146
 22
9.498246
 13
103.521146
 23
9.498246
  0
LINE
  8
1
  6
CONTINUOUS
 10
13.589260
 20
71.282860
 11
33.012988
 21
71.282860
  0
LINE
  8
1
  6
CONTINUOUS
 10
13.589260
 20
71.282860
 11
13.589260
 21
70.282860
  0
LINE
  8
1
  6
CONTINUOUS
 10
13.589260
 20
70.282860
 11
29.878540
 21
70.282860
  0
LINE
  8
1
  6
CONTINUOUS
 10
13.589260
 20
70.282860
 11
13.589260
 21
69.282860
  0
LINE
  8
1
  6
CONTINUOUS
 10
16.078376
 20
70.282860
 11
16.078376
 21
69.282860
  0
LINE
  8
1
  6
CONTINUOUS
 10
18.216089
 20
70.282860
 11
18.216089
 21
69.282860
  0
LINE
  8
1
  6
CONTINUOUS
 10
19.591456
 20
70.282860
 11
19.591456
 21
69.282860
  0
LINE
  8
1
  6
CONTINUOUS
 10
23.755969
 20
69.782860
 11
23.755969
 21
69.282860
  0
LINE
  8
1
  6
CONTINUOUS
 10
26.744092
 20
70.282860
 11
26.744092
 21
69.282860
  0
LINE
  8
1
  6
CONTINUOUS
 10
27.788907
 20
69.782860
 11
27.788908
 21
69.282860
  0
LINE
  8
1
  6
CONTINUOUS
 10
28.833724
 20
69.782860
 11
28.833724
 21
69.282860
  0
LINE
  8
1
  6
CONTINUOUS
 10
29.878540
 20
70.282860
 11
29.878540
 21
69.282860
  0
LINE
  8
1
  6
CONTINUOUS
 10
13.589260
 20
69.282860
 11
33.012988
 21
69.282860
  0
LINE
  8
1
  6
CONTINUOUS
 10
19.591456
 20
69.782860
 11
23.755969
 21
69.782860
  0
LINE
  8
1
  6
CONTINUOUS
 10
23.755969
 20
69.782860
 11
26.744092
 21
69.782860
  0
LINE
  8
1
  6
CONTINUOUS
 10
26.744092
 20
69.782860
 11
27.788908
 21
69.782860
  0
LINE
  8
1
  6
CONTINUOUS
 10
27.788908
 20
69.782860
 11
28.833724
 21
69.782860
  0
LINE
  8
1
  6
CONTINUOUS
 10
28.833724
 20
69.782860
 11
33.012988
 21
69.782860
  0
LINE
  8
1
  6
CONTINUOUS
 10
33.012988
 20
69.282860
 11
33.012988
 21
71.282860
  0
LINE
  8
1
  6
CONTINUOUS
 10
31.445764
 20
69.782860
 11
31.445764
 21
69.282860
  0
LINE
  8
1
  6
CONTINUOUS
 10
29.878540
 20
70.282860
 11
33.012988
 21
70.282860
  0
LINE
  8
1
  6
CONTINUOUS
 10
13.589260
 20
69.282860
 11
13.589260
 21
68.782859
  0
LINE
  8
1
  6
CONTINUOUS
 10
13.589260
 20
68.782859
 11
33.012988
 21
68.782859
  0
LINE
  8
1
  6
CONTINUOUS
 10
16.078376
 20
69.282860
 11
16.078376
 21
68.782859
  0
LINE
  8
1
  6
CONTINUOUS
 10
18.216089
 20
69.282860
 11
18.216089
 21
68.782859
  0
LINE
  8
1
  6
CONTINUOUS
 10
19.591456
 20
69.282860
 11
19.591456
 21
68.782859
  0
LINE
  8
1
  6
CONTINUOUS
 10
23.755969
 20
69.282860
 11
23.755969
 21
68.782859
  0
LINE
  8
1
  6
CONTINUOUS
 10
26.744092
 20
69.282860
 11
26.744092
 21
68.782859
  0
LINE
  8
1
  6
CONTINUOUS
 10
27.788908
 20
69.282860
 11
27.788908
 21
68.782859
  0
LINE
  8
1
  6
CONTINUOUS
 10
28.833724
 20
69.282860
 11
28.833724
 21
68.782859
  0
LINE
  8
1
  6
CONTINUOUS
 10
29.878540
 20
69.282860
 11
29.878540
 21
68.782859
  0
LINE
  8
1
  6
CONTINUOUS
 10
29.878540
 20
68.782859
 11
29.878540
 21
69.282860
  0
LINE
  8
1
  6
CONTINUOUS
 10
29.878540
 20
69.282860
 11
29.878540
 21
68.782859
  0
LINE
  8
1
  6
CONTINUOUS
 10
31.445764
 20
69.282860
 11
31.445764
 21
68.782859
  0
LINE
  8
1
  6
CONTINUOUS
 10
33.012988
 20
69.282860
 11
33.012988
 21
68.782859
  0
LINE
  8
1
  6
CONTINUOUS
 10
13.589260
 20
68.782859
 11
13.589260
 21
68.282859
  0
LINE
  8
1
  6
CONTINUOUS
 10
13.589260
 20
68.282859
 11
33.012988
 21
68.282859
  0
LINE
  8
1
  6
CONTINUOUS
 10
16.078376
 20
68.782859
 11
16.078376
 21
68.282859
  0
LINE
  8
1
  6
CONTINUOUS
 10
18.216089
 20
68.782859
 11
18.216089
 21
68.282859
  0
LINE
  8
1
  6
CONTINUOUS
 10
19.591456
 20
68.782859
 11
19.591456
 21
68.282859
  0
LINE
  8
1
  6
CONTINUOUS
 10
23.755969
 20
68.782859
 11
23.755969
 21
68.282859
  0
LINE
  8
1
  6
CONTINUOUS
 10
26.744092
 20
68.782859
 11
26.744092
 21
68.282859
  0
LINE
  8
1
  6
CONTINUOUS
 10
27.788908
 20
68.782859
 11
27.788908
 21
68.282859
  0
LINE
  8
1
  6
CONTINUOUS
 10
28.833724
 20
68.782859
 11
28.833724
 21
68.282859
  0
LINE
  8
1
  6
CONTINUOUS
 10
29.878540
 20
68.782859
 11
29.878540
 21
68.282859
  0
LINE
  8
1
  6
CONTINUOUS
 10
29.878540
 20
68.282859
 11
29.878540
 21
68.782859
  0
LINE
  8
1
  6
CONTINUOUS
 10
29.878540
 20
68.782859
 11
29.878540
 21
68.282859
  0
LINE
  8
1
  6
CONTINUOUS
 10
31.445764
 20
68.782859
 11
31.445764
 21
68.282859
  0
LINE
  8
1
  6
CONTINUOUS
 10
33.012988
 20
68.782859
 11
33.012988
 21
68.282859
  0
LINE
  8
1
  6
CONTINUOUS
 10
13.589260
 20
68.282858
 11
13.589260
 21
67.782858
  0
LINE
  8
1
  6
CONTINUOUS
 10
13.589260
 20
67.782858
 11
33.012988
 21
67.782858
  0
LINE
  8
1
  6
CONTINUOUS
 10
16.078376
 20
68.282858
 11
16.078376
 21
67.782858
  0
LINE
  8
1
  6
CONTINUOUS
 10
18.216089
 20
68.282858
 11
18.216089
 21
67.782858
  0
LINE
  8
1
  6
CONTINUOUS
 10
19.591456
 20
68.282858
 11
19.591456
 21
67.782858
  0
LINE
  8
1
  6
CONTINUOUS
 10
23.755969
 20
68.282858
 11
23.755969
 21
67.782858
  0
LINE
  8
1
  6
CONTINUOUS
 10
26.744092
 20
68.282858
 11
26.744092
 21
67.782858
  0
LINE
  8
1
  6
CONTINUOUS
 10
27.788908
 20
68.282858
 11
27.788908
 21
67.782858
  0
LINE
  8
1
  6
CONTINUOUS
 10
28.833724
 20
68.282858
 11
28.833724
 21
67.782858
  0
LINE
  8
1
  6
CONTINUOUS
 10
29.878540
 20
68.282858
 11
29.878540
 21
67.782858
  0
LINE
  8
1
  6
CONTINUOUS
 10
29.878540
 20
67.782858
 11
29.878540
 21
68.282858
  0
LINE
  8
1
  6
CONTINUOUS
 10
29.878540
 20
68.282859
 11
29.878540
 21
67.782858
  0
LINE
  8
1
  6
CONTINUOUS
 10
31.445764
 20
68.282858
 11
31.445764
 21
67.782858
  0
LINE
  8
1
  6
CONTINUOUS
 10
33.012988
 20
68.282858
 11
33.012988
 21
67.782858
  0
LINE
  8
1
  6
CONTINUOUS
 10
13.589260
 20
67.782857
 11
13.589260
 21
67.282857
  0
LINE
  8
1
  6
CONTINUOUS
 10
13.589260
 20
67.282857
 11
33.012988
 21
67.282857
  0
LINE
  8
1
  6
CONTINUOUS
 10
16.078376
 20
67.782857
 11
16.078376
 21
67.282857
  0
LINE
  8
1
  6
CONTINUOUS
 10
18.216089
 20
67.782857
 11
18.216089
 21
67.282857
  0
LINE
  8
1
  6
CONTINUOUS
 10
19.591456
 20
67.782857
 11
19.591456
 21
67.282857
  0
LINE
  8
1
  6
CONTINUOUS
 10
23.755969
 20
67.782857
 11
23.755969
 21
67.282857
  0
LINE
  8
1
  6
CONTINUOUS
 10
26.744092
 20
67.782857
 11
26.744092
 21
67.282857
  0
LINE
  8
1
  6
CONTINUOUS
 10
27.788908
 20
67.782857
 11
27.788908
 21
67.282857
  0
LINE
  8
1
  6
CONTINUOUS
 10
28.833724
 20
67.782857
 11
28.833724
 21
67.282857
  0
LINE
  8
1
  6
CONTINUOUS
 10
29.878540
 20
67.782857
 11
29.878540
 21
67.282857
  0
LINE
  8
1
  6
CONTINUOUS
 10
29.878540
 20
67.282857
 11
29.878540
 21
67.782857
  0
LINE
  8
1
  6
CONTINUOUS
 10
29.878540
 20
67.782858
 11
29.878540
 21
67.282857
  0
LINE
  8
1
  6
CONTINUOUS
 10
31.445764
 20
67.782857
 11
31.445764
 21
67.282857
  0
LINE
  8
1
  6
CONTINUOUS
 10
33.012988
 20
67.782857
 11
33.012988
 21
67.282857
  0
LINE
  8
1
  6
CONTINUOUS
 10
13.589260
 20
67.282857
 11
13.589260
 21
66.782857
  0
LINE
  8
1
  6
CONTINUOUS
 10
13.589260
 20
66.782857
 11
33.012988
 21
66.782857
  0
LINE
  8
1
  6
CONTINUOUS
 10
16.078376
 20
67.282857
 11
16.078376
 21
66.782857
  0
LINE
  8
1
  6
CONTINUOUS
 10
18.216089
 20
67.282857
 11
18.216089
 21
66.782857
  0
LINE
  8
1
  6
CONTINUOUS
 10
19.591456
 20
67.282857
 11
19.591456
 21
66.782857
  0
LINE
  8
1
  6
CONTINUOUS
 10
23.755969
 20
67.282857
 11
23.755969
 21
66.782857
  0
LINE
  8
1
  6
CONTINUOUS
 10
26.744092
 20
67.282857
 11
26.744092
 21
66.782857
  0
LINE
  8
1
  6
CONTINUOUS
 10
27.788908
 20
67.282857
 11
27.788908
 21
66.782857
  0
LINE
  8
1
  6
CONTINUOUS
 10
28.833724
 20
67.282857
 11
28.833724
 21
66.782857
  0
LINE
  8
1
  6
CONTINUOUS
 10
29.878540
 20
67.282857
 11
29.878540
 21
66.782857
  0
LINE
  8
1
  6
CONTINUOUS
 10
29.878540
 20
66.782857
 11
29.878540
 21
67.282857
  0
LINE
  8
1
  6
CONTINUOUS
 10
29.878540
 20
67.282857
 11
29.878540
 21
66.782856
  0
LINE
  8
1
  6
CONTINUOUS
 10
31.445764
 20
67.282857
 11
31.445764
 21
66.782857
  0
LINE
  8
1
  6
CONTINUOUS
 10
33.012988
 20
67.282857
 11
33.012988
 21
66.782857
  0
LINE
  8
1
  6
CONTINUOUS
 10
13.589260
 20
66.145504
 11
26.872352
 21
66.145504
  0
LINE
  8
1
  6
CONTINUOUS
 10
13.589260
 20
64.782856
 11
26.872352
 21
64.782856
  0
LINE
  8
1
  6
CONTINUOUS
 10
13.589260
 20
64.282856
 11
22.510969
 21
64.282856
  0
LINE
  8
1
  6
CONTINUOUS
 10
22.510969
 20
64.282856
 11
24.699092
 21
64.282856
  0
LINE
  8
1
  6
CONTINUOUS
 10
24.079072
 20
64.282856
 11
25.123888
 21
64.282856
  0
LINE
  8
1
  6
CONTINUOUS
 10
25.123888
 20
64.282856
 11
26.788724
 21
64.282856
  0
LINE
  8
1
  6
CONTINUOUS
 10
26.788724
 20
64.282856
 11
26.872352
 21
64.282856
  0
LINE
  8
1
  6
CONTINUOUS
 10
13.589260
 20
66.145504
 11
13.589260
 21
63.282856
  0
LINE
  8
1
  6
CONTINUOUS
 10
13.589260
 20
63.282856
 11
26.872352
 21
63.282857
  0
LINE
  8
1
  6
CONTINUOUS
 10
15.726972
 20
64.282856
 11
15.726972
 21
63.282856
  0
LINE
  8
1
  6
CONTINUOUS
 10
17.915096
 20
63.282856
 11
17.915096
 21
64.282856
  0
LINE
  8
1
  6
CONTINUOUS
 10
24.782720
 20
64.282856
 11
24.782720
 21
63.282857
  0
LINE
  8
1
  6
CONTINUOUS
 10
25.827537
 20
64.282856
 11
25.827537
 21
63.282857
  0
LINE
  8
1
  6
CONTINUOUS
 10
19.617908
 20
63.282856
 11
19.617908
 21
63.782856
  0
LINE
  8
1
  6
CONTINUOUS
 10
26.872352
 20
63.282857
 11
26.872352
 21
66.145504
  0
LINE
  8
1
  6
CONTINUOUS
 10
17.915096
 20
63.782856
 11
23.737905
 21
63.782856
  0
LINE
  8
1
  6
CONTINUOUS
 10
23.737905
 20
63.282857
 11
23.737905
 21
64.782856
  0
LINE
  8
1
  6
CONTINUOUS
 10
21.677907
 20
63.282856
 11
21.677907
 21
63.782856
  0
LINE
  8
1
  6
CONTINUOUS
 10
13.589260
 20
63.282856
 11
13.589260
 21
62.782855
  0
LINE
  8
1
  6
CONTINUOUS
 10
15.726972
 20
63.282856
 11
15.726972
 21
62.782855
  0
LINE
  8
1
  6
CONTINUOUS
 10
17.915096
 20
63.282856
 11
17.915096
 21
62.782855
  0
LINE
  8
1
  6
CONTINUOUS
 10
13.589260
 20
62.782855
 11
26.872352
 21
62.782855
  0
LINE
  8
1
  6
CONTINUOUS
 10
23.737905
 20
63.282856
 11
23.737905
 21
62.782856
  0
LINE
  8
1
  6
CONTINUOUS
 10
24.782720
 20
63.282856
 11
24.782720
 21
62.782856
  0
LINE
  8
1
  6
CONTINUOUS
 10
25.827537
 20
63.282856
 11
25.827537
 21
62.782856
  0
LINE
  8
1
  6
CONTINUOUS
 10
19.617908
 20
63.282856
 11
19.617908
 21
62.782855
  0
LINE
  8
1
  6
CONTINUOUS
 10
21.677907
 20
62.782855
 11
21.677907
 21
63.282856
  0
LINE
  8
1
  6
CONTINUOUS
 10
23.737905
 20
62.782855
 11
23.737905
 21
63.282856
  0
LINE
  8
1
  6
CONTINUOUS
 10
26.872352
 20
63.282856
 11
26.872352
 21
62.782855
  0
LINE
  8
1
  6
CONTINUOUS
 10
13.589260
 20
62.782855
 11
13.589260
 21
62.282855
  0
LINE
  8
1
  6
CONTINUOUS
 10
15.726972
 20
62.782855
 11
15.726972
 21
62.282855
  0
LINE
  8
1
  6
CONTINUOUS
 10
17.915096
 20
62.782855
 11
17.915096
 21
62.282855
  0
LINE
  8
1
  6
CONTINUOUS
 10
13.589260
 20
62.282855
 11
26.872352
 21
62.282855
  0
LINE
  8
1
  6
CONTINUOUS
 10
23.737905
 20
62.782855
 11
23.737905
 21
62.282855
  0
LINE
  8
1
  6
CONTINUOUS
 10
24.782720
 20
62.782855
 11
24.782720
 21
62.282855
  0
LINE
  8
1
  6
CONTINUOUS
 10
25.827537
 20
62.782855
 11
25.827537
 21
62.282855
  0
LINE
  8
1
  6
CONTINUOUS
 10
19.617908
 20
62.782855
 11
19.617908
 21
62.282855
  0
LINE
  8
1
  6
CONTINUOUS
 10
21.677907
 20
62.282855
 11
21.677907
 21
62.782855
  0
LINE
  8
1
  6
CONTINUOUS
 10
23.737905
 20
62.282855
 11
23.737905
 21
62.782855
  0
LINE
  8
1
  6
CONTINUOUS
 10
26.872352
 20
62.782855
 11
26.872352
 21
62.282855
  0
LINE
  8
2
  6
CONTINUOUS
 10
101.700000
 20
23.900000
 11
101.700000
 21
23.900000
  0
LINE
  8
2
  6
CONTINUOUS
 10
118.000000
 20
23.900000
 11
118.000000
 21
23.900000
  0
LINE
  8
2
  6
CONTINUOUS
 10
118.000000
 20
23.900000
 11
101.700000
 21
23.900000
  0
LINE
  8
2
  6
CONTINUOUS
 10
118.000000
 20
22.200000
 11
101.700000
 21
22.200000
  0
LINE
  8
2
  6
CONTINUOUS
 10
101.700000
 20
23.900000
 11
101.700000
 21
22.200000
  0
LINE
  8
2
  6
CONTINUOUS
 10
118.000000
 20
22.200000
 11
118.000000
 21
23.900000
  0
POLYLINE
  8
1
  6
CONTINUOUS
 66
     1
  0
VERTEX
  8
1
  6
CONTINUOUS
 10
33.144982
 20
32.730283
  0
VERTEX
  8
1
  6
CONTINUOUS
 10
20.944982
 20
32.730283
  0
SEQEND
  8
1
  6
CONTINUOUS
  0
POLYLINE
  8
1
  6
CONTINUOUS
 66
     1
  0
VERTEX
  8
1
  6
CONTINUOUS
 10
20.944982
 20
32.330283
  0
VERTEX
  8
1
  6
CONTINUOUS
 10
33.144982
 20
32.330283
  0
SEQEND
  8
1
  6
CONTINUOUS
  0
POLYLINE
  8
1
  6
CONTINUOUS
 66
     1
  0
VERTEX
  8
1
  6
CONTINUOUS
 10
45.839240
 20
32.730283
  0
VERTEX
  8
1
  6
CONTINUOUS
 10
33.544982
 20
32.730283
  0
SEQEND
  8
1
  6
CONTINUOUS
  0
POLYLINE
  8
1
  6
CONTINUOUS
 66
     1
  0
VERTEX
  8
1
  6
CONTINUOUS
 10
33.544982
 20
32.330283
  0
VERTEX
  8
1
  6
CONTINUOUS
 10
45.839240
 20
32.330283
  0
SEQEND
  8
1
  6
CONTINUOUS
  0
POLYLINE
  8
1
  6
CONTINUOUS
 66
     1
  0
VERTEX
  8
1
  6
CONTINUOUS
 10
59.128857
 20
32.730283
  0
VERTEX
  8
1
  6
CONTINUOUS
 10
46.239240
 20
32.730283
  0
SEQEND
  8
1
  6
CONTINUOUS
  0
POLYLINE
  8
1
  6
CONTINUOUS
 66
     1
  0
VERTEX
  8
1
  6
CONTINUOUS
 10
46.239240
 20
32.330283
  0
VERTEX
  8
1
  6
CONTINUOUS
 10
59.128857
 20
32.330283
  0
SEQEND
  8
1
  6
CONTINUOUS
  0
POLYLINE
  8
1
  6
CONTINUOUS
 66
     1
  0
VERTEX
  8
1
  6
CONTINUOUS
 10
69.876595
 20
32.730283
  0
VERTEX
  8
1
  6
CONTINUOUS
 10
59.528857
 20
32.730283
  0
SEQEND
  8
1
  6
CONTINUOUS
  0
POLYLINE
  8
1
  6
CONTINUOUS
 66
     1
  0
VERTEX
  8
1
  6
CONTINUOUS
 10
59.528857
 20
32.330283
  0
VERTEX
  8
1
  6
CONTINUOUS
 10
69.876595
 20
32.330283
  0
SEQEND
  8
1
  6
CONTINUOUS
  0
POLYLINE
  8
1
  6
CONTINUOUS
 66
     1
  0
VERTEX
  8
1
  6
CONTINUOUS
 10
27.174982
 20
14.245117
  0
VERTEX
  8
1
  6
CONTINUOUS
 10
20.944982
 20
14.245117
  0
SEQEND
  8
1
  6
CONTINUOUS
  0
POLYLINE
  8
1
  6
CONTINUOUS
 66
     1
  0
VERTEX
  8
1
  6
CONTINUOUS
 10
20.944982
 20
13.845117
  0
VERTEX
  8
1
  6
CONTINUOUS
 10
26.774982
 20
13.845117
  0
SEQEND
  8
1
  6
CONTINUOUS
  0
POLYLINE
  8
1
  6
CONTINUOUS
 66
     1
  0
VERTEX
  8
1
  6
CONTINUOUS
 10
20.544982
 20
23.087700
  0
VERTEX
  8
1
  6
CONTINUOUS
 10
20.544982
 20
14.245117
  0
SEQEND
  8
1
  6
CONTINUOUS
  0
POLYLINE
  8
1
  6
CONTINUOUS
 66
     1
  0
VERTEX
  8
1
  6
CONTINUOUS
 10
20.944982
 20
14.245117
  0
VERTEX
  8
1
  6
CONTINUOUS
 10
20.944982
 20
23.087700
  0
SEQEND
  8
1
  6
CONTINUOUS
  0
POLYLINE
  8
1
  6
CONTINUOUS
 66
     1
  0
VERTEX
  8
1
  6
CONTINUOUS
 10
20.544982
 20
32.330283
  0
VERTEX
  8
1
  6
CONTINUOUS
 10
20.544982
 20
23.487700
  0
SEQEND
  8
1
  6
CONTINUOUS
  0
POLYLINE
  8
1
  6
CONTINUOUS
 66
     1
  0
VERTEX
  8
1
  6
CONTINUOUS
 10
20.944982
 20
23.487700
  0
VERTEX
  8
1
  6
CONTINUOUS
 10
20.944982
 20
32.330283
  0
SEQEND
  8
1
  6
CONTINUOUS
  0
POLYLINE
  8
1
  6
ESTILO_TQS_0001
 66
     1
  0
VERTEX
  8
1
  6
ESTILO_TQS_0001
 10
82.065530
 20
18.845117
  0
VERTEX
  8
1
  6
ESTILO_TQS_0001
 10
82.065530
 20
9.545117
  0
SEQEND
  8
1
  6
ESTILO_TQS_0001
  0
POLYLINE
  8
1
  6
CONTINUOUS
 66
     1
  0
VERTEX
  8
1
  6
CONTINUOUS
 10
82.465530
 20
9.545117
  0
VERTEX
  8
1
  6
CONTINUOUS
 10
82.465530
 20
18.845117
  0
SEQEND
  8
1
  6
CONTINUOUS
  0
POLYLINE
  8
1
  6
ESTILO_TQS_0001
 66
     1
  0
VERTEX
  8
1
  6
ESTILO_TQS_0001
 10
82.065530
 20
28.737570
  0
VERTEX
  8
1
  6
ESTILO_TQS_0001
 10
82.065530
 20
19.245117
  0
SEQEND
  8
1
  6
ESTILO_TQS_0001
  0
POLYLINE
  8
1
  6
CONTINUOUS
 66
     1
  0
VERTEX
  8
1
  6
CONTINUOUS
 10
82.465530
 20
19.245117
  0
VERTEX
  8
1
  6
CONTINUOUS
 10
82.465530
 20
28.737570
  0
SEQEND
  8
1
  6
CONTINUOUS
  0
POLYLINE
  8
1
  6
ESTILO_TQS_0001
 66
     1
  0
VERTEX
  8
1
  6
ESTILO_TQS_0001
 10
82.065530
 20
38.537570
  0
VERTEX
  8
1
  6
ESTILO_TQS_0001
 10
82.065530
 20
29.137570
  0
SEQEND
  8
1
  6
ESTILO_TQS_0001
  0
POLYLINE
  8
1
  6
CONTINUOUS
 66
     1
  0
VERTEX
  8
1
  6
CONTINUOUS
 10
82.465530
 20
29.137570
  0
VERTEX
  8
1
  6
CONTINUOUS
 10
82.465530
 20
38.537570
  0
SEQEND
  8
1
  6
CONTINUOUS
  0
POLYLINE
  8
1
  6
CONTINUOUS
 66
     1
  0
VERTEX
  8
1
  6
CONTINUOUS
 10
26.774982
 20
13.845117
  0
VERTEX
  8
1
  6
CONTINUOUS
 10
26.774982
 20
9.145117
  0
SEQEND
  8
1
  6
CONTINUOUS
  0
POLYLINE
  8
1
  6
CONTINUOUS
 66
     1
  0
VERTEX
  8
1
  6
CONTINUOUS
 10
27.174982
 20
9.545117
  0
VERTEX
  8
1
  6
CONTINUOUS
 10
27.174982
 20
14.245117
  0
SEQEND
  8
1
  6
CONTINUOUS
  0
POLYLINE
  8
1
  6
CONTINUOUS
 66
     1
  0
VERTEX
  8
1
  6
CONTINUOUS
 10
59.139240
 20
9.545117
  0
VERTEX
  8
1
  6
CONTINUOUS
 10
27.174982
 20
9.545117
  0
SEQEND
  8
1
  6
CONTINUOUS
  0
POLYLINE
  8
1
  6
CONTINUOUS
 66
     1
  0
VERTEX
  8
1
  6
CONTINUOUS
 10
26.774982
 20
9.145117
  0
VERTEX
  8
1
  6
CONTINUOUS
 10
59.139240
 20
9.145117
  0
SEQEND
  8
1
  6
CONTINUOUS
  0
POLYLINE
  8
1
  6
CONTINUOUS
 66
     1
  0
VERTEX
  8
1
  6
CONTINUOUS
 10
70.602385
 20
9.545117
  0
VERTEX
  8
1
  6
CONTINUOUS
 10
59.539240
 20
9.545117
  0
SEQEND
  8
1
  6
CONTINUOUS
  0
POLYLINE
  8
1
  6
CONTINUOUS
 66
     1
  0
VERTEX
  8
1
  6
CONTINUOUS
 10
59.539240
 20
9.145117
  0
VERTEX
  8
1
  6
CONTINUOUS
 10
70.602385
 20
9.145117
  0
SEQEND
  8
1
  6
CONTINUOUS
  0
POLYLINE
  8
1
  6
CONTINUOUS
 66
     1
  0
VERTEX
  8
1
  6
CONTINUOUS
 10
76.034744
 20
9.545117
  0
VERTEX
  8
1
  6
CONTINUOUS
 10
71.002385
 20
9.545117
  0
SEQEND
  8
1
  6
CONTINUOUS
  0
POLYLINE
  8
1
  6
CONTINUOUS
 66
     1
  0
VERTEX
  8
1
  6
CONTINUOUS
 10
71.002385
 20
9.145117
  0
VERTEX
  8
1
  6
CONTINUOUS
 10
76.218532
 20
9.145117
  0
SEQEND
  8
1
  6
CONTINUOUS
  0
POLYLINE
  8
1
  6
ESTILO_TQS_0001
 66
     1
  0
VERTEX
  8
1
  6
ESTILO_TQS_0001
 10
82.065530
 20
9.545117
  0
VERTEX
  8
1
  6
ESTILO_TQS_0001
 10
76.436174
 20
9.545117
  0
SEQEND
  8
1
  6
ESTILO_TQS_0001
  0
POLYLINE
  8
1
  6
CONTINUOUS
 66
     1
  0
VERTEX
  8
1
  6
CONTINUOUS
 10
76.218532
 20
9.145117
  0
VERTEX
  8
1
  6
CONTINUOUS
 10
82.065530
 20
9.145117
  0
SEQEND
  8
1
  6
CONTINUOUS
  0
POLYLINE
  8
1
  6
CONTINUOUS
 66
     1
  0
VERTEX
  8
1
  6
CONTINUOUS
 10
76.034744
 20
9.145117
  0
VERTEX
  8
1
  6
CONTINUOUS
 10
76.034744
 20
9.545117
  0
SEQEND
  8
1
  6
CONTINUOUS
  0
POLYLINE
  8
1
  6
CONTINUOUS
 66
     1
  0
VERTEX
  8
1
  6
CONTINUOUS
 10
70.679713
 20
74.367432
  0
VERTEX
  8
1
  6
CONTINUOUS
 10
62.376596
 20
74.367432
  0
SEQEND
  8
1
  6
CONTINUOUS
  0
POLYLINE
  8
1
  6
CONTINUOUS
 66
     1
  0
VERTEX
  8
1
  6
CONTINUOUS
 10
62.376596
 20
73.967432
  0
VERTEX
  8
1
  6
CONTINUOUS
 10
70.679713
 20
73.967432
  0
SEQEND
  8
1
  6
CONTINUOUS
  0
POLYLINE
  8
1
  6
CONTINUOUS
 66
     1
  0
VERTEX
  8
1
  6
CONTINUOUS
 10
70.679713
 20
70.067433
  0
VERTEX
  8
1
  6
CONTINUOUS
 10
62.376596
 20
70.067433
  0
SEQEND
  8
1
  6
CONTINUOUS
  0
POLYLINE
  8
1
  6
CONTINUOUS
 66
     1
  0
VERTEX
  8
1
  6
CONTINUOUS
 10
62.376600
 20
69.667433
  0
VERTEX
  8
1
  6
CONTINUOUS
 10
70.679713
 20
69.667433
  0
SEQEND
  8
1
  6
CONTINUOUS
  0
POLYLINE
  8
1
  6
CONTINUOUS
 66
     1
  0
VERTEX
  8
1
  6
CONTINUOUS
 10
70.679717
 20
69.667432
  0
VERTEX
  8
1
  6
CONTINUOUS
 10
70.679717
 20
64.266599
  0
SEQEND
  8
1
  6
CONTINUOUS
  0
POLYLINE
  8
1
  6
CONTINUOUS
 66
     1
  0
VERTEX
  8
1
  6
CONTINUOUS
 10
71.079717
 20
64.666599
  0
VERTEX
  8
1
  6
CONTINUOUS
 10
71.079717
 20
69.667432
  0
SEQEND
  8
1
  6
CONTINUOUS
  0
POLYLINE
  8
1
  6
CONTINUOUS
 66
     1
  0
VERTEX
  8
1
  6
CONTINUOUS
 10
61.976600
 20
48.027565
  0
VERTEX
  8
1
  6
CONTINUOUS
 10
61.976600
 20
38.937570
  0
SEQEND
  8
1
  6
CONTINUOUS
  0
POLYLINE
  8
1
  6
CONTINUOUS
 66
     1
  0
VERTEX
  8
1
  6
CONTINUOUS
 10
62.376600
 20
38.937570
  0
VERTEX
  8
1
  6
CONTINUOUS
 10
62.376600
 20
48.027560
  0
SEQEND
  8
1
  6
CONTINUOUS
  0
POLYLINE
  8
1
  6
CONTINUOUS
 66
     1
  0
VERTEX
  8
1
  6
CONTINUOUS
 10
61.976600
 20
55.367560
  0
VERTEX
  8
1
  6
CONTINUOUS
 10
61.976600
 20
48.827565
  0
SEQEND
  8
1
  6
CONTINUOUS
  0
POLYLINE
  8
1
  6
CONTINUOUS
 66
     1
  0
VERTEX
  8
1
  6
CONTINUOUS
 10
62.376600
 20
48.827565
  0
VERTEX
  8
1
  6
CONTINUOUS
 10
62.376600
 20
55.367560
  0
SEQEND
  8
1
  6
CONTINUOUS
  0
POLYLINE
  8
1
  6
CONTINUOUS
 66
     1
  0
VERTEX
  8
1
  6
CONTINUOUS
 10
61.976600
 20
69.667432
  0
VERTEX
  8
1
  6
CONTINUOUS
 10
61.976600
 20
59.967560
  0
SEQEND
  8
1
  6
CONTINUOUS
  0
POLYLINE
  8
1
  6
CONTINUOUS
 66
     1
  0
VERTEX
  8
1
  6
CONTINUOUS
 10
62.376600
 20
59.967560
  0
VERTEX
  8
1
  6
CONTINUOUS
 10
62.376600
 20
69.667432
  0
SEQEND
  8
1
  6
CONTINUOUS
  0
POLYLINE
  8
1
  6
CONTINUOUS
 66
     1
  0
VERTEX
  8
1
  6
CONTINUOUS
 10
65.876596
 20
55.767560
  0
VERTEX
  8
1
  6
CONTINUOUS
 10
62.376596
 20
55.767560
  0
SEQEND
  8
1
  6
CONTINUOUS
  0
POLYLINE
  8
1
  6
CONTINUOUS
 66
     1
  0
VERTEX
  8
1
  6
CONTINUOUS
 10
62.376600
 20
55.367560
  0
VERTEX
  8
1
  6
CONTINUOUS
 10
65.876596
 20
55.367560
  0
SEQEND
  8
1
  6
CONTINUOUS
  0
POLYLINE
  8
1
  6
CONTINUOUS
 66
     1
  0
VERTEX
  8
1
  6
CONTINUOUS
 10
66.276989
 20
59.567565
  0
VERTEX
  8
1
  6
CONTINUOUS
 10
66.276989
 20
55.767565
  0
SEQEND
  8
1
  6
CONTINUOUS
  0
POLYLINE
  8
1
  6
CONTINUOUS
 66
     1
  0
VERTEX
  8
1
  6
CONTINUOUS
 10
66.676989
 20
55.767565
  0
VERTEX
  8
1
  6
CONTINUOUS
 10
66.676989
 20
59.567560
  0
SEQEND
  8
1
  6
CONTINUOUS
  0
POLYLINE
  8
1
  6
CONTINUOUS
 66
     1
  0
VERTEX
  8
1
  6
CONTINUOUS
 10
65.876596
 20
59.967560
  0
VERTEX
  8
1
  6
CONTINUOUS
 10
62.376600
 20
59.967560
  0
SEQEND
  8
1
  6
CONTINUOUS
  0
POLYLINE
  8
1
  6
CONTINUOUS
 66
     1
  0
VERTEX
  8
1
  6
CONTINUOUS
 10
62.376596
 20
59.567560
  0
VERTEX
  8
1
  6
CONTINUOUS
 10
65.876596
 20
59.567560
  0
SEQEND
  8
1
  6
CONTINUOUS
  0
POLYLINE
  8
1
  6
CONTINUOUS
 66
     1
  0
VERTEX
  8
1
  6
CONTINUOUS
 10
69.866600
 20
59.967560
  0
VERTEX
  8
1
  6
CONTINUOUS
 10
66.676596
 20
59.967560
  0
SEQEND
  8
1
  6
CONTINUOUS
  0
POLYLINE
  8
1
  6
CONTINUOUS
 66
     1
  0
VERTEX
  8
1
  6
CONTINUOUS
 10
66.676989
 20
59.567560
  0
VERTEX
  8
1
  6
CONTINUOUS
 10
69.866600
 20
59.567560
  0
SEQEND
  8
1
  6
CONTINUOUS
  0
POLYLINE
  8
1
  6
CONTINUOUS
 66
     1
  0
VERTEX
  8
1
  6
CONTINUOUS
 10
69.866600
 20
53.597560
  0
VERTEX
  8
1
  6
CONTINUOUS
 10
69.866600
 20
48.827560
  0
SEQEND
  8
1
  6
CONTINUOUS
  0
POLYLINE
  8
1
  6
CONTINUOUS
 66
     1
  0
VERTEX
  8
1
  6
CONTINUOUS
 10
70.266600
 20
48.827560
  0
VERTEX
  8
1
  6
CONTINUOUS
 10
70.266600
 20
53.597560
  0
SEQEND
  8
1
  6
CONTINUOUS
  0
POLYLINE
  8
1
  6
CONTINUOUS
 66
     1
  0
VERTEX
  8
1
  6
CONTINUOUS
 10
69.866600
 20
59.167560
  0
VERTEX
  8
1
  6
CONTINUOUS
 10
69.866600
 20
54.397560
  0
SEQEND
  8
1
  6
CONTINUOUS
  0
POLYLINE
  8
1
  6
CONTINUOUS
 66
     1
  0
VERTEX
  8
1
  6
CONTINUOUS
 10
70.266600
 20
54.397560
  0
VERTEX
  8
1
  6
CONTINUOUS
 10
70.266600
 20
59.167560
  0
SEQEND
  8
1
  6
CONTINUOUS
  0
POLYLINE
  8
1
  6
CONTINUOUS
 66
     1
  0
VERTEX
  8
1
  6
CONTINUOUS
 10
69.866600
 20
48.427560
  0
VERTEX
  8
1
  6
CONTINUOUS
 10
62.376596
 20
48.427560
  0
SEQEND
  8
1
  6
CONTINUOUS
  0
POLYLINE
  8
1
  6
CONTINUOUS
 66
     1
  0
VERTEX
  8
1
  6
CONTINUOUS
 10
62.376600
 20
48.027560
  0
VERTEX
  8
1
  6
CONTINUOUS
 10
69.866600
 20
48.027560
  0
SEQEND
  8
1
  6
CONTINUOUS
  0
POLYLINE
  8
1
  6
CONTINUOUS
 66
     1
  0
VERTEX
  8
1
  6
CONTINUOUS
 10
73.790145
 20
64.666599
  0
VERTEX
  8
1
  6
CONTINUOUS
 10
71.079717
 20
64.666599
  0
SEQEND
  8
1
  6
CONTINUOUS
  0
POLYLINE
  8
1
  6
CONTINUOUS
 66
     1
  0
VERTEX
  8
1
  6
CONTINUOUS
 10
70.679717
 20
64.266599
  0
VERTEX
  8
1
  6
CONTINUOUS
 10
73.790145
 20
64.266599
  0
SEQEND
  8
1
  6
CONTINUOUS
  0
POLYLINE
  8
1
  6
CONTINUOUS
 66
     1
  0
VERTEX
  8
1
  6
CONTINUOUS
 10
73.276595
 20
48.471755
  0
VERTEX
  8
1
  6
CONTINUOUS
 10
73.276595
 20
38.937570
  0
SEQEND
  8
1
  6
CONTINUOUS
  0
POLYLINE
  8
1
  6
CONTINUOUS
 66
     1
  0
VERTEX
  8
1
  6
CONTINUOUS
 10
73.676595
 20
38.937570
  0
VERTEX
  8
1
  6
CONTINUOUS
 10
73.676595
 20
48.471755
  0
SEQEND
  8
1
  6
CONTINUOUS
  0
POLYLINE
  8
1
  6
CONTINUOUS
 66
     1
  0
VERTEX
  8
1
  6
CONTINUOUS
 10
73.276595
 20
56.771693
  0
VERTEX
  8
1
  6
CONTINUOUS
 10
73.276595
 20
48.871755
  0
SEQEND
  8
1
  6
CONTINUOUS
  0
POLYLINE
  8
1
  6
CONTINUOUS
 66
     1
  0
VERTEX
  8
1
  6
CONTINUOUS
 10
73.676595
 20
48.871755
  0
VERTEX
  8
1
  6
CONTINUOUS
 10
73.676595
 20
56.771693
  0
SEQEND
  8
1
  6
CONTINUOUS
  0
POLYLINE
  8
1
  6
CONTINUOUS
 66
     1
  0
VERTEX
  8
1
  6
CONTINUOUS
 10
74.370145
 20
57.171693
  0
VERTEX
  8
1
  6
CONTINUOUS
 10
73.676595
 20
57.171693
  0
SEQEND
  8
1
  6
CONTINUOUS
  0
POLYLINE
  8
1
  6
CONTINUOUS
 66
     1
  0
VERTEX
  8
1
  6
CONTINUOUS
 10
73.676595
 20
56.771693
  0
VERTEX
  8
1
  6
CONTINUOUS
 10
74.650145
 20
56.771693
  0
SEQEND
  8
1
  6
CONTINUOUS
  0
POLYLINE
  8
1
  6
CONTINUOUS
 66
     1
  0
VERTEX
  8
1
  6
CONTINUOUS
 10
74.370145
 20
64.266599
  0
VERTEX
  8
1
  6
CONTINUOUS
 10
74.370145
 20
57.171693
  0
SEQEND
  8
1
  6
CONTINUOUS
  0
POLYLINE
  8
1
  6
CONTINUOUS
 66
     1
  0
VERTEX
  8
1
  6
CONTINUOUS
 10
74.650145
 20
56.771693
  0
VERTEX
  8
1
  6
CONTINUOUS
 10
74.650145
 20
64.266599
  0
SEQEND
  8
1
  6
CONTINUOUS
  0
POLYLINE
  8
1
  6
CONTINUOUS
 66
     1
  0
VERTEX
  8
1
  6
CONTINUOUS
 10
70.076595
 20
38.937570
  0
VERTEX
  8
1
  6
CONTINUOUS
 10
62.376600
 20
38.937570
  0
SEQEND
  8
1
  6
CONTINUOUS
  0
POLYLINE
  8
1
  6
CONTINUOUS
 66
     1
  0
VERTEX
  8
1
  6
CONTINUOUS
 10
62.376600
 20
38.537570
  0
VERTEX
  8
1
  6
CONTINUOUS
 10
69.876595
 20
38.537570
  0
SEQEND
  8
1
  6
CONTINUOUS
  0
POLYLINE
  8
1
  6
CONTINUOUS
 66
     1
  0
VERTEX
  8
1
  6
CONTINUOUS
 10
73.276595
 20
38.937570
  0
VERTEX
  8
1
  6
CONTINUOUS
 10
70.076595
 20
38.937570
  0
SEQEND
  8
1
  6
CONTINUOUS
  0
POLYLINE
  8
1
  6
CONTINUOUS
 66
     1
  0
VERTEX
  8
1
  6
CONTINUOUS
 10
70.276595
 20
38.537570
  0
VERTEX
  8
1
  6
CONTINUOUS
 10
73.276595
 20
38.537570
  0
SEQEND
  8
1
  6
CONTINUOUS
  0
POLYLINE
  8
1
  6
CONTINUOUS
 66
     1
  0
VERTEX
  8
1
  6
CONTINUOUS
 10
78.706227
 20
38.937570
  0
VERTEX
  8
1
  6
CONTINUOUS
 10
74.076595
 20
38.937570
  0
SEQEND
  8
1
  6
CONTINUOUS
  0
POLYLINE
  8
1
  6
CONTINUOUS
 66
     1
  0
VERTEX
  8
1
  6
CONTINUOUS
 10
74.076595
 20
38.537570
  0
VERTEX
  8
1
  6
CONTINUOUS
 10
78.488584
 20
38.537570
  0
SEQEND
  8
1
  6
CONTINUOUS
  0
POLYLINE
  8
1
  6
CONTINUOUS
 66
     1
  0
VERTEX
  8
1
  6
CONTINUOUS
 10
82.065530
 20
38.937570
  0
VERTEX
  8
1
  6
CONTINUOUS
 10
78.706227
 20
38.937570
  0
SEQEND
  8
1
  6
CONTINUOUS
  0
POLYLINE
  8
1
  6
ESTILO_TQS_0001
 66
     1
  0
VERTEX
  8
1
  6
ESTILO_TQS_0001
 10
78.890014
 20
38.537570
  0
VERTEX
  8
1
  6
ESTILO_TQS_0001
 10
82.065530
 20
38.537570
  0
SEQEND
  8
1
  6
ESTILO_TQS_0001
  0
POLYLINE
  8
1
  6
CONTINUOUS
 66
     1
  0
VERTEX
  8
1
  6
CONTINUOUS
 10
78.488584
 20
38.937570
  0
VERTEX
  8
1
  6
CONTINUOUS
 10
78.488584
 20
38.537570
  0
SEQEND
  8
1
  6
CONTINUOUS
  0
POLYLINE
  8
1
  6
CONTINUOUS
 66
     1
  0
VERTEX
  8
1
  6
CONTINUOUS
 10
69.876595
 20
38.537570
  0
VERTEX
  8
1
  6
CONTINUOUS
 10
69.876595
 20
32.730283
  0
SEQEND
  8
1
  6
CONTINUOUS
  0
POLYLINE
  8
1
  6
CONTINUOUS
 66
     1
  0
VERTEX
  8
1
  6
CONTINUOUS
 10
70.276595
 20
32.730283
  0
VERTEX
  8
1
  6
CONTINUOUS
 10
70.276595
 20
38.537570
  0
SEQEND
  8
1
  6
CONTINUOUS
  0
POLYLINE
  8
1
  6
CONTINUOUS
 66
     1
  0
VERTEX
  8
1
  6
CONTINUOUS
 10
76.452639
 20
14.482603
  0
VERTEX
  8
1
  6
CONTINUOUS
 10
76.034744
 20
9.545117
  0
SEQEND
  8
1
  6
CONTINUOUS
  0
POLYLINE
  8
1
  6
ESTILO_TQS_0001
 66
     1
  0
VERTEX
  8
1
  6
ESTILO_TQS_0001
 10
76.436174
 20
9.545117
  0
VERTEX
  8
1
  6
ESTILO_TQS_0001
 10
76.851214
 20
14.448867
  0
SEQEND
  8
1
  6
ESTILO_TQS_0001
  0
POLYLINE
  8
1
  6
CONTINUOUS
 66
     1
  0
VERTEX
  8
1
  6
CONTINUOUS
 10
77.492476
 20
26.768419
  0
VERTEX
  8
1
  6
CONTINUOUS
 10
76.536975
 20
15.479040
  0
SEQEND
  8
1
  6
CONTINUOUS
  0
POLYLINE
  8
1
  6
ESTILO_TQS_0001
 66
     1
  0
VERTEX
  8
1
  6
ESTILO_TQS_0001
 10
76.935549
 20
15.445305
  0
VERTEX
  8
1
  6
ESTILO_TQS_0001
 10
77.891051
 20
26.734683
  0
SEQEND
  8
1
  6
ESTILO_TQS_0001
  0
POLYLINE
  8
1
  6
CONTINUOUS
 66
     1
  0
VERTEX
  8
1
  6
CONTINUOUS
 10
78.488584
 20
38.537570
  0
VERTEX
  8
1
  6
CONTINUOUS
 10
77.576812
 20
27.764856
  0
SEQEND
  8
1
  6
CONTINUOUS
  0
POLYLINE
  8
1
  6
ESTILO_TQS_0001
 66
     1
  0
VERTEX
  8
1
  6
ESTILO_TQS_0001
 10
77.975387
 20
27.731121
  0
VERTEX
  8
1
  6
ESTILO_TQS_0001
 10
78.890014
 20
38.537570
  0
SEQEND
  8
1
  6
ESTILO_TQS_0001
  0
LINE
  8
1
  6
CONTINUOUS
 10
62.176596
 20
48.427565
 11
62.176596
 21
48.427565
  0
POLYLINE
  8
1
  6
CONTINUOUS
 66
     1
  0
VERTEX
  8
1
  6
CONTINUOUS
 10
61.976596
 20
48.027565
  0
VERTEX
  8
1
  6
CONTINUOUS
 10
62.376596
 20
48.027565
  0
VERTEX
  8
1
  6
CONTINUOUS
 10
62.376596
 20
48.827565
  0
VERTEX
  8
1
  6
CONTINUOUS
 10
61.976596
 20
48.827565
  0
VERTEX
  8
1
  6
CONTINUOUS
 10
61.976596
 20
48.027565
  0
SEQEND
  8
1
  6
CONTINUOUS
  0
LINE
  8
1
  6
CONTINUOUS
 10
20.744982
 20
14.045117
 11
20.744982
 21
14.045117
  0
POLYLINE
  8
1
  6
CONTINUOUS
 66
     1
  0
VERTEX
  8
1
  6
CONTINUOUS
 10
20.544982
 20
13.845117
  0
VERTEX
  8
1
  6
CONTINUOUS
 10
20.944982
 20
13.845117
  0
VERTEX
  8
1
  6
CONTINUOUS
 10
20.944982
 20
14.245117
  0
VERTEX
  8
1
  6
CONTINUOUS
 10
20.544982
 20
14.245117
  0
VERTEX
  8
1
  6
CONTINUOUS
 10
20.544982
 20
13.845117
  0
SEQEND
  8
1
  6
CONTINUOUS
  0
LINE
  8
1
  6
CONTINUOUS
 10
46.039240
 20
14.045117
 11
46.039240
 21
14.045117
  0
POLYLINE
  8
1
  6
CONTINUOUS
 66
     1
  0
VERTEX
  8
1
  6
CONTINUOUS
 10
45.839240
 20
13.845117
  0
VERTEX
  8
1
  6
CONTINUOUS
 10
46.239240
 20
13.845117
  0
VERTEX
  8
1
  6
CONTINUOUS
 10
46.239240
 20
14.245117
  0
VERTEX
  8
1
  6
CONTINUOUS
 10
45.839240
 20
14.245117
  0
VERTEX
  8
1
  6
CONTINUOUS
 10
45.839240
 20
13.845117
  0
SEQEND
  8
1
  6
CONTINUOUS
  0
LINE
  8
1
  6
CONTINUOUS
 10
59.339240
 20
16.745117
 11
59.339240
 21
16.745117
  0
POLYLINE
  8
1
  6
CONTINUOUS
 66
     1
  0
VERTEX
  8
1
  6
CONTINUOUS
 10
59.139240
 20
16.545117
  0
VERTEX
  8
1
  6
CONTINUOUS
 10
59.539240
 20
16.545117
  0
VERTEX
  8
1
  6
CONTINUOUS
 10
59.539240
 20
16.945117
  0
VERTEX
  8
1
  6
CONTINUOUS
 10
59.139240
 20
16.945117
  0
VERTEX
  8
1
  6
CONTINUOUS
 10
59.139240
 20
16.545117
  0
SEQEND
  8
1
  6
CONTINUOUS
  0
LINE
  8
1
  6
CONTINUOUS
 10
46.039240
 20
25.925117
 11
46.039240
 21
25.925117
  0
POLYLINE
  8
1
  6
CONTINUOUS
 66
     1
  0
VERTEX
  8
1
  6
CONTINUOUS
 10
45.839240
 20
25.725117
  0
VERTEX
  8
1
  6
CONTINUOUS
 10
46.239240
 20
25.725117
  0
VERTEX
  8
1
  6
CONTINUOUS
 10
46.239240
 20
26.125117
  0
VERTEX
  8
1
  6
CONTINUOUS
 10
45.839240
 20
26.125117
  0
VERTEX
  8
1
  6
CONTINUOUS
 10
45.839240
 20
25.725117
  0
SEQEND
  8
1
  6
CONTINUOUS
  0
LINE
  8
1
  6
CONTINUOUS
 10
59.339240
 20
25.925117
 11
59.339240
 21
25.925117
  0
POLYLINE
  8
1
  6
CONTINUOUS
 66
     1
  0
VERTEX
  8
1
  6
CONTINUOUS
 10
59.139240
 20
25.725117
  0
VERTEX
  8
1
  6
CONTINUOUS
 10
59.539240
 20
25.725117
  0
VERTEX
  8
1
  6
CONTINUOUS
 10
59.539240
 20
26.125117
  0
VERTEX
  8
1
  6
CONTINUOUS
 10
59.139240
 20
26.125117
  0
VERTEX
  8
1
  6
CONTINUOUS
 10
59.139240
 20
25.725117
  0
SEQEND
  8
1
  6
CONTINUOUS
  0
LINE
  8
1
  6
CONTINUOUS
 10
46.039240
 20
32.530283
 11
46.039240
 21
32.530283
  0
POLYLINE
  8
1
  6
CONTINUOUS
 66
     1
  0
VERTEX
  8
1
  6
CONTINUOUS
 10
45.839240
 20
32.330283
  0
VERTEX
  8
1
  6
CONTINUOUS
 10
46.239240
 20
32.330283
  0
VERTEX
  8
1
  6
CONTINUOUS
 10
46.239240
 20
32.730283
  0
VERTEX
  8
1
  6
CONTINUOUS
 10
45.839240
 20
32.730283
  0
VERTEX
  8
1
  6
CONTINUOUS
 10
45.839240
 20
32.330283
  0
SEQEND
  8
1
  6
CONTINUOUS
  0
LINE
  8
1
  6
CONTINUOUS
 10
61.976600
 20
38.737570
 11
61.976600
 21
38.737570
  0
POLYLINE
  8
1
  6
CONTINUOUS
 66
     1
  0
VERTEX
  8
1
  6
CONTINUOUS
 10
61.576600
 20
38.537570
  0
VERTEX
  8
1
  6
CONTINUOUS
 10
62.376600
 20
38.537570
  0
VERTEX
  8
1
  6
CONTINUOUS
 10
62.376600
 20
38.937570
  0
VERTEX
  8
1
  6
CONTINUOUS
 10
61.576600
 20
38.937570
  0
VERTEX
  8
1
  6
CONTINUOUS
 10
61.576600
 20
38.537570
  0
SEQEND
  8
1
  6
CONTINUOUS
  0
LINE
  8
1
  6
CONTINUOUS
 10
59.339240
 20
9.345117
 11
59.339240
 21
9.345117
  0
POLYLINE
  8
1
  6
CONTINUOUS
 66
     1
  0
VERTEX
  8
1
  6
CONTINUOUS
 10
59.139240
 20
9.145117
  0
VERTEX
  8
1
  6
CONTINUOUS
 10
59.539240
 20
9.145117
  0
VERTEX
  8
1
  6
CONTINUOUS
 10
59.539240
 20
9.545117
  0
VERTEX
  8
1
  6
CONTINUOUS
 10
59.139240
 20
9.545117
  0
VERTEX
  8
1
  6
CONTINUOUS
 10
59.139240
 20
9.145117
  0
SEQEND
  8
1
  6
CONTINUOUS
  0
LINE
  8
1
  6
CONTINUOUS
 10
82.265530
 20
19.045117
 11
82.265530
 21
19.045117
  0
POLYLINE
  8
1
  6
CONTINUOUS
 66
     1
  0
VERTEX
  8
1
  6
CONTINUOUS
 10
82.065530
 20
18.845117
  0
VERTEX
  8
1
  6
CONTINUOUS
 10
82.465530
 20
18.845117
  0
VERTEX
  8
1
  6
CONTINUOUS
 10
82.465530
 20
19.245117
  0
VERTEX
  8
1
  6
CONTINUOUS
 10
82.065530
 20
19.245117
  0
VERTEX
  8
1
  6
CONTINUOUS
 10
82.065530
 20
18.845117
  0
SEQEND
  8
1
  6
CONTINUOUS
  0
LINE
  8
1
  6
CONTINUOUS
 10
82.265530
 20
28.937570
 11
82.265530
 21
28.937570
  0
POLYLINE
  8
1
  6
CONTINUOUS
 66
     1
  0
VERTEX
  8
1
  6
CONTINUOUS
 10
82.065530
 20
28.737570
  0
VERTEX
  8
1
  6
CONTINUOUS
 10
82.465530
 20
28.737570
  0
VERTEX
  8
1
  6
CONTINUOUS
 10
82.465530
 20
29.137570
  0
VERTEX
  8
1
  6
CONTINUOUS
 10
82.065530
 20
29.137570
  0
VERTEX
  8
1
  6
CONTINUOUS
 10
82.065530
 20
28.737570
  0
SEQEND
  8
1
  6
CONTINUOUS
  0
LINE
  8
1
  6
CONTINUOUS
 10
82.265530
 20
38.737570
 11
82.265530
 21
38.737570
  0
POLYLINE
  8
1
  6
CONTINUOUS
 66
     1
  0
VERTEX
  8
1
  6
CONTINUOUS
 10
82.065530
 20
38.537570
  0
VERTEX
  8
1
  6
CONTINUOUS
 10
82.465530
 20
38.537570
  0
VERTEX
  8
1
  6
CONTINUOUS
 10
82.465530
 20
38.937570
  0
VERTEX
  8
1
  6
CONTINUOUS
 10
82.065530
 20
38.937570
  0
VERTEX
  8
1
  6
CONTINUOUS
 10
82.065530
 20
38.537570
  0
SEQEND
  8
1
  6
CONTINUOUS
  0
LINE
  8
1
  6
CONTINUOUS
 10
82.265530
 20
9.345117
 11
82.265530
 21
9.345117
  0
POLYLINE
  8
1
  6
CONTINUOUS
 66
     1
  0
VERTEX
  8
1
  6
CONTINUOUS
 10
82.065530
 20
9.145117
  0
VERTEX
  8
1
  6
CONTINUOUS
 10
82.465530
 20
9.145117
  0
VERTEX
  8
1
  6
CONTINUOUS
 10
82.465530
 20
9.545117
  0
VERTEX
  8
1
  6
CONTINUOUS
 10
82.065530
 20
9.545117
  0
VERTEX
  8
1
  6
CONTINUOUS
 10
82.065530
 20
9.145117
  0
SEQEND
  8
1
  6
CONTINUOUS
  0
LINE
  8
1
  6
CONTINUOUS
 10
62.176596
 20
72.017432
 11
62.176596
 21
72.017432
  0
POLYLINE
  8
1
  6
CONTINUOUS
 66
     1
  0
VERTEX
  8
1
  6
CONTINUOUS
 10
61.976596
 20
69.667432
  0
VERTEX
  8
1
  6
CONTINUOUS
 10
62.376596
 20
69.667432
  0
VERTEX
  8
1
  6
CONTINUOUS
 10
62.376596
 20
74.367432
  0
VERTEX
  8
1
  6
CONTINUOUS
 10
61.976596
 20
74.367432
  0
VERTEX
  8
1
  6
CONTINUOUS
 10
61.976596
 20
69.667432
  0
SEQEND
  8
1
  6
CONTINUOUS
  0
LINE
  8
1
  6
CONTINUOUS
 10
70.879713
 20
72.017432
 11
70.879713
 21
72.017432
  0
POLYLINE
  8
1
  6
CONTINUOUS
 66
     1
  0
VERTEX
  8
1
  6
CONTINUOUS
 10
70.679713
 20
69.667432
  0
VERTEX
  8
1
  6
CONTINUOUS
 10
71.079713
 20
69.667432
  0
VERTEX
  8
1
  6
CONTINUOUS
 10
71.079713
 20
74.367432
  0
VERTEX
  8
1
  6
CONTINUOUS
 10
70.679713
 20
74.367432
  0
VERTEX
  8
1
  6
CONTINUOUS
 10
70.679713
 20
69.667432
  0
SEQEND
  8
1
  6
CONTINUOUS
  0
LINE
  8
1
  6
CONTINUOUS
 10
70.066600
 20
48.427560
 11
70.066600
 21
48.427560
  0
POLYLINE
  8
1
  6
CONTINUOUS
 66
     1
  0
VERTEX
  8
1
  6
CONTINUOUS
 10
69.866600
 20
48.027560
  0
VERTEX
  8
1
  6
CONTINUOUS
 10
70.266600
 20
48.027560
  0
VERTEX
  8
1
  6
CONTINUOUS
 10
70.266600
 20
48.827560
  0
VERTEX
  8
1
  6
CONTINUOUS
 10
69.866600
 20
48.827560
  0
VERTEX
  8
1
  6
CONTINUOUS
 10
69.866600
 20
48.027560
  0
SEQEND
  8
1
  6
CONTINUOUS
  0
LINE
  8
1
  6
CONTINUOUS
 10
70.066600
 20
59.567560
 11
70.066600
 21
59.567560
  0
POLYLINE
  8
1
  6
CONTINUOUS
 66
     1
  0
VERTEX
  8
1
  6
CONTINUOUS
 10
69.866600
 20
59.167560
  0
VERTEX
  8
1
  6
CONTINUOUS
 10
70.266600
 20
59.167560
  0
VERTEX
  8
1
  6
CONTINUOUS
 10
70.266600
 20
59.967560
  0
VERTEX
  8
1
  6
CONTINUOUS
 10
69.866600
 20
59.967560
  0
VERTEX
  8
1
  6
CONTINUOUS
 10
69.866600
 20
59.167560
  0
SEQEND
  8
1
  6
CONTINUOUS
  0
LINE
  8
1
  6
CONTINUOUS
 10
66.276596
 20
59.767565
 11
66.276596
 21
59.767565
  0
POLYLINE
  8
1
  6
CONTINUOUS
 66
     1
  0
VERTEX
  8
1
  6
CONTINUOUS
 10
65.876596
 20
59.567565
  0
VERTEX
  8
1
  6
CONTINUOUS
 10
66.676596
 20
59.567565
  0
VERTEX
  8
1
  6
CONTINUOUS
 10
66.676596
 20
59.967565
  0
VERTEX
  8
1
  6
CONTINUOUS
 10
65.876596
 20
59.967565
  0
VERTEX
  8
1
  6
CONTINUOUS
 10
65.876596
 20
59.567565
  0
SEQEND
  8
1
  6
CONTINUOUS
  0
LINE
  8
1
  6
CONTINUOUS
 10
66.276596
 20
55.567565
 11
66.276596
 21
55.567565
  0
POLYLINE
  8
1
  6
CONTINUOUS
 66
     1
  0
VERTEX
  8
1
  6
CONTINUOUS
 10
65.876596
 20
55.367565
  0
VERTEX
  8
1
  6
CONTINUOUS
 10
66.676596
 20
55.367565
  0
VERTEX
  8
1
  6
CONTINUOUS
 10
66.676596
 20
55.767565
  0
VERTEX
  8
1
  6
CONTINUOUS
 10
65.876596
 20
55.767565
  0
VERTEX
  8
1
  6
CONTINUOUS
 10
65.876596
 20
55.367565
  0
SEQEND
  8
1
  6
CONTINUOUS
  0
LINE
  8
1
  6
CONTINUOUS
 10
70.066600
 20
53.997560
 11
70.066600
 21
53.997560
  0
POLYLINE
  8
1
  6
CONTINUOUS
 66
     1
  0
VERTEX
  8
1
  6
CONTINUOUS
 10
69.866600
 20
53.597560
  0
VERTEX
  8
1
  6
CONTINUOUS
 10
70.266600
 20
53.597560
  0
VERTEX
  8
1
  6
CONTINUOUS
 10
70.266600
 20
54.397560
  0
VERTEX
  8
1
  6
CONTINUOUS
 10
69.866600
 20
54.397560
  0
VERTEX
  8
1
  6
CONTINUOUS
 10
69.866600
 20
53.597560
  0
SEQEND
  8
1
  6
CONTINUOUS
  0
LINE
  8
1
  6
CONTINUOUS
 10
62.176596
 20
57.667560
 11
62.176596
 21
57.667560
  0
POLYLINE
  8
1
  6
CONTINUOUS
 66
     1
  0
VERTEX
  8
1
  6
CONTINUOUS
 10
61.976596
 20
55.367560
  0
VERTEX
  8
1
  6
CONTINUOUS
 10
62.376596
 20
55.367560
  0
VERTEX
  8
1
  6
CONTINUOUS
 10
62.376596
 20
59.967560
  0
VERTEX
  8
1
  6
CONTINUOUS
 10
61.976596
 20
59.967560
  0
VERTEX
  8
1
  6
CONTINUOUS
 10
61.976596
 20
55.367560
  0
SEQEND
  8
1
  6
CONTINUOUS
  0
LINE
  8
1
  6
CONTINUOUS
 10
76.694094
 20
14.963954
 11
76.694094
 21
14.963954
  0
POLYLINE
  8
1
  6
CONTINUOUS
 66
     1
  0
VERTEX
  8
1
  6
CONTINUOUS
 10
76.851212
 20
14.448868
  0
VERTEX
  8
1
  6
CONTINUOUS
 10
76.935551
 20
15.445305
  0
VERTEX
  8
1
  6
CONTINUOUS
 10
76.536976
 20
15.479040
  0
VERTEX
  8
1
  6
CONTINUOUS
 10
76.452637
 20
14.482603
  0
VERTEX
  8
1
  6
CONTINUOUS
 10
76.851212
 20
14.448868
  0
SEQEND
  8
1
  6
CONTINUOUS
  0
LINE
  8
1
  6
CONTINUOUS
 10
77.733897
 20
27.249773
 11
77.733897
 21
27.249773
  0
POLYLINE
  8
1
  6
CONTINUOUS
 66
     1
  0
VERTEX
  8
1
  6
CONTINUOUS
 10
77.891015
 20
26.734686
  0
VERTEX
  8
1
  6
CONTINUOUS
 10
77.975354
 20
27.731124
  0
VERTEX
  8
1
  6
CONTINUOUS
 10
77.576779
 20
27.764859
  0
VERTEX
  8
1
  6
CONTINUOUS
 10
77.492440
 20
26.768422
  0
VERTEX
  8
1
  6
CONTINUOUS
 10
77.891015
 20
26.734686
  0
SEQEND
  8
1
  6
CONTINUOUS
  0
LINE
  8
1
  6
CONTINUOUS
 10
20.744982
 20
32.530283
 11
20.744982
 21
32.530283
  0
POLYLINE
  8
1
  6
CONTINUOUS
 66
     1
  0
VERTEX
  8
1
  6
CONTINUOUS
 10
20.544982
 20
32.330283
  0
VERTEX
  8
1
  6
CONTINUOUS
 10
20.944982
 20
32.330283
  0
VERTEX
  8
1
  6
CONTINUOUS
 10
20.944982
 20
32.730283
  0
VERTEX
  8
1
  6
CONTINUOUS
 10
20.544982
 20
32.730283
  0
VERTEX
  8
1
  6
CONTINUOUS
 10
20.544982
 20
32.330283
  0
SEQEND
  8
1
  6
CONTINUOUS
  0
LINE
  8
1
  6
CONTINUOUS
 10
73.476595
 20
48.671755
 11
73.476595
 21
48.671755
  0
POLYLINE
  8
1
  6
CONTINUOUS
 66
     1
  0
VERTEX
  8
1
  6
CONTINUOUS
 10
73.276595
 20
48.471755
  0
VERTEX
  8
1
  6
CONTINUOUS
 10
73.676595
 20
48.471755
  0
VERTEX
  8
1
  6
CONTINUOUS
 10
73.676595
 20
48.871755
  0
VERTEX
  8
1
  6
CONTINUOUS
 10
73.276595
 20
48.871755
  0
VERTEX
  8
1
  6
CONTINUOUS
 10
73.276595
 20
48.471755
  0
SEQEND
  8
1
  6
CONTINUOUS
  0
LINE
  8
1
  6
CONTINUOUS
 10
73.476595
 20
56.971693
 11
73.476595
 21
56.971693
  0
POLYLINE
  8
1
  6
CONTINUOUS
 66
     1
  0
VERTEX
  8
1
  6
CONTINUOUS
 10
73.276595
 20
56.771693
  0
VERTEX
  8
1
  6
CONTINUOUS
 10
73.676595
 20
56.771693
  0
VERTEX
  8
1
  6
CONTINUOUS
 10
73.676595
 20
57.171693
  0
VERTEX
  8
1
  6
CONTINUOUS
 10
73.276595
 20
57.171693
  0
VERTEX
  8
1
  6
CONTINUOUS
 10
73.276595
 20
56.771693
  0
SEQEND
  8
1
  6
CONTINUOUS
  0
LINE
  8
1
  6
CONTINUOUS
 10
74.220145
 20
64.466599
 11
74.220145
 21
64.466599
  0
POLYLINE
  8
1
  6
CONTINUOUS
 66
     1
  0
VERTEX
  8
1
  6
CONTINUOUS
 10
73.790145
 20
64.266599
  0
VERTEX
  8
1
  6
CONTINUOUS
 10
74.650145
 20
64.266599
  0
VERTEX
  8
1
  6
CONTINUOUS
 10
74.650145
 20
64.666599
  0
VERTEX
  8
1
  6
CONTINUOUS
 10
73.790145
 20
64.666599
  0
VERTEX
  8
1
  6
CONTINUOUS
 10
73.790145
 20
64.266599
  0
SEQEND
  8
1
  6
CONTINUOUS
  0
LINE
  8
1
  6
CONTINUOUS
 10
73.676595
 20
38.737570
 11
73.676595
 21
38.737570
  0
POLYLINE
  8
1
  6
CONTINUOUS
 66
     1
  0
VERTEX
  8
1
  6
CONTINUOUS
 10
73.276595
 20
38.537570
  0
VERTEX
  8
1
  6
CONTINUOUS
 10
74.076595
 20
38.537570
  0
VERTEX
  8
1
  6
CONTINUOUS
 10
74.076595
 20
38.937570
  0
VERTEX
  8
1
  6
CONTINUOUS
 10
73.276595
 20
38.937570
  0
VERTEX
  8
1
  6
CONTINUOUS
 10
73.276595
 20
38.537570
  0
SEQEND
  8
1
  6
CONTINUOUS
  0
LINE
  8
1
  6
CONTINUOUS
 10
59.328857
 20
32.530283
 11
59.328857
 21
32.530283
  0
POLYLINE
  8
1
  6
CONTINUOUS
 66
     1
  0
VERTEX
  8
1
  6
CONTINUOUS
 10
59.128857
 20
32.330283
  0
VERTEX
  8
1
  6
CONTINUOUS
 10
59.528857
 20
32.330283
  0
VERTEX
  8
1
  6
CONTINUOUS
 10
59.528857
 20
32.730283
  0
VERTEX
  8
1
  6
CONTINUOUS
 10
59.128857
 20
32.730283
  0
VERTEX
  8
1
  6
CONTINUOUS
 10
59.128857
 20
32.330283
  0
SEQEND
  8
1
  6
CONTINUOUS
  0
LINE
  8
1
  6
CONTINUOUS
 10
70.076595
 20
32.530283
 11
70.076595
 21
32.530283
  0
POLYLINE
  8
1
  6
CONTINUOUS
 66
     1
  0
VERTEX
  8
1
  6
CONTINUOUS
 10
69.876595
 20
32.330283
  0
VERTEX
  8
1
  6
CONTINUOUS
 10
70.276595
 20
32.330283
  0
VERTEX
  8
1
  6
CONTINUOUS
 10
70.276595
 20
32.730283
  0
VERTEX
  8
1
  6
CONTINUOUS
 10
69.876595
 20
32.730283
  0
VERTEX
  8
1
  6
CONTINUOUS
 10
69.876595
 20
32.330283
  0
SEQEND
  8
1
  6
CONTINUOUS
  0
LINE
  8
1
  6
CONTINUOUS
 10
32.000793
 20
14.045117
 11
32.000793
 21
14.045117
  0
POLYLINE
  8
1
  6
CONTINUOUS
 66
     1
  0
VERTEX
  8
1
  6
CONTINUOUS
 10
31.800793
 20
13.845117
  0
VERTEX
  8
1
  6
CONTINUOUS
 10
32.200793
 20
13.845117
  0
VERTEX
  8
1
  6
CONTINUOUS
 10
32.200793
 20
14.245117
  0
VERTEX
  8
1
  6
CONTINUOUS
 10
31.800793
 20
14.245117
  0
VERTEX
  8
1
  6
CONTINUOUS
 10
31.800793
 20
13.845117
  0
SEQEND
  8
1
  6
CONTINUOUS
  0
LINE
  8
1
  6
CONTINUOUS
 10
33.344982
 20
32.530283
 11
33.344982
 21
32.530283
  0
POLYLINE
  8
1
  6
CONTINUOUS
 66
     1
  0
VERTEX
  8
1
  6
CONTINUOUS
 10
33.144982
 20
32.330283
  0
VERTEX
  8
1
  6
CONTINUOUS
 10
33.544982
 20
32.330283
  0
VERTEX
  8
1
  6
CONTINUOUS
 10
33.544982
 20
32.730283
  0
VERTEX
  8
1
  6
CONTINUOUS
 10
33.144982
 20
32.730283
  0
VERTEX
  8
1
  6
CONTINUOUS
 10
33.144982
 20
32.330283
  0
SEQEND
  8
1
  6
CONTINUOUS
  0
LINE
  8
1
  6
CONTINUOUS
 10
20.744982
 20
23.287700
 11
20.744982
 21
23.287700
  0
POLYLINE
  8
1
  6
CONTINUOUS
 66
     1
  0
VERTEX
  8
1
  6
CONTINUOUS
 10
20.544982
 20
23.087700
  0
VERTEX
  8
1
  6
CONTINUOUS
 10
20.944982
 20
23.087700
  0
VERTEX
  8
1
  6
CONTINUOUS
 10
20.944982
 20
23.487700
  0
VERTEX
  8
1
  6
CONTINUOUS
 10
20.544982
 20
23.487700
  0
VERTEX
  8
1
  6
CONTINUOUS
 10
20.544982
 20
23.087700
  0
SEQEND
  8
1
  6
CONTINUOUS
  0
LINE
  8
1
  6
CONTINUOUS
 10
33.387111
 20
23.287700
 11
33.387111
 21
23.287700
  0
POLYLINE
  8
1
  6
CONTINUOUS
 66
     1
  0
VERTEX
  8
1
  6
CONTINUOUS
 10
33.187111
 20
23.087700
  0
VERTEX
  8
1
  6
CONTINUOUS
 10
33.587111
 20
23.087700
  0
VERTEX
  8
1
  6
CONTINUOUS
 10
33.587111
 20
23.487700
  0
VERTEX
  8
1
  6
CONTINUOUS
 10
33.187111
 20
23.487700
  0
VERTEX
  8
1
  6
CONTINUOUS
 10
33.187111
 20
23.087700
  0
SEQEND
  8
1
  6
CONTINUOUS
  0
LINE
  8
1
  6
CONTINUOUS
 10
70.802365
 20
20.937700
 11
70.802365
 21
20.937700
  0
POLYLINE
  8
1
  6
CONTINUOUS
 66
     1
  0
VERTEX
  8
1
  6
CONTINUOUS
 10
70.602365
 20
20.737700
  0
VERTEX
  8
1
  6
CONTINUOUS
 10
71.002365
 20
20.737700
  0
VERTEX
  8
1
  6
CONTINUOUS
 10
71.002365
 20
21.137700
  0
VERTEX
  8
1
  6
CONTINUOUS
 10
70.602365
 20
21.137700
  0
VERTEX
  8
1
  6
CONTINUOUS
 10
70.602365
 20
20.737700
  0
SEQEND
  8
1
  6
CONTINUOUS
  0
LINE
  8
1
  6
CONTINUOUS
 10
70.802385
 20
9.345117
 11
70.802385
 21
9.345117
  0
POLYLINE
  8
1
  6
CONTINUOUS
 66
     1
  0
VERTEX
  8
1
  6
CONTINUOUS
 10
70.602385
 20
9.145117
  0
VERTEX
  8
1
  6
CONTINUOUS
 10
71.002385
 20
9.145117
  0
VERTEX
  8
1
  6
CONTINUOUS
 10
71.002385
 20
9.545117
  0
VERTEX
  8
1
  6
CONTINUOUS
 10
70.602385
 20
9.545117
  0
VERTEX
  8
1
  6
CONTINUOUS
 10
70.602385
 20
9.145117
  0
SEQEND
  8
1
  6
CONTINUOUS
  0
LINE
  8
4
  6
CONTINUOUS
 10
31.480793
 20
9.345117
 11
31.480793
 21
8.445117
  0
LINE
  8
4
  6
CONTINUOUS
 10
31.345793
 20
8.895117
 11
31.615793
 21
8.895117
  0
LINE
  8
4
  6
CONTINUOUS
 10
31.345793
 20
8.805117
 11
31.615793
 21
8.805117
  0
LINE
  8
4
  6
CONTINUOUS
 10
31.345793
 20
8.715117
 11
31.615793
 21
8.715117
  0
LINE
  8
4
  6
CONTINUOUS
 10
31.345793
 20
8.625117
 11
31.615793
 21
8.625117
  0
LINE
  8
4
  6
CONTINUOUS
 10
31.413293
 20
8.445117
 11
31.548293
 21
8.445117
  0
LINE
  8
4
  6
CONTINUOUS
 10
31.413293
 20
8.445117
 11
31.480793
 21
7.545117
  0
LINE
  8
4
  6
CONTINUOUS
 10
31.548293
 20
8.445117
 11
31.480793
 21
7.545117
  0
LINE
  8
4
  6
CONTINUOUS
 10
32.867111
 20
31.230283
 11
32.867111
 21
32.430283
  0
LINE
  8
4
  6
CONTINUOUS
 10
32.987111
 20
32.430283
 11
32.747111
 21
32.430283
  0
LINE
  8
4
  6
CONTINUOUS
 10
32.987111
 20
32.406283
 11
32.747111
 21
32.406283
  0
LINE
  8
4
  6
CONTINUOUS
 10
32.987111
 20
32.382283
 11
32.747111
 21
32.382283
  0
POLYLINE
  8
4
  6
CONTINUOUS
 66
     1
  0
VERTEX
  8
4
  6
CONTINUOUS
 10
32.867111
 20
31.230283
  0
VERTEX
  8
4
  6
CONTINUOUS
 10
32.867111
 20
23.142667
  0
VERTEX
  8
4
  6
CONTINUOUS
 10
32.854626
 20
22.643136
  0
VERTEX
  8
4
  6
CONTINUOUS
 10
32.817204
 20
22.144851
  0
VERTEX
  8
4
  6
CONTINUOUS
 10
32.754938
 20
21.649059
  0
VERTEX
  8
4
  6
CONTINUOUS
 10
32.667984
 20
21.156995
  0
VERTEX
  8
4
  6
CONTINUOUS
 10
31.679920
 20
16.280115
  0
VERTEX
  8
4
  6
CONTINUOUS
 10
31.592966
 20
15.788052
  0
VERTEX
  8
4
  6
CONTINUOUS
 10
31.530699
 20
15.292259
  0
VERTEX
  8
4
  6
CONTINUOUS
 10
31.493278
 20
14.793975
  0
VERTEX
  8
4
  6
CONTINUOUS
 10
31.480793
 20
14.294444
  0
VERTEX
  8
4
  6
CONTINUOUS
 10
31.480793
 20
9.345117
  0
SEQEND
  8
4
  6
CONTINUOUS
  0
LINE
  8
4
  6
CONTINUOUS
 10
32.000793
 20
9.345117
 11
32.000793
 21
8.445117
  0
LINE
  8
4
  6
CONTINUOUS
 10
31.865793
 20
8.895117
 11
32.135793
 21
8.895117
  0
LINE
  8
4
  6
CONTINUOUS
 10
31.865793
 20
8.805117
 11
32.135793
 21
8.805117
  0
LINE
  8
4
  6
CONTINUOUS
 10
31.865793
 20
8.715117
 11
32.135793
 21
8.715117
  0
LINE
  8
4
  6
CONTINUOUS
 10
31.865793
 20
8.625117
 11
32.135793
 21
8.625117
  0
LINE
  8
4
  6
CONTINUOUS
 10
31.933293
 20
8.445117
 11
32.068293
 21
8.445117
  0
LINE
  8
4
  6
CONTINUOUS
 10
31.933293
 20
8.445117
 11
32.000793
 21
7.545117
  0
LINE
  8
4
  6
CONTINUOUS
 10
32.068293
 20
8.445117
 11
32.000793
 21
7.545117
  0
LINE
  8
4
  6
CONTINUOUS
 10
33.387111
 20
31.230283
 11
33.387111
 21
32.430283
  0
LINE
  8
4
  6
CONTINUOUS
 10
33.507111
 20
32.430283
 11
33.267111
 21
32.430283
  0
LINE
  8
4
  6
CONTINUOUS
 10
33.507111
 20
32.406283
 11
33.267111
 21
32.406283
  0
LINE
  8
4
  6
CONTINUOUS
 10
33.507111
 20
32.382283
 11
33.267111
 21
32.382283
  0
POLYLINE
  8
4
  6
CONTINUOUS
 66
     1
  0
VERTEX
  8
4
  6
CONTINUOUS
 10
33.387111
 20
31.230283
  0
VERTEX
  8
4
  6
CONTINUOUS
 10
33.387111
 20
23.090520
  0
VERTEX
  8
4
  6
CONTINUOUS
 10
33.374626
 20
22.590989
  0
VERTEX
  8
4
  6
CONTINUOUS
 10
33.337204
 20
22.092705
  0
VERTEX
  8
4
  6
CONTINUOUS
 10
33.274938
 20
21.596912
  0
VERTEX
  8
4
  6
CONTINUOUS
 10
33.187984
 20
21.104849
  0
VERTEX
  8
4
  6
CONTINUOUS
 10
32.199920
 20
16.227968
  0
VERTEX
  8
4
  6
CONTINUOUS
 10
32.112966
 20
15.735905
  0
VERTEX
  8
4
  6
CONTINUOUS
 10
32.050699
 20
15.240112
  0
VERTEX
  8
4
  6
CONTINUOUS
 10
32.013278
 20
14.741828
  0
VERTEX
  8
4
  6
CONTINUOUS
 10
32.000793
 20
14.242297
  0
VERTEX
  8
4
  6
CONTINUOUS
 10
32.000793
 20
9.345117
  0
SEQEND
  8
4
  6
CONTINUOUS
  0
LINE
  8
4
  6
CONTINUOUS
 10
32.520793
 20
9.345117
 11
32.520793
 21
8.445117
  0
LINE
  8
4
  6
CONTINUOUS
 10
32.385793
 20
8.895117
 11
32.655793
 21
8.895117
  0
LINE
  8
4
  6
CONTINUOUS
 10
32.385793
 20
8.805117
 11
32.655793
 21
8.805117
  0
LINE
  8
4
  6
CONTINUOUS
 10
32.385793
 20
8.715117
 11
32.655793
 21
8.715117
  0
LINE
  8
4
  6
CONTINUOUS
 10
32.385793
 20
8.625117
 11
32.655793
 21
8.625117
  0
LINE
  8
4
  6
CONTINUOUS
 10
32.453293
 20
8.445117
 11
32.588293
 21
8.445117
  0
LINE
  8
4
  6
CONTINUOUS
 10
32.453293
 20
8.445117
 11
32.520793
 21
7.545117
  0
LINE
  8
4
  6
CONTINUOUS
 10
32.588293
 20
8.445117
 11
32.520793
 21
7.545117
  0
LINE
  8
4
  6
CONTINUOUS
 10
33.907111
 20
31.230283
 11
33.907111
 21
32.430283
  0
LINE
  8
4
  6
CONTINUOUS
 10
34.027111
 20
32.430283
 11
33.787111
 21
32.430283
  0
LINE
  8
4
  6
CONTINUOUS
 10
34.027111
 20
32.406283
 11
33.787111
 21
32.406283
  0
LINE
  8
4
  6
CONTINUOUS
 10
34.027111
 20
32.382283
 11
33.787111
 21
32.382283
  0
POLYLINE
  8
4
  6
CONTINUOUS
 66
     1
  0
VERTEX
  8
4
  6
CONTINUOUS
 10
33.907111
 20
31.230283
  0
VERTEX
  8
4
  6
CONTINUOUS
 10
33.907111
 20
23.038374
  0
VERTEX
  8
4
  6
CONTINUOUS
 10
33.894626
 20
22.538842
  0
VERTEX
  8
4
  6
CONTINUOUS
 10
33.857204
 20
22.040558
  0
VERTEX
  8
4
  6
CONTINUOUS
 10
33.794938
 20
21.544765
  0
VERTEX
  8
4
  6
CONTINUOUS
 10
33.707984
 20
21.052702
  0
VERTEX
  8
4
  6
CONTINUOUS
 10
32.719920
 20
16.175822
  0
VERTEX
  8
4
  6
CONTINUOUS
 10
32.632966
 20
15.683758
  0
VERTEX
  8
4
  6
CONTINUOUS
 10
32.570699
 20
15.187966
  0
VERTEX
  8
4
  6
CONTINUOUS
 10
32.533278
 20
14.689682
  0
VERTEX
  8
4
  6
CONTINUOUS
 10
32.520793
 20
14.190150
  0
VERTEX
  8
4
  6
CONTINUOUS
 10
32.520793
 20
9.345117
  0
SEQEND
  8
4
  6
CONTINUOUS
  0
LINE
  8
4
  6
CONTINUOUS
 10
45.519240
 20
9.345117
 11
45.519240
 21
8.445117
  0
LINE
  8
4
  6
CONTINUOUS
 10
45.384240
 20
8.895117
 11
45.654240
 21
8.895117
  0
LINE
  8
4
  6
CONTINUOUS
 10
45.384240
 20
8.805117
 11
45.654240
 21
8.805117
  0
LINE
  8
4
  6
CONTINUOUS
 10
45.384240
 20
8.715117
 11
45.654240
 21
8.715117
  0
LINE
  8
4
  6
CONTINUOUS
 10
45.384240
 20
8.625117
 11
45.654240
 21
8.625117
  0
LINE
  8
4
  6
CONTINUOUS
 10
45.451740
 20
8.445117
 11
45.586740
 21
8.445117
  0
LINE
  8
4
  6
CONTINUOUS
 10
45.451740
 20
8.445117
 11
45.519240
 21
7.545117
  0
LINE
  8
4
  6
CONTINUOUS
 10
45.586740
 20
8.445117
 11
45.519240
 21
7.545117
  0
LINE
  8
4
  6
CONTINUOUS
 10
45.519240
 20
31.230283
 11
45.519240
 21
32.430283
  0
LINE
  8
4
  6
CONTINUOUS
 10
45.639240
 20
32.430283
 11
45.399240
 21
32.430283
  0
LINE
  8
4
  6
CONTINUOUS
 10
45.639240
 20
32.406283
 11
45.399240
 21
32.406283
  0
LINE
  8
4
  6
CONTINUOUS
 10
45.639240
 20
32.382283
 11
45.399240
 21
32.382283
  0
POLYLINE
  8
4
  6
CONTINUOUS
 66
     1
  0
VERTEX
  8
4
  6
CONTINUOUS
 10
45.519240
 20
31.230283
  0
VERTEX
  8
4
  6
CONTINUOUS
 10
45.519240
 20
9.345117
  0
SEQEND
  8
4
  6
CONTINUOUS
  0
LINE
  8
4
  6
CONTINUOUS
 10
46.039240
 20
9.345117
 11
46.039240
 21
8.445117
  0
LINE
  8
4
  6
CONTINUOUS
 10
45.904240
 20
8.895117
 11
46.174240
 21
8.895117
  0
LINE
  8
4
  6
CONTINUOUS
 10
45.904240
 20
8.805117
 11
46.174240
 21
8.805117
  0
LINE
  8
4
  6
CONTINUOUS
 10
45.904240
 20
8.715117
 11
46.174240
 21
8.715117
  0
LINE
  8
4
  6
CONTINUOUS
 10
45.904240
 20
8.625117
 11
46.174240
 21
8.625117
  0
LINE
  8
4
  6
CONTINUOUS
 10
45.971740
 20
8.445117
 11
46.106740
 21
8.445117
  0
LINE
  8
4
  6
CONTINUOUS
 10
45.971740
 20
8.445117
 11
46.039240
 21
7.545117
  0
LINE
  8
4
  6
CONTINUOUS
 10
46.106740
 20
8.445117
 11
46.039240
 21
7.545117
  0
LINE
  8
4
  6
CONTINUOUS
 10
46.039240
 20
31.230283
 11
46.039240
 21
32.430283
  0
LINE
  8
4
  6
CONTINUOUS
 10
46.159240
 20
32.430283
 11
45.919240
 21
32.430283
  0
LINE
  8
4
  6
CONTINUOUS
 10
46.159240
 20
32.406283
 11
45.919240
 21
32.406283
  0
LINE
  8
4
  6
CONTINUOUS
 10
46.159240
 20
32.382283
 11
45.919240
 21
32.382283
  0
POLYLINE
  8
4
  6
CONTINUOUS
 66
     1
  0
VERTEX
  8
4
  6
CONTINUOUS
 10
46.039240
 20
31.230283
  0
VERTEX
  8
4
  6
CONTINUOUS
 10
46.039240
 20
9.345117
  0
SEQEND
  8
4
  6
CONTINUOUS
  0
LINE
  8
4
  6
CONTINUOUS
 10
46.559240
 20
9.345117
 11
46.559240
 21
8.445117
  0
LINE
  8
4
  6
CONTINUOUS
 10
46.424240
 20
8.895117
 11
46.694240
 21
8.895117
  0
LINE
  8
4
  6
CONTINUOUS
 10
46.424240
 20
8.805117
 11
46.694240
 21
8.805117
  0
LINE
  8
4
  6
CONTINUOUS
 10
46.424240
 20
8.715117
 11
46.694240
 21
8.715117
  0
LINE
  8
4
  6
CONTINUOUS
 10
46.424240
 20
8.625117
 11
46.694240
 21
8.625117
  0
LINE
  8
4
  6
CONTINUOUS
 10
46.491740
 20
8.445117
 11
46.626740
 21
8.445117
  0
LINE
  8
4
  6
CONTINUOUS
 10
46.491740
 20
8.445117
 11
46.559240
 21
7.545117
  0
LINE
  8
4
  6
CONTINUOUS
 10
46.626740
 20
8.445117
 11
46.559240
 21
7.545117
  0
LINE
  8
4
  6
CONTINUOUS
 10
46.559240
 20
31.230283
 11
46.559240
 21
32.430283
  0
LINE
  8
4
  6
CONTINUOUS
 10
46.679240
 20
32.430283
 11
46.439240
 21
32.430283
  0
LINE
  8
4
  6
CONTINUOUS
 10
46.679240
 20
32.406283
 11
46.439240
 21
32.406283
  0
LINE
  8
4
  6
CONTINUOUS
 10
46.679240
 20
32.382283
 11
46.439240
 21
32.382283
  0
POLYLINE
  8
4
  6
CONTINUOUS
 66
     1
  0
VERTEX
  8
4
  6
CONTINUOUS
 10
46.559240
 20
31.230283
  0
VERTEX
  8
4
  6
CONTINUOUS
 10
46.559240
 20
9.345117
  0
SEQEND
  8
4
  6
CONTINUOUS
  0
LINE
  8
4
  6
CONTINUOUS
 10
58.819240
 20
9.345117
 11
58.819240
 21
8.445117
  0
LINE
  8
4
  6
CONTINUOUS
 10
58.684240
 20
8.895117
 11
58.954240
 21
8.895117
  0
LINE
  8
4
  6
CONTINUOUS
 10
58.684240
 20
8.805117
 11
58.954240
 21
8.805117
  0
LINE
  8
4
  6
CONTINUOUS
 10
58.684240
 20
8.715117
 11
58.954240
 21
8.715117
  0
LINE
  8
4
  6
CONTINUOUS
 10
58.684240
 20
8.625117
 11
58.954240
 21
8.625117
  0
LINE
  8
4
  6
CONTINUOUS
 10
58.751740
 20
8.445117
 11
58.886740
 21
8.445117
  0
LINE
  8
4
  6
CONTINUOUS
 10
58.751740
 20
8.445117
 11
58.819240
 21
7.545117
  0
LINE
  8
4
  6
CONTINUOUS
 10
58.886740
 20
8.445117
 11
58.819240
 21
7.545117
  0
LINE
  8
4
  6
CONTINUOUS
 10
58.819240
 20
31.230283
 11
58.819240
 21
32.430283
  0
LINE
  8
4
  6
CONTINUOUS
 10
58.939240
 20
32.430283
 11
58.699240
 21
32.430283
  0
LINE
  8
4
  6
CONTINUOUS
 10
58.939240
 20
32.406283
 11
58.699240
 21
32.406283
  0
LINE
  8
4
  6
CONTINUOUS
 10
58.939240
 20
32.382283
 11
58.699240
 21
32.382283
  0
POLYLINE
  8
4
  6
CONTINUOUS
 66
     1
  0
VERTEX
  8
4
  6
CONTINUOUS
 10
58.819240
 20
31.230283
  0
VERTEX
  8
4
  6
CONTINUOUS
 10
58.819240
 20
9.345117
  0
SEQEND
  8
4
  6
CONTINUOUS
  0
LINE
  8
4
  6
CONTINUOUS
 10
59.339240
 20
9.345117
 11
59.339240
 21
8.445117
  0
LINE
  8
4
  6
CONTINUOUS
 10
59.204240
 20
8.895117
 11
59.474240
 21
8.895117
  0
LINE
  8
4
  6
CONTINUOUS
 10
59.204240
 20
8.805117
 11
59.474240
 21
8.805117
  0
LINE
  8
4
  6
CONTINUOUS
 10
59.204240
 20
8.715117
 11
59.474240
 21
8.715117
  0
LINE
  8
4
  6
CONTINUOUS
 10
59.204240
 20
8.625117
 11
59.474240
 21
8.625117
  0
LINE
  8
4
  6
CONTINUOUS
 10
59.271740
 20
8.445117
 11
59.406740
 21
8.445117
  0
LINE
  8
4
  6
CONTINUOUS
 10
59.271740
 20
8.445117
 11
59.339240
 21
7.545117
  0
LINE
  8
4
  6
CONTINUOUS
 10
59.406740
 20
8.445117
 11
59.339240
 21
7.545117
  0
LINE
  8
4
  6
CONTINUOUS
 10
59.339240
 20
31.230283
 11
59.339240
 21
32.430283
  0
LINE
  8
4
  6
CONTINUOUS
 10
59.459240
 20
32.430283
 11
59.219240
 21
32.430283
  0
LINE
  8
4
  6
CONTINUOUS
 10
59.459240
 20
32.406283
 11
59.219240
 21
32.406283
  0
LINE
  8
4
  6
CONTINUOUS
 10
59.459240
 20
32.382283
 11
59.219240
 21
32.382283
  0
POLYLINE
  8
4
  6
CONTINUOUS
 66
     1
  0
VERTEX
  8
4
  6
CONTINUOUS
 10
59.339240
 20
31.230283
  0
VERTEX
  8
4
  6
CONTINUOUS
 10
59.339240
 20
9.345117
  0
SEQEND
  8
4
  6
CONTINUOUS
  0
LINE
  8
4
  6
CONTINUOUS
 10
59.859240
 20
9.345117
 11
59.859240
 21
8.445117
  0
LINE
  8
4
  6
CONTINUOUS
 10
59.724240
 20
8.895117
 11
59.994240
 21
8.895117
  0
LINE
  8
4
  6
CONTINUOUS
 10
59.724240
 20
8.805117
 11
59.994240
 21
8.805117
  0
LINE
  8
4
  6
CONTINUOUS
 10
59.724240
 20
8.715117
 11
59.994240
 21
8.715117
  0
LINE
  8
4
  6
CONTINUOUS
 10
59.724240
 20
8.625117
 11
59.994240
 21
8.625117
  0
LINE
  8
4
  6
CONTINUOUS
 10
59.791740
 20
8.445117
 11
59.926740
 21
8.445117
  0
LINE
  8
4
  6
CONTINUOUS
 10
59.791740
 20
8.445117
 11
59.859240
 21
7.545117
  0
LINE
  8
4
  6
CONTINUOUS
 10
59.926740
 20
8.445117
 11
59.859240
 21
7.545117
  0
LINE
  8
4
  6
CONTINUOUS
 10
59.859240
 20
31.230283
 11
59.859240
 21
32.430283
  0
LINE
  8
4
  6
CONTINUOUS
 10
59.979240
 20
32.430283
 11
59.739240
 21
32.430283
  0
LINE
  8
4
  6
CONTINUOUS
 10
59.979240
 20
32.406283
 11
59.739240
 21
32.406283
  0
LINE
  8
4
  6
CONTINUOUS
 10
59.979240
 20
32.382283
 11
59.739240
 21
32.382283
  0
POLYLINE
  8
4
  6
CONTINUOUS
 66
     1
  0
VERTEX
  8
4
  6
CONTINUOUS
 10
59.859240
 20
31.230283
  0
VERTEX
  8
4
  6
CONTINUOUS
 10
59.859240
 20
9.345117
  0
SEQEND
  8
4
  6
CONTINUOUS
  0
LINE
  8
4
  6
CONTINUOUS
 10
70.402385
 20
9.345117
 11
70.402385
 21
8.445117
  0
LINE
  8
4
  6
CONTINUOUS
 10
70.267385
 20
8.895117
 11
70.537385
 21
8.895117
  0
LINE
  8
4
  6
CONTINUOUS
 10
70.267385
 20
8.805117
 11
70.537385
 21
8.805117
  0
LINE
  8
4
  6
CONTINUOUS
 10
70.267385
 20
8.715117
 11
70.537385
 21
8.715117
  0
LINE
  8
4
  6
CONTINUOUS
 10
70.267385
 20
8.625117
 11
70.537385
 21
8.625117
  0
LINE
  8
4
  6
CONTINUOUS
 10
70.334885
 20
8.445117
 11
70.469885
 21
8.445117
  0
LINE
  8
4
  6
CONTINUOUS
 10
70.334885
 20
8.445117
 11
70.402385
 21
7.545117
  0
LINE
  8
4
  6
CONTINUOUS
 10
70.469885
 20
8.445117
 11
70.402385
 21
7.545117
  0
LINE
  8
4
  6
CONTINUOUS
 10
70.676595
 20
37.437570
 11
70.676595
 21
38.637570
  0
LINE
  8
4
  6
CONTINUOUS
 10
70.796595
 20
38.637570
 11
70.556595
 21
38.637570
  0
LINE
  8
4
  6
CONTINUOUS
 10
70.796595
 20
38.613570
 11
70.556595
 21
38.613570
  0
LINE
  8
4
  6
CONTINUOUS
 10
70.796595
 20
38.589570
 11
70.556595
 21
38.589570
  0
POLYLINE
  8
4
  6
CONTINUOUS
 66
     1
  0
VERTEX
  8
4
  6
CONTINUOUS
 10
70.676595
 20
37.437570
  0
VERTEX
  8
4
  6
CONTINUOUS
 10
70.676595
 20
32.470153
  0
VERTEX
  8
4
  6
CONTINUOUS
 10
70.676369
 20
32.402913
  0
VERTEX
  8
4
  6
CONTINUOUS
 10
70.675691
 20
32.335675
  0
VERTEX
  8
4
  6
CONTINUOUS
 10
70.674561
 20
32.268443
  0
VERTEX
  8
4
  6
CONTINUOUS
 10
70.672978
 20
32.201221
  0
VERTEX
  8
4
  6
CONTINUOUS
 10
70.406002
 20
22.277522
  0
VERTEX
  8
4
  6
CONTINUOUS
 10
70.404419
 20
22.210299
  0
VERTEX
  8
4
  6
CONTINUOUS
 10
70.403289
 20
22.143068
  0
VERTEX
  8
4
  6
CONTINUOUS
 10
70.402611
 20
22.075830
  0
VERTEX
  8
4
  6
CONTINUOUS
 10
70.402385
 20
22.008589
  0
VERTEX
  8
4
  6
CONTINUOUS
 10
70.402385
 20
9.345117
  0
SEQEND
  8
4
  6
CONTINUOUS
  0
LINE
  8
4
  6
CONTINUOUS
 10
71.202385
 20
9.345117
 11
71.202385
 21
8.445117
  0
LINE
  8
4
  6
CONTINUOUS
 10
71.067385
 20
8.895117
 11
71.337385
 21
8.895117
  0
LINE
  8
4
  6
CONTINUOUS
 10
71.067385
 20
8.805117
 11
71.337385
 21
8.805117
  0
LINE
  8
4
  6
CONTINUOUS
 10
71.067385
 20
8.715117
 11
71.337385
 21
8.715117
  0
LINE
  8
4
  6
CONTINUOUS
 10
71.067385
 20
8.625117
 11
71.337385
 21
8.625117
  0
LINE
  8
4
  6
CONTINUOUS
 10
71.134885
 20
8.445117
 11
71.269885
 21
8.445117
  0
LINE
  8
4
  6
CONTINUOUS
 10
71.134885
 20
8.445117
 11
71.202385
 21
7.545117
  0
LINE
  8
4
  6
CONTINUOUS
 10
71.269885
 20
8.445117
 11
71.202385
 21
7.545117
  0
LINE
  8
4
  6
CONTINUOUS
 10
71.476595
 20
37.437570
 11
71.476595
 21
38.637570
  0
LINE
  8
4
  6
CONTINUOUS
 10
71.596595
 20
38.637570
 11
71.356595
 21
38.637570
  0
LINE
  8
4
  6
CONTINUOUS
 10
71.596595
 20
38.613570
 11
71.356595
 21
38.613570
  0
LINE
  8
4
  6
CONTINUOUS
 10
71.596595
 20
38.589570
 11
71.356595
 21
38.589570
  0
POLYLINE
  8
4
  6
CONTINUOUS
 66
     1
  0
VERTEX
  8
4
  6
CONTINUOUS
 10
71.476595
 20
37.437570
  0
VERTEX
  8
4
  6
CONTINUOUS
 10
71.476595
 20
32.459394
  0
VERTEX
  8
4
  6
CONTINUOUS
 10
71.476369
 20
32.392153
  0
VERTEX
  8
4
  6
CONTINUOUS
 10
71.475691
 20
32.324916
  0
VERTEX
  8
4
  6
CONTINUOUS
 10
71.474561
 20
32.257684
  0
VERTEX
  8
4
  6
CONTINUOUS
 10
71.472978
 20
32.190462
  0
VERTEX
  8
4
  6
CONTINUOUS
 10
71.206002
 20
22.266762
  0
VERTEX
  8
4
  6
CONTINUOUS
 10
71.204419
 20
22.199540
  0
VERTEX
  8
4
  6
CONTINUOUS
 10
71.203289
 20
22.132308
  0
VERTEX
  8
4
  6
CONTINUOUS
 10
71.202611
 20
22.065071
  0
VERTEX
  8
4
  6
CONTINUOUS
 10
71.202385
 20
21.997830
  0
VERTEX
  8
4
  6
CONTINUOUS
 10
71.202385
 20
9.345117
  0
SEQEND
  8
4
  6
CONTINUOUS
  0
LINE
  8
4
  6
CONTINUOUS
 10
21.344982
 20
14.045117
 11
21.344982
 21
13.145117
  0
LINE
  8
4
  6
CONTINUOUS
 10
21.277482
 20
13.145117
 11
21.412482
 21
13.145117
  0
LINE
  8
4
  6
CONTINUOUS
 10
21.277482
 20
13.145117
 11
21.344982
 21
12.245117
  0
LINE
  8
4
  6
CONTINUOUS
 10
21.412482
 20
13.145117
 11
21.344982
 21
12.245117
  0
LINE
  8
4
  6
CONTINUOUS
 10
21.209982
 20
13.325117
 11
21.479982
 21
13.325117
  0
LINE
  8
4
  6
CONTINUOUS
 10
21.209982
 20
13.437617
 11
21.479982
 21
13.437617
  0
LINE
  8
4
  6
CONTINUOUS
 10
21.209982
 20
13.550117
 11
21.479982
 21
13.550117
  0
LINE
  8
4
  6
CONTINUOUS
 10
21.344982
 20
31.230283
 11
21.344982
 21
32.430283
  0
LINE
  8
4
  6
CONTINUOUS
 10
21.464982
 20
32.430283
 11
21.224982
 21
32.430283
  0
LINE
  8
4
  6
CONTINUOUS
 10
21.464982
 20
32.406283
 11
21.224982
 21
32.406283
  0
LINE
  8
4
  6
CONTINUOUS
 10
21.464982
 20
32.382283
 11
21.224982
 21
32.382283
  0
POLYLINE
  8
4
  6
CONTINUOUS
 66
     1
  0
VERTEX
  8
4
  6
CONTINUOUS
 10
21.344982
 20
31.230283
  0
VERTEX
  8
4
  6
CONTINUOUS
 10
21.344982
 20
14.045117
  0
SEQEND
  8
4
  6
CONTINUOUS
  0
LINE
  8
4
  6
CONTINUOUS
 10
22.144982
 20
14.045117
 11
22.144982
 21
13.145117
  0
LINE
  8
4
  6
CONTINUOUS
 10
22.077482
 20
13.145117
 11
22.212482
 21
13.145117
  0
LINE
  8
4
  6
CONTINUOUS
 10
22.077482
 20
13.145117
 11
22.144982
 21
12.245117
  0
LINE
  8
4
  6
CONTINUOUS
 10
22.212482
 20
13.145117
 11
22.144982
 21
12.245117
  0
LINE
  8
4
  6
CONTINUOUS
 10
22.009982
 20
13.325117
 11
22.279982
 21
13.325117
  0
LINE
  8
4
  6
CONTINUOUS
 10
22.009982
 20
13.437617
 11
22.279982
 21
13.437617
  0
LINE
  8
4
  6
CONTINUOUS
 10
22.009982
 20
13.550117
 11
22.279982
 21
13.550117
  0
LINE
  8
4
  6
CONTINUOUS
 10
22.144982
 20
31.230283
 11
22.144982
 21
32.430283
  0
LINE
  8
4
  6
CONTINUOUS
 10
22.264982
 20
32.430283
 11
22.024982
 21
32.430283
  0
LINE
  8
4
  6
CONTINUOUS
 10
22.264982
 20
32.406283
 11
22.024982
 21
32.406283
  0
LINE
  8
4
  6
CONTINUOUS
 10
22.264982
 20
32.382283
 11
22.024982
 21
32.382283
  0
POLYLINE
  8
4
  6
CONTINUOUS
 66
     1
  0
VERTEX
  8
4
  6
CONTINUOUS
 10
22.144982
 20
31.230283
  0
VERTEX
  8
4
  6
CONTINUOUS
 10
22.144982
 20
14.045117
  0
SEQEND
  8
4
  6
CONTINUOUS
  0
LINE
  8
1
  6
CONTINUOUS
 10
118.000002
 20
29.700001
 11
119.000002
 21
29.700001
  0
LINE
  8
1
  6
CONTINUOUS
 10
118.000002
 20
59.400002
 11
119.000002
 21
59.400002
  0
LINE
  8
1
  6
CONTINUOUS
 10
0.000000
 20
29.700001
 11
2.500000
 21
29.700001
  0
LINE
  8
1
  6
CONTINUOUS
 10
0.000000
 20
59.400002
 11
2.500000
 21
59.400002
  0
LINE
  8
1
  6
CONTINUOUS
 10
100.500002
 20
82.999998
 11
100.500002
 21
83.999998
  0
LINE
  8
1
  6
CONTINUOUS
 10
82.000002
 20
82.999998
 11
82.000002
 21
83.999998
  0
LINE
  8
1
  6
CONTINUOUS
 10
63.500002
 20
82.999998
 11
63.500002
 21
83.999998
  0
LINE
  8
1
  6
CONTINUOUS
 10
45.000002
 20
82.999998
 11
45.000002
 21
83.999998
  0
LINE
  8
1
  6
CONTINUOUS
 10
33.050001
 20
82.999998
 11
33.050001
 21
83.999998
  0
LINE
  8
1
  6
CONTINUOUS
 10
21.100000
 20
82.999998
 11
21.100000
 21
83.999998
  0
LINE
  8
1
  6
CONTINUOUS
 10
100.500002
 20
0.000000
 11
100.500002
 21
1.000000
  0
LINE
  8
1
  6
CONTINUOUS
 10
82.000002
 20
0.000000
 11
82.000002
 21
1.000000
  0
LINE
  8
1
  6
CONTINUOUS
 10
63.500002
 20
0.000000
 11
63.500002
 21
1.000000
  0
LINE
  8
1
  6
CONTINUOUS
 10
45.000002
 20
0.000000
 11
45.000002
 21
1.000000
  0
LINE
  8
1
  6
CONTINUOUS
 10
33.050001
 20
0.000000
 11
33.050001
 21
1.000000
  0
LINE
  8
1
  6
CONTINUOUS
 10
21.100000
 20
0.000000
 11
21.100000
 21
1.000000
  0
LINE
  8
1
  6
CONTINUOUS
 10
0.000000
 20
0.000000
 11
119.000002
 21
0.000000
  0
LINE
  8
1
  6
CONTINUOUS
 10
119.000002
 20
0.000000
 11
119.000002
 21
83.999998
  0
LINE
  8
1
  6
CONTINUOUS
 10
0.000000
 20
0.000000
 11
0.000000
 21
83.999998
  0
LINE
  8
8
  6
CONTINUOUS
 10
2.500000
 20
1.000000
 11
118.000002
 21
1.000000
  0
LINE
  8
8
  6
CONTINUOUS
 10
118.000002
 20
1.000000
 11
118.000002
 21
82.999998
  0
LINE
  8
1
  6
CONTINUOUS
 10
0.000000
 20
83.999998
 11
119.000002
 21
83.999998
  0
LINE
  8
8
  6
CONTINUOUS
 10
2.500000
 20
82.999998
 11
118.000002
 21
82.999998
  0
LINE
  8
8
  6
CONTINUOUS
 10
2.500000
 20
82.999998
 11
2.500000
 21
1.000000
  0
LINE
  8
2
  6
CONTINUOUS
 10
102.650002
 20
17.625000
 11
102.650002
 21
18.125000
  0
LINE
  8
1
  6
CONTINUOUS
 10
101.700002
 20
18.200000
 11
118.000002
 21
18.200000
  0
LINE
  8
1
  6
CONTINUOUS
 10
101.700002
 20
17.700000
 11
118.000002
 21
17.700000
  0
LINE
  8
1
  6
CONTINUOUS
 10
102.200002
 20
17.700000
 11
118.000002
 21
17.700000
  0
LINE
  8
2
  6
CONTINUOUS
 10
102.650002
 20
17.125000
 11
102.650002
 21
17.625000
  0
LINE
  8
1
  6
CONTINUOUS
 10
102.200002
 20
17.700000
 11
118.000002
 21
17.700000
  0
LINE
  8
1
  6
CONTINUOUS
 10
101.700002
 20
17.200000
 11
118.000002
 21
17.200000
  0
LINE
  8
2
  6
CONTINUOUS
 10
102.650002
 20
16.700000
 11
102.650002
 21
17.200000
  0
LINE
  8
1
  6
CONTINUOUS
 10
116.008223
 20
16.000000
 11
116.008223
 21
22.200000
  0
LINE
  8
1
  6
CONTINUOUS
 10
104.850002
 20
16.000000
 11
104.850002
 21
22.200000
  0
LINE
  8
6
  6
CONTINUOUS
 10
101.700002
 20
16.000000
 11
118.000002
 21
16.000000
  0
LINE
  8
1
  6
CONTINUOUS
 10
102.650002
 20
16.000000
 11
102.650002
 21
16.700000
  0
LINE
  8
1
  6
CONTINUOUS
 10
102.200002
 20
17.200000
 11
118.000002
 21
17.200000
  0
LINE
  8
1
  6
CONTINUOUS
 10
101.700002
 20
16.700000
 11
118.000002
 21
16.700000
  0
LINE
  8
2
  6
CONTINUOUS
 10
102.650002
 20
18.625000
 11
102.650002
 21
22.200000
  0
LINE
  8
6
  6
CONTINUOUS
 10
101.700002
 20
22.200000
 11
118.000002
 21
22.200000
  0
LINE
  8
1
  6
CONTINUOUS
 10
101.700002
 20
18.700000
 11
118.000002
 21
18.700000
  0
LINE
  8
1
  6
CONTINUOUS
 10
102.200002
 20
18.700000
 11
118.000002
 21
18.700000
  0
LINE
  8
2
  6
CONTINUOUS
 10
102.650002
 20
18.125000
 11
102.650002
 21
18.625000
  0
LINE
  8
1
  6
CONTINUOUS
 10
102.200002
 20
18.700000
 11
118.000002
 21
18.700000
  0
LINE
  8
1
  6
CONTINUOUS
 10
102.200002
 20
18.200000
 11
118.000002
 21
18.200000
  0
LINE
  8
1
  6
CONTINUOUS
 10
102.200002
 20
18.200000
 11
118.000002
 21
18.200000
  0
LINE
  8
6
  6
CONTINUOUS
 10
101.700002
 20
6.600000
 11
118.000002
 21
6.600000
  0
LINE
  8
6
  6
CONTINUOUS
 10
101.700002
 20
8.500000
 11
118.000002
 21
8.500000
  0
LINE
  8
6
  6
CONTINUOUS
 10
101.700002
 20
1.000000
 11
101.700002
 21
8.500000
  0
LINE
  8
6
  6
CONTINUOUS
 10
101.700002
 20
16.000000
 11
101.700002
 21
22.200000
  0
LINE
  8
6
  6
CONTINUOUS
 10
101.700002
 20
15.900000
 11
118.000002
 21
15.900000
  0
LINE
  8
6
  6
CONTINUOUS
 10
101.700002
 20
11.400000
 11
101.700002
 21
15.900000
  0
LINE
  8
1
  6
CONTINUOUS
 10
101.700002
 20
14.400000
 11
118.000002
 21
14.400000
  0
LINE
  8
6
  6
CONTINUOUS
 10
101.700002
 20
3.000000
 11
118.000002
 21
3.000000
  0
LINE
  8
6
  6
CONTINUOUS
 10
105.024321
 20
3.000000
 11
105.024321
 21
1.000000
  0
LINE
  8
1
  6
CONTINUOUS
 10
101.700002
 20
12.900000
 11
118.000002
 21
12.900000
  0
POLYLINE
  8
1
  6
CONTINUOUS
 66
     1
  0
VERTEX
  8
1
  6
CONTINUOUS
 10
103.635546
 20
9.498246
  0
VERTEX
  8
1
  6
CONTINUOUS
 10
101.971546
 20
9.498246
  0
VERTEX
  8
1
  6
CONTINUOUS
 10
101.971546
 20
11.162246
  0
VERTEX
  8
1
  6
CONTINUOUS
 10
103.635546
 20
11.162246
  0
VERTEX
  8
1
  6
CONTINUOUS
 10
103.635546
 20
9.498246
  0
SEQEND
  8
1
  6
CONTINUOUS
  0
POLYLINE
  8
13
  6
CONTINUOUS
 66
     1
  0
VERTEX
  8
13
  6
CONTINUOUS
 10
102.095046
 20
10.244446
  0
VERTEX
  8
13
  6
CONTINUOUS
 10
102.095046
 20
9.498246
  0
VERTEX
  8
13
  6
CONTINUOUS
 10
101.971546
 20
9.498246
  0
VERTEX
  8
13
  6
CONTINUOUS
 10
101.971546
 20
11.162246
  0
VERTEX
  8
13
  6
CONTINUOUS
 10
102.095046
 20
11.162246
  0
VERTEX
  8
13
  6
CONTINUOUS
 10
102.095046
 20
10.244446
  0
SEQEND
  8
13
  6
CONTINUOUS
  0
POLYLINE
  8
13
  6
CONTINUOUS
 66
     1
  0
VERTEX
  8
13
  6
CONTINUOUS
 10
102.522746
 20
10.230979
  0
VERTEX
  8
13
  6
CONTINUOUS
 10
102.522746
 20
9.498246
  0
VERTEX
  8
13
  6
CONTINUOUS
 10
102.095046
 20
9.498246
  0
VERTEX
  8
13
  6
CONTINUOUS
 10
102.095046
 20
10.244446
  0
VERTEX
  8
13
  6
CONTINUOUS
 10
102.143544
 20
10.248642
  0
VERTEX
  8
13
  6
CONTINUOUS
 10
102.211078
 20
10.252071
  0
VERTEX
  8
13
  6
CONTINUOUS
 10
102.259959
 20
10.252484
  0
VERTEX
  8
13
  6
CONTINUOUS
 10
102.290321
 20
10.252141
  0
VERTEX
  8
13
  6
CONTINUOUS
 10
102.334203
 20
10.250668
  0
VERTEX
  8
13
  6
CONTINUOUS
 10
102.394518
 20
10.246747
  0
VERTEX
  8
13
  6
CONTINUOUS
 10
102.446340
 20
10.241621
  0
VERTEX
  8
13
  6
CONTINUOUS
 10
102.490083
 20
10.235974
  0
VERTEX
  8
13
  6
CONTINUOUS
 10
102.522746
 20
10.230979
  0
SEQEND
  8
13
  6
CONTINUOUS
  0
POLYLINE
  8
13
  6
CONTINUOUS
 66
     1
  0
VERTEX
  8
13
  6
CONTINUOUS
 10
102.594246
 20
10.217654
  0
VERTEX
  8
13
  6
CONTINUOUS
 10
102.594246
 20
9.498246
  0
VERTEX
  8
13
  6
CONTINUOUS
 10
103.021946
 20
9.498246
  0
VERTEX
  8
13
  6
CONTINUOUS
 10
103.021946
 20
10.064184
  0
VERTEX
  8
13
  6
CONTINUOUS
 10
103.003898
 20
10.073542
  0
VERTEX
  8
13
  6
CONTINUOUS
 10
102.981716
 20
10.084501
  0
VERTEX
  8
13
  6
CONTINUOUS
 10
102.953307
 20
10.098271
  0
VERTEX
  8
13
  6
CONTINUOUS
 10
102.912865
 20
10.116383
  0
VERTEX
  8
13
  6
CONTINUOUS
 10
102.885024
 20
10.128001
  0
VERTEX
  8
13
  6
CONTINUOUS
 10
102.844071
 20
10.144755
  0
VERTEX
  8
13
  6
CONTINUOUS
 10
102.813490
 20
10.155923
  0
VERTEX
  8
13
  6
CONTINUOUS
 10
102.778388
 20
10.168156
  0
VERTEX
  8
13
  6
CONTINUOUS
 10
102.744083
 20
10.178793
  0
VERTEX
  8
13
  6
CONTINUOUS
 10
102.703465
 20
10.191172
  0
VERTEX
  8
13
  6
CONTINUOUS
 10
102.665141
 20
10.201162
  0
VERTEX
  8
13
  6
CONTINUOUS
 10
102.624819
 20
10.210970
  0
VERTEX
  8
13
  6
CONTINUOUS
 10
102.594246
 20
10.217654
  0
SEQEND
  8
13
  6
CONTINUOUS
  0
POLYLINE
  8
13
  6
CONTINUOUS
 66
     1
  0
VERTEX
  8
13
  6
CONTINUOUS
 10
103.093446
 20
10.024343
  0
VERTEX
  8
13
  6
CONTINUOUS
 10
103.093446
 20
9.498246
  0
VERTEX
  8
13
  6
CONTINUOUS
 10
103.521146
 20
9.498246
  0
VERTEX
  8
13
  6
CONTINUOUS
 10
103.521146
 20
9.661030
  0
VERTEX
  8
13
  6
CONTINUOUS
 10
103.507797
 20
9.676793
  0
VERTEX
  8
13
  6
CONTINUOUS
 10
103.495964
 20
9.690528
  0
VERTEX
  8
13
  6
CONTINUOUS
 10
103.473877
 20
9.715277
  0
VERTEX
  8
13
  6
CONTINUOUS
 10
103.454164
 20
9.736530
  0
VERTEX
  8
13
  6
CONTINUOUS
 10
103.434048
 20
9.757502
  0
VERTEX
  8
13
  6
CONTINUOUS
 10
103.410015
 20
9.781535
  0
VERTEX
  8
13
  6
CONTINUOUS
 10
103.399294
 20
9.791943
  0
VERTEX
  8
13
  6
CONTINUOUS
 10
103.388429
 20
9.802406
  0
VERTEX
  8
13
  6
CONTINUOUS
 10
103.359952
 20
9.828752
  0
VERTEX
  8
13
  6
CONTINUOUS
 10
103.325139
 20
9.859181
  0
VERTEX
  8
13
  6
CONTINUOUS
 10
103.286846
 20
9.890826
  0
VERTEX
  8
13
  6
CONTINUOUS
 10
103.251036
 20
9.918745
  0
VERTEX
  8
13
  6
CONTINUOUS
 10
103.200839
 20
9.955427
  0
VERTEX
  8
13
  6
CONTINUOUS
 10
103.134352
 20
9.999676
  0
VERTEX
  8
13
  6
CONTINUOUS
 10
103.093446
 20
10.024343
  0
SEQEND
  8
13
  6
CONTINUOUS
  0
POLYLINE
  8
13
  6
CONTINUOUS
 66
     1
  0
VERTEX
  8
13
  6
CONTINUOUS
 10
102.522746
 20
10.635283
  0
VERTEX
  8
13
  6
CONTINUOUS
 10
102.522746
 20
11.162246
  0
VERTEX
  8
13
  6
CONTINUOUS
 10
102.095046
 20
11.162246
  0
VERTEX
  8
13
  6
CONTINUOUS
 10
102.095046
 20
10.995122
  0
VERTEX
  8
13
  6
CONTINUOUS
 10
102.153689
 20
10.929235
  0
VERTEX
  8
13
  6
CONTINUOUS
 10
102.237359
 20
10.846559
  0
VERTEX
  8
13
  6
CONTINUOUS
 10
102.308389
 20
10.784730
  0
VERTEX
  8
13
  6
CONTINUOUS
 10
102.366624
 20
10.739274
  0
VERTEX
  8
13
  6
CONTINUOUS
 10
102.406322
 20
10.710064
  0
VERTEX
  8
13
  6
CONTINUOUS
 10
102.455827
 20
10.676682
  0
VERTEX
  8
13
  6
CONTINUOUS
 10
102.493954
 20
10.652515
  0
VERTEX
  8
13
  6
CONTINUOUS
 10
102.522746
 20
10.635283
  0
SEQEND
  8
13
  6
CONTINUOUS
  0
POLYLINE
  8
13
  6
CONTINUOUS
 66
     1
  0
VERTEX
  8
13
  6
CONTINUOUS
 10
103.021946
 20
10.443678
  0
VERTEX
  8
13
  6
CONTINUOUS
 10
103.021946
 20
11.162246
  0
VERTEX
  8
13
  6
CONTINUOUS
 10
102.594246
 20
11.162246
  0
VERTEX
  8
13
  6
CONTINUOUS
 10
102.594246
 20
10.595859
  0
VERTEX
  8
13
  6
CONTINUOUS
 10
102.663800
 20
10.561766
  0
VERTEX
  8
13
  6
CONTINUOUS
 10
102.744359
 20
10.527375
  0
VERTEX
  8
13
  6
CONTINUOUS
 10
102.812197
 20
10.501464
  0
VERTEX
  8
13
  6
CONTINUOUS
 10
102.889458
 20
10.476967
  0
VERTEX
  8
13
  6
CONTINUOUS
 10
102.950702
 20
10.460007
  0
VERTEX
  8
13
  6
CONTINUOUS
 10
103.021946
 20
10.443678
  0
SEQEND
  8
13
  6
CONTINUOUS
  0
POLYLINE
  8
13
  6
CONTINUOUS
 66
     1
  0
VERTEX
  8
13
  6
CONTINUOUS
 10
103.093446
 20
10.430307
  0
VERTEX
  8
13
  6
CONTINUOUS
 10
103.093446
 20
11.162246
  0
VERTEX
  8
13
  6
CONTINUOUS
 10
103.521146
 20
11.162246
  0
VERTEX
  8
13
  6
CONTINUOUS
 10
103.521146
 20
10.417580
  0
VERTEX
  8
13
  6
CONTINUOUS
 10
103.476372
 20
10.413637
  0
VERTEX
  8
13
  6
CONTINUOUS
 10
103.416577
 20
10.410480
  0
VERTEX
  8
13
  6
CONTINUOUS
 10
103.366788
 20
10.409453
  0
VERTEX
  8
13
  6
CONTINUOUS
 10
103.336830
 20
10.409453
  0
VERTEX
  8
13
  6
CONTINUOUS
 10
103.286182
 20
10.410821
  0
VERTEX
  8
13
  6
CONTINUOUS
 10
103.241261
 20
10.413321
  0
VERTEX
  8
13
  6
CONTINUOUS
 10
103.205545
 20
10.416539
  0
VERTEX
  8
13
  6
CONTINUOUS
 10
103.155349
 20
10.421044
  0
VERTEX
  8
13
  6
CONTINUOUS
 10
103.093446
 20
10.430307
  0
SEQEND
  8
13
  6
CONTINUOUS
  0
POLYLINE
  8
13
  6
CONTINUOUS
 66
     1
  0
VERTEX
  8
13
  6
CONTINUOUS
 10
102.522746
 20
9.498246
  0
VERTEX
  8
13
  6
CONTINUOUS
 10
102.594246
 20
9.498246
  0
VERTEX
  8
13
  6
CONTINUOUS
 10
102.594246
 20
11.162246
  0
VERTEX
  8
13
  6
CONTINUOUS
 10
102.522746
 20
11.162246
  0
VERTEX
  8
13
  6
CONTINUOUS
 10
102.522746
 20
9.498246
  0
VERTEX
  8
13
  6
CONTINUOUS
 10
102.594246
 20
9.498246
  0
SEQEND
  8
13
  6
CONTINUOUS
  0
POLYLINE
  8
13
  6
CONTINUOUS
 66
     1
  0
VERTEX
  8
13
  6
CONTINUOUS
 10
103.021946
 20
11.162246
  0
VERTEX
  8
13
  6
CONTINUOUS
 10
103.093446
 20
11.162246
  0
VERTEX
  8
13
  6
CONTINUOUS
 10
103.093446
 20
9.498246
  0
VERTEX
  8
13
  6
CONTINUOUS
 10
103.021946
 20
9.498246
  0
VERTEX
  8
13
  6
CONTINUOUS
 10
103.021946
 20
11.162246
  0
SEQEND
  8
13
  6
CONTINUOUS
  0
POLYLINE
  8
13
  6
CONTINUOUS
 66
     1
  0
VERTEX
  8
13
  6
CONTINUOUS
 10
103.521146
 20
9.498246
  0
VERTEX
  8
13
  6
CONTINUOUS
 10
103.635546
 20
9.498246
  0
VERTEX
  8
13
  6
CONTINUOUS
 10
103.635546
 20
11.162246
  0
VERTEX
  8
13
  6
CONTINUOUS
 10
103.521146
 20
11.162246
  0
VERTEX
  8
13
  6
CONTINUOUS
 10
103.521146
 20
9.498246
  0
SEQEND
  8
13
  6
CONTINUOUS
  0
LINE
  8
6
  6
CONTINUOUS
 10
107.924321
 20
3.000000
 11
107.924321
 21
2.000000
  0
LINE
  8
6
  6
CONTINUOUS
 10
101.700002
 20
2.000000
 11
114.124321
 21
2.000000
  0
LINE
  8
6
  6
CONTINUOUS
 10
114.124321
 20
3.000000
 11
114.124321
 21
1.000000
  0
LINE
  8
6
  6
CONTINUOUS
 10
101.700002
 20
8.600000
 11
118.000002
 21
8.600000
  0
LINE
  8
6
  6
CONTINUOUS
 10
101.700002
 20
8.600000
 11
101.700002
 21
11.300000
  0
LINE
  8
6
  6
CONTINUOUS
 10
101.700002
 20
11.300000
 11
118.000002
 21
11.300000
  0
LINE
  8
6
  6
CONTINUOUS
 10
101.700002
 20
11.400000
 11
118.000002
 21
11.400000
  0
LINE
  8
1
  6
CONTINUOUS
 10
101.700002
 20
19.200000
 11
118.000002
 21
19.200000
  0
LINE
  8
1
  6
CONTINUOUS
 10
102.200002
 20
19.200000
 11
118.000002
 21
19.200000
  0
LINE
  8
1
  6
CONTINUOUS
 10
102.200002
 20
19.200000
 11
118.000002
 21
19.200000
  0
LINE
  8
1
  6
CONTINUOUS
 10
101.700002
 20
19.700000
 11
118.000002
 21
19.700000
  0
LINE
  8
1
  6
CONTINUOUS
 10
102.200002
 20
19.700000
 11
118.000002
 21
19.700000
  0
LINE
  8
1
  6
CONTINUOUS
 10
102.200002
 20
19.700000
 11
118.000002
 21
19.700000
  0
LINE
  8
1
  6
CONTINUOUS
 10
101.700002
 20
20.200000
 11
118.000002
 21
20.200000
  0
LINE
  8
1
  6
CONTINUOUS
 10
102.200002
 20
20.200000
 11
118.000002
 21
20.200000
  0
LINE
  8
1
  6
CONTINUOUS
 10
102.200002
 20
20.200000
 11
118.000002
 21
20.200000
  0
LINE
  8
1
  6
CONTINUOUS
 10
101.700002
 20
20.700000
 11
118.000002
 21
20.700000
  0
LINE
  8
1
  6
CONTINUOUS
 10
102.200002
 20
20.700000
 11
118.000002
 21
20.700000
  0
LINE
  8
1
  6
CONTINUOUS
 10
102.200002
 20
20.700000
 11
118.000002
 21
20.700000
  0
LINE
  8
1
  6
CONTINUOUS
 10
101.700002
 20
21.200000
 11
118.000002
 21
21.200000
  0
LINE
  8
1
  6
CONTINUOUS
 10
102.200002
 20
21.200000
 11
118.000002
 21
21.200000
  0
LINE
  8
1
  6
CONTINUOUS
 10
102.200002
 20
21.200000
 11
118.000002
 21
21.200000
  0
LINE
  8
1
  6
CONTINUOUS
 10
101.700002
 20
21.700000
 11
118.000002
 21
21.700000
  0
LINE
  8
6
  6
CONTINUOUS
 10
110.708935
 20
11.300000
 11
110.708935
 21
8.600000
  0
TEXT
  8
1
  6
CONTINUOUS
 10
14.318162
 20
69.632860
 40
0.220000
  1
CABO
  7
TQS_CALIBRI
  0
TEXT
  8
1
  6
CONTINUOUS
 10
21.382643
 20
69.922860
 40
0.220000
  1
COMPRIMENTO
  7
TQS_CALIBRI
  0
TEXT
  8
1
  6
CONTINUOUS
 10
24.376949
 20
69.422860
 40
0.220000
  1
TOTAL
  7
TQS_CALIBRI
  0
TEXT
  8
1
  6
CONTINUOUS
 10
27.207303
 20
69.422860
 40
0.220000
  1
A
  7
TQS_CALIBRI
  0
TEXT
  8
1
  6
CONTINUOUS
 10
28.252119
 20
69.422860
 40
0.220000
  1
P
  7
TQS_CALIBRI
  0
TEXT
  8
1
  6
CONTINUOUS
 10
29.296935
 20
69.422860
 40
0.220000
  1
I
  7
TQS_CALIBRI
  0
TEXT
  8
1
  6
CONTINUOUS
 10
27.224616
 20
69.922860
 40
0.220000
  1
ANCORAGENS
  7
TQS_CALIBRI
  0
TEXT
  8
1
  6
CONTINUOUS
 10
18.777123
 20
69.632860
 40
0.220000
  1
Q
  7
TQS_CALIBRI
  0
TEXT
  8
1
  6
CONTINUOUS
 10
15.476784
 20
70.582860
 40
0.400000
  1
PROTENSÃO: AÇO
  7
TQS_CALIBRI
  0
TEXT
  8
1
  6
CONTINUOUS
 10
20.795513
 20
69.422860
 40
0.220000
  1
UNITÁRIO
  7
TQS_CALIBRI
  0
TEXT
  8
1
  6
CONTINUOUS
 10
30.251998
 20
69.422860
 40
0.220000
  1
INI
  7
TQS_CALIBRI
  0
TEXT
  8
1
  6
CONTINUOUS
 10
31.819222
 20
69.422860
 40
0.220000
  1
FIN
  7
TQS_CALIBRI
  0
TEXT
  8
1
  6
CONTINUOUS
 10
16.706374
 20
69.635079
 40
0.220000
  1
%%c
  7
TQS_CALIBRI
  0
TEXT
  8
1
  6
CONTINUOUS
 10
30.345764
 20
69.922860
 40
0.220000
  1
ALONG
  7
TQS_CALIBRI
  0
TEXT
  8
1
  6
CONTINUOUS
 10
21.805014
 20
70.582860
 40
0.400000
  1
CP190 RB 12.7 - 12.7
  7
TQS_CALIBRI
  0
TEXT
  8
1
  6
CONTINUOUS
 10
16.991522
 20
69.635079
 40
0.220000
  1
(mm)
  7
TQS_CALIBRI
  0
TEXT
  8
1
  6
CONTINUOUS
 10
24.042719
 20
69.922860
 40
0.220000
  1
(m)
  7
TQS_CALIBRI
  0
TEXT
  8
1
  6
CONTINUOUS
 10
31.533260
 20
69.922860
 40
0.220000
  1
(mm)
  7
TQS_CALIBRI
  0
TEXT
  8
1
  6
CONTINUOUS
 10
13.963584
 20
68.922860
 40
0.220000
  1
C16 A C17
  7
TQS_CALIBRI
  0
TEXT
  8
1
  6
CONTINUOUS
 10
16.317065
 20
68.922860
 40
0.220000
  1
3 %%c 12.7
  7
TQS_CALIBRI
  0
TEXT
  8
1
  6
CONTINUOUS
 10
18.531462
 20
68.922860
 40
0.220000
  1
2
  7
TQS_CALIBRI
  0
TEXT
  8
1
  6
CONTINUOUS
 10
20.768045
 20
68.922860
 40
0.220000
  1
9.8
  7
TQS_CALIBRI
  0
TEXT
  8
1
  6
CONTINUOUS
 10
24.044878
 20
68.922860
 40
0.220000
  1
58.8
  7
TQS_CALIBRI
  0
TEXT
  8
1
  6
CONTINUOUS
 10
27.022850
 20
68.922860
 40
0.220000
  1
6
  7
TQS_CALIBRI
  0
TEXT
  8
1
  6
CONTINUOUS
 10
28.067666
 20
68.922860
 40
0.220000
  1
6
  7
TQS_CALIBRI
  0
TEXT
  8
1
  6
CONTINUOUS
 10
30.104489
 20
68.922860
 40
0.220000
  1
0
  7
TQS_CALIBRI
  0
TEXT
  8
1
  6
CONTINUOUS
 10
31.671713
 20
68.922860
 40
0.220000
  1
62
  7
TQS_CALIBRI
  0
TEXT
  8
1
  6
CONTINUOUS
 10
13.963584
 20
68.422859
 40
0.220000
  1
C18 A C20
  7
TQS_CALIBRI
  0
TEXT
  8
1
  6
CONTINUOUS
 10
16.317065
 20
68.422859
 40
0.220000
  1
4 %%c 12.7
  7
TQS_CALIBRI
  0
TEXT
  8
1
  6
CONTINUOUS
 10
18.531462
 20
68.422859
 40
0.220000
  1
3
  7
TQS_CALIBRI
  0
TEXT
  8
1
  6
CONTINUOUS
 10
20.768045
 20
68.422859
 40
0.220000
  1
12.2
  7
TQS_CALIBRI
  0
TEXT
  8
1
  6
CONTINUOUS
 10
24.044878
 20
68.422859
 40
0.220000
  1
146.5
  7
TQS_CALIBRI
  0
TEXT
  8
1
  6
CONTINUOUS
 10
27.022850
 20
68.422859
 40
0.220000
  1
12
  7
TQS_CALIBRI
  0
TEXT
  8
1
  6
CONTINUOUS
 10
28.067666
 20
68.422859
 40
0.220000
  1
12
  7
TQS_CALIBRI
  0
TEXT
  8
1
  6
CONTINUOUS
 10
30.104489
 20
68.422859
 40
0.220000
  1
0
  7
TQS_CALIBRI
  0
TEXT
  8
1
  6
CONTINUOUS
 10
31.671713
 20
68.422859
 40
0.220000
  1
79
  7
TQS_CALIBRI
  0
TEXT
  8
1
  6
CONTINUOUS
 10
13.963584
 20
67.922858
 40
0.220000
  1
C21 A C23
  7
TQS_CALIBRI
  0
TEXT
  8
1
  6
CONTINUOUS
 10
16.317065
 20
67.922858
 40
0.220000
  1
   "
  7
TQS_CALIBRI
  0
TEXT
  8
1
  6
CONTINUOUS
 10
18.531462
 20
67.922858
 40
0.220000
  1
3
  7
TQS_CALIBRI
  0
TEXT
  8
1
  6
CONTINUOUS
 10
20.768045
 20
67.922858
 40
0.220000
  1
12.1
  7
TQS_CALIBRI
  0
TEXT
  8
1
  6
CONTINUOUS
 10
24.044878
 20
67.922858
 40
0.220000
  1
145.7
  7
TQS_CALIBRI
  0
TEXT
  8
1
  6
CONTINUOUS
 10
27.022850
 20
67.922858
 40
0.220000
  1
12
  7
TQS_CALIBRI
  0
TEXT
  8
1
  6
CONTINUOUS
 10
28.067666
 20
67.922858
 40
0.220000
  1
12
  7
TQS_CALIBRI
  0
TEXT
  8
1
  6
CONTINUOUS
 10
30.104489
 20
67.922858
 40
0.220000
  1
0
  7
TQS_CALIBRI
  0
TEXT
  8
1
  6
CONTINUOUS
 10
31.671713
 20
67.922858
 40
0.220000
  1
78
  7
TQS_CALIBRI
  0
TEXT
  8
1
  6
CONTINUOUS
 10
13.963584
 20
67.422857
 40
0.220000
  1
C24 A C26
  7
TQS_CALIBRI
  0
TEXT
  8
1
  6
CONTINUOUS
 10
16.317065
 20
67.422857
 40
0.220000
  1
   "
  7
TQS_CALIBRI
  0
TEXT
  8
1
  6
CONTINUOUS
 10
18.531462
 20
67.422857
 40
0.220000
  1
3
  7
TQS_CALIBRI
  0
TEXT
  8
1
  6
CONTINUOUS
 10
20.768045
 20
67.422857
 40
0.220000
  1
12.1
  7
TQS_CALIBRI
  0
TEXT
  8
1
  6
CONTINUOUS
 10
24.044878
 20
67.422857
 40
0.220000
  1
145.7
  7
TQS_CALIBRI
  0
TEXT
  8
1
  6
CONTINUOUS
 10
27.022850
 20
67.422857
 40
0.220000
  1
12
  7
TQS_CALIBRI
  0
TEXT
  8
1
  6
CONTINUOUS
 10
28.067666
 20
67.422857
 40
0.220000
  1
12
  7
TQS_CALIBRI
  0
TEXT
  8
1
  6
CONTINUOUS
 10
30.104489
 20
67.422857
 40
0.220000
  1
0
  7
TQS_CALIBRI
  0
TEXT
  8
1
  6
CONTINUOUS
 10
31.671713
 20
67.422857
 40
0.220000
  1
77
  7
TQS_CALIBRI
  0
TEXT
  8
1
  6
CONTINUOUS
 10
13.963584
 20
66.922857
 40
0.220000
  1
C27 A C28
  7
TQS_CALIBRI
  0
TEXT
  8
1
  6
CONTINUOUS
 10
16.317065
 20
66.922857
 40
0.220000
  1
   "
  7
TQS_CALIBRI
  0
TEXT
  8
1
  6
CONTINUOUS
 10
18.531462
 20
66.922857
 40
0.220000
  1
2
  7
TQS_CALIBRI
  0
TEXT
  8
1
  6
CONTINUOUS
 10
20.768045
 20
66.922857
 40
0.220000
  1
15.2
  7
TQS_CALIBRI
  0
TEXT
  8
1
  6
CONTINUOUS
 10
24.044878
 20
66.922857
 40
0.220000
  1
122
  7
TQS_CALIBRI
  0
TEXT
  8
1
  6
CONTINUOUS
 10
27.022850
 20
66.922857
 40
0.220000
  1
8
  7
TQS_CALIBRI
  0
TEXT
  8
1
  6
CONTINUOUS
 10
28.067666
 20
66.922857
 40
0.220000
  1
8
  7
TQS_CALIBRI
  0
TEXT
  8
1
  6
CONTINUOUS
 10
30.104489
 20
66.922857
 40
0.220000
  1
0
  7
TQS_CALIBRI
  0
TEXT
  8
1
  6
CONTINUOUS
 10
31.671713
 20
66.922857
 40
0.220000
  1
101
  7
TQS_CALIBRI
  0
TEXT
  8
1
  6
CONTINUOUS
 10
14.449725
 20
63.922856
 40
0.220000
  1
%%c
  7
TQS_CALIBRI
  0
TEXT
  8
1
  6
CONTINUOUS
 10
18.023263
 20
64.422856
 40
0.220000
  1
CABO
  7
TQS_CALIBRI
  0
TEXT
  8
1
  6
CONTINUOUS
 10
24.207823
 20
63.672857
 40
0.220000
  1
A
  7
TQS_CALIBRI
  0
TEXT
  8
1
  6
CONTINUOUS
 10
25.252638
 20
63.672857
 40
0.220000
  1
P
  7
TQS_CALIBRI
  0
TEXT
  8
1
  6
CONTINUOUS
 10
26.297455
 20
63.672857
 40
0.220000
  1
I
  7
TQS_CALIBRI
  0
TEXT
  8
1
  6
CONTINUOUS
 10
20.519022
 20
63.922856
 40
0.220000
  1
PESO
  7
TQS_CALIBRI
  0
TEXT
  8
1
  6
CONTINUOUS
 10
24.278002
 20
64.422856
 40
0.220000
  1
ANCORAGENS
  7
TQS_CALIBRI
  0
TEXT
  8
1
  6
CONTINUOUS
 10
16.356782
 20
65.506189
 40
0.400000
  1
RESUMO DE PROTENSÃO
  7
TQS_CALIBRI
  0
TEXT
  8
1
  6
CONTINUOUS
 10
15.894919
 20
64.943489
 40
0.300000
  1
Monocordoalhas não aderentes
  7
TQS_CALIBRI
  0
TEXT
  8
1
  6
CONTINUOUS
 10
16.286020
 20
63.922856
 40
0.220000
  1
COMPR
  7
TQS_CALIBRI
  0
TEXT
  8
1
  6
CONTINUOUS
 10
18.135808
 20
63.422857
 40
0.220000
  1
kgf/m
  7
TQS_CALIBRI
  0
TEXT
  8
1
  6
CONTINUOUS
 10
20.287585
 20
63.422857
 40
0.220000
  1
kgf
  7
TQS_CALIBRI
  0
TEXT
  8
1
  6
CONTINUOUS
 10
22.101977
 20
63.422857
 40
0.220000
  1
kgf+4%
  7
TQS_CALIBRI
  0
TEXT
  8
1
  6
CONTINUOUS
 10
16.290566
 20
63.422857
 40
0.220000
  1
m
  7
TQS_CALIBRI
  0
TEXT
  8
1
  6
CONTINUOUS
 10
14.428105
 20
63.422857
 40
0.220000
  1
mm
  7
TQS_CALIBRI
  0
TEXT
  8
1
  6
CONTINUOUS
 10
16.015882
 20
62.922856
 40
0.220000
  1
59
  7
TQS_CALIBRI
  0
TEXT
  8
1
  6
CONTINUOUS
 10
25.061479
 20
62.922856
 40
0.220000
  1
6
  7
TQS_CALIBRI
  0
TEXT
  8
1
  6
CONTINUOUS
 10
24.016662
 20
62.922856
 40
0.220000
  1
6
  7
TQS_CALIBRI
  0
TEXT
  8
1
  6
CONTINUOUS
 10
18.135808
 20
62.922856
 40
0.220000
  1
0.886
  7
TQS_CALIBRI
  0
TEXT
  8
1
  6
CONTINUOUS
 10
19.725137
 20
62.922856
 40
0.220000
  1
52
  7
TQS_CALIBRI
  0
TEXT
  8
1
  6
CONTINUOUS
 10
21.785135
 20
62.922856
 40
0.220000
  1
54
  7
TQS_CALIBRI
  0
TEXT
  8
1
  6
CONTINUOUS
 10
13.827949
 20
62.922856
 40
0.220000
  1
3 %%c 12.7
  7
TQS_CALIBRI
  0
TEXT
  8
1
  6
CONTINUOUS
 10
16.015882
 20
62.422855
 40
0.220000
  1
560
  7
TQS_CALIBRI
  0
TEXT
  8
1
  6
CONTINUOUS
 10
25.061479
 20
62.422855
 40
0.220000
  1
44
  7
TQS_CALIBRI
  0
TEXT
  8
1
  6
CONTINUOUS
 10
24.016662
 20
62.422855
 40
0.220000
  1
44
  7
TQS_CALIBRI
  0
TEXT
  8
1
  6
CONTINUOUS
 10
18.135808
 20
62.422855
 40
0.220000
  1
0.886
  7
TQS_CALIBRI
  0
TEXT
  8
1
  6
CONTINUOUS
 10
19.725137
 20
62.422855
 40
0.220000
  1
496
  7
TQS_CALIBRI
  0
TEXT
  8
1
  6
CONTINUOUS
 10
21.785135
 20
62.422855
 40
0.220000
  1
516
  7
TQS_CALIBRI
  0
TEXT
  8
1
  6
CONTINUOUS
 10
13.827949
 20
62.422855
 40
0.220000
  1
4 %%c 12.7
  7
TQS_CALIBRI
  0
TEXT
  8
1
  6
CONTINUOUS
 10
101.932386
 20
23.396411
 40
0.350000
  1
NOTAS:
  7
TQS_CALIBRI
  0
TEXT
  8
2
  6
CONTINUOUS
 10
101.965840
 20
22.812661
 40
0.240000
  1
1) CONFERIR INFORMAÇÕES DA TABELA ACIMA (TABELA DE FERRERAGEM) NA OBRA
  7
TQS_CALIBRI
  0
TEXT
  8
2
  6
CONTINUOUS
 10
101.965840
 20
22.343353
 40
0.240000
  1
ANTES DA COMPRA DAS ARMADURAS.
  7
TQS_CALIBRI
  0
TEXT
  8
1
  6
CONTINUOUS
 10
45.307844
 20
20.629850
 40
0.300000
  1
L5
  7
TQS_CALIBRI
  0
TEXT
  8
1
  6
CONTINUOUS
 10
66.286661
 20
71.750433
 40
0.300000
  1
L1
  7
TQS_CALIBRI
  0
TEXT
  8
1
  6
CONTINUOUS
 10
68.563288
 20
42.518922
 40
0.300000
  1
L4
  7
TQS_CALIBRI
  0
TEXT
  8
1
  6
CONTINUOUS
 10
66.834395
 20
52.004994
 40
0.300000
  1
L3
  7
TQS_CALIBRI
  0
TEXT
  8
1
  6
CONTINUOUS
 10
64.100987
 20
57.268257
 40
0.300000
  1
L2
  7
TQS_CALIBRI
  0
TEXT
  8
1
  6
CONTINUOUS
 10
79.704286
 20
23.599199
 40
0.300000
  1
L6
  7
TQS_CALIBRI
  0
TEXT
  8
1
  6
CONTINUOUS
 10
62.526596
 20
47.652565
 40
0.300000
  1
P187
  7
TQS_CALIBRI
  0
TEXT
  8
1
  6
CONTINUOUS
 10
21.094982
 20
13.470117
 40
0.300000
  1
P515
  7
TQS_CALIBRI
  0
TEXT
  8
1
  6
CONTINUOUS
 10
46.389240
 20
13.470117
 40
0.300000
  1
P517
  7
TQS_CALIBRI
  0
TEXT
  8
1
  6
CONTINUOUS
 10
59.689240
 20
16.170117
 40
0.300000
  1
P514
  7
TQS_CALIBRI
  0
TEXT
  8
1
  6
CONTINUOUS
 10
46.389240
 20
25.350117
 40
0.300000
  1
P508
  7
TQS_CALIBRI
  0
TEXT
  8
1
  6
CONTINUOUS
 10
59.689240
 20
25.350117
 40
0.300000
  1
P509
  7
TQS_CALIBRI
  0
TEXT
  8
1
  6
CONTINUOUS
 10
46.389240
 20
31.955283
 40
0.300000
  1
P503
  7
TQS_CALIBRI
  0
TEXT
  8
1
  6
CONTINUOUS
 10
62.526600
 20
38.162570
 40
0.300000
  1
P405
  7
TQS_CALIBRI
  0
TEXT
  8
1
  6
CONTINUOUS
 10
59.689240
 20
8.770117
 40
0.300000
  1
P518
  7
TQS_CALIBRI
  0
TEXT
  8
1
  6
CONTINUOUS
 10
82.615530
 20
18.470117
 40
0.300000
  1
P513
  7
TQS_CALIBRI
  0
TEXT
  8
1
  6
CONTINUOUS
 10
82.615530
 20
28.362570
 40
0.300000
  1
P507
  7
TQS_CALIBRI
  0
TEXT
  8
1
  6
CONTINUOUS
 10
82.615530
 20
38.162570
 40
0.300000
  1
P506
  7
TQS_CALIBRI
  0
TEXT
  8
1
  6
CONTINUOUS
 10
82.615530
 20
8.770117
 40
0.300000
  1
P520
  7
TQS_CALIBRI
  0
TEXT
  8
1
  6
CONTINUOUS
 10
62.526596
 20
69.292432
 40
0.300000
  1
PC5
  7
TQS_CALIBRI
  0
TEXT
  8
1
  6
CONTINUOUS
 10
71.229713
 20
69.292432
 40
0.300000
  1
PC6
  7
TQS_CALIBRI
  0
TEXT
  8
1
  6
CONTINUOUS
 10
70.416600
 20
47.652560
 40
0.300000
  1
P188
  7
TQS_CALIBRI
  0
TEXT
  8
1
  6
CONTINUOUS
 10
70.416600
 20
58.792560
 40
0.300000
  1
P183
  7
TQS_CALIBRI
  0
TEXT
  8
1
  6
CONTINUOUS
 10
66.826596
 20
59.192565
 40
0.300000
  1
PC8
  7
TQS_CALIBRI
  0
TEXT
  8
1
  6
CONTINUOUS
 10
66.826596
 20
54.992565
 40
0.300000
  1
PC9
  7
TQS_CALIBRI
  0
TEXT
  8
1
  6
CONTINUOUS
 10
70.416600
 20
53.222560
 40
0.300000
  1
P185
  7
TQS_CALIBRI
  0
TEXT
  8
1
  6
CONTINUOUS
 10
62.526596
 20
54.992560
 40
0.300000
  1
PC7
  7
TQS_CALIBRI
  0
TEXT
  8
1
  6
CONTINUOUS
 10
77.085551
 20
14.073868
 40
0.300000
  1
P115C
  7
TQS_CALIBRI
  0
TEXT
  8
1
  6
CONTINUOUS
 10
78.125354
 20
26.359686
 40
0.300000
  1
P110C
  7
TQS_CALIBRI
  0
TEXT
  8
1
  6
CONTINUOUS
 10
21.094982
 20
31.955283
 40
0.300000
  1
P501
  7
TQS_CALIBRI
  0
TEXT
  8
1
  6
CONTINUOUS
 10
73.826595
 20
48.096755
 40
0.300000
  1
P311
  7
TQS_CALIBRI
  0
TEXT
  8
1
  6
CONTINUOUS
 10
72.065280
 20
57.235510
 40
0.300000
  1
P310
  7
TQS_CALIBRI
  0
TEXT
  8
1
  6
CONTINUOUS
 10
74.800145
 20
63.891599
 40
0.300000
  1
P308
  7
TQS_CALIBRI
  0
TEXT
  8
1
  6
CONTINUOUS
 10
74.226595
 20
38.162570
 40
0.300000
  1
P406
  7
TQS_CALIBRI
  0
TEXT
  8
1
  6
CONTINUOUS
 10
59.678857
 20
31.955283
 40
0.300000
  1
P504
  7
TQS_CALIBRI
  0
TEXT
  8
1
  6
CONTINUOUS
 10
70.426595
 20
31.955283
 40
0.300000
  1
P505
  7
TQS_CALIBRI
  0
TEXT
  8
1
  6
CONTINUOUS
 10
32.350793
 20
13.470117
 40
0.300000
  1
P516
  7
TQS_CALIBRI
  0
TEXT
  8
1
  6
CONTINUOUS
 10
33.694982
 20
31.955283
 40
0.300000
  1
P502
  7
TQS_CALIBRI
  0
TEXT
  8
1
  6
CONTINUOUS
 10
21.094982
 20
22.712700
 40
0.300000
  1
P510
  7
TQS_CALIBRI
  0
TEXT
  8
1
  6
CONTINUOUS
 10
33.737111
 20
22.712700
 40
0.300000
  1
P511
  7
TQS_CALIBRI
  0
TEXT
  8
1
  6
CONTINUOUS
 10
71.152365
 20
20.362700
 40
0.300000
  1
P512
  7
TQS_CALIBRI
  0
TEXT
  8
1
  6
CONTINUOUS
 10
71.152385
 20
8.770117
 40
0.300000
  1
P519
  7
TQS_CALIBRI
  0
TEXT
  8
4
  6
CONTINUOUS
 10
31.405793
 20
12.321190
 40
0.300000
 50
90.000000
  1
C18
  7
TQS_CALIBRI
  0
TEXT
  8
4
  6
CONTINUOUS
 10
31.925793
 20
12.295117
 40
0.300000
 50
90.000000
  1
C19
  7
TQS_CALIBRI
  0
TEXT
  8
4
  6
CONTINUOUS
 10
32.445793
 20
12.269044
 40
0.300000
 50
90.000000
  1
C20
  7
TQS_CALIBRI
  0
TEXT
  8
4
  6
CONTINUOUS
 10
45.444240
 20
20.937700
 40
0.300000
 50
90.000000
  1
C21
  7
TQS_CALIBRI
  0
TEXT
  8
4
  6
CONTINUOUS
 10
45.964240
 20
20.937700
 40
0.300000
 50
90.000000
  1
C22
  7
TQS_CALIBRI
  0
TEXT
  8
4
  6
CONTINUOUS
 10
46.484240
 20
20.937700
 40
0.300000
 50
90.000000
  1
C23
  7
TQS_CALIBRI
  0
TEXT
  8
4
  6
CONTINUOUS
 10
58.744240
 20
20.937700
 40
0.300000
 50
90.000000
  1
C24
  7
TQS_CALIBRI
  0
TEXT
  8
4
  6
CONTINUOUS
 10
59.264240
 20
20.937700
 40
0.300000
 50
90.000000
  1
C25
  7
TQS_CALIBRI
  0
TEXT
  8
4
  6
CONTINUOUS
 10
59.784240
 20
20.937700
 40
0.300000
 50
90.000000
  1
C26
  7
TQS_CALIBRI
  0
TEXT
  8
4
  6
CONTINUOUS
 10
70.327385
 20
15.744098
 40
0.300000
 50
90.000000
  1
C27
  7
TQS_CALIBRI
  0
TEXT
  8
4
  6
CONTINUOUS
 10
71.127385
 20
15.738719
 40
0.300000
 50
90.000000
  1
C28
  7
TQS_CALIBRI
  0
TEXT
  8
4
  6
CONTINUOUS
 10
21.269982
 20
23.287700
 40
0.300000
 50
90.000000
  1
C16
  7
TQS_CALIBRI
  0
TEXT
  8
4
  6
CONTINUOUS
 10
22.069982
 20
23.287700
 40
0.300000
 50
90.000000
  1
C17
  7
TQS_CALIBRI
  0
TEXT
  8
1
  6
CONTINUOUS
 10
102.073109
 20
8.835799
 40
0.455000
  1
ENGENHARIA
  7
TQS_CALIBRI
  0
TEXT
  8
1
  6
CONTINUOUS
 10
101.876737
 20
16.222571
 40
0.250000
  1
REV
  7
TQS_CALIBRI
  0
TEXT
  8
1
  6
CONTINUOUS
 10
103.356169
 20
16.222571
 40
0.250000
  1
DATA
  7
TQS_CALIBRI
  0
TEXT
  8
1
  6
CONTINUOUS
 10
105.030516
 20
16.222571
 40
0.250000
  1
ASSUNTO
  7
TQS_CALIBRI
  0
TEXT
  8
1
  6
CONTINUOUS
 10
101.832253
 20
14.047181
 40
0.250000
  1
PROPRIETÁRIO - 
  7
TQS_CALIBRI
  0
TEXT
  8
1
  6
CONTINUOUS
 10
108.042444
 20
2.579059
 40
0.250000
  1
ENGENHEIRO:
  7
TQS_CALIBRI
  0
TEXT
  8
1
  6
CONTINUOUS
 10
108.046365
 20
2.149652
 40
0.250000
  1
CREA REG.:
  7
TQS_CALIBRI
  0
TEXT
  8
1
  6
CONTINUOUS
 10
110.430567
 20
2.160333
 40
0.250000
  1
020930945-8
  7
TQS_CALIBRI
  0
TEXT
  8
1
  6
CONTINUOUS
 10
103.739739
 20
9.759850
 40
1.000000
  1
VGF
  7
TQS_CALIBRI
  0
TEXT
  8
1
  6
CONTINUOUS
 10
101.832253
 20
12.147181
 40
0.250000
  1
PROJETO              Eng. Civil - CREA:020930945-8
  7
TQS_CALIBRI
  0
TEXT
  8
1
  6
CONTINUOUS
 10
101.800510
 20
2.752624
 40
0.150000
  1
DATA:
  7
TQS_CALIBRI
  0
TEXT
  8
1
  6
CONTINUOUS
 10
101.788178
 20
1.752624
 40
0.150000
  1
FASE:
  7
TQS_CALIBRI
  0
TEXT
  8
1
  6
CONTINUOUS
 10
105.124829
 20
2.752624
 40
0.150000
  1
ESCALA:
  7
TQS_CALIBRI
  0
TEXT
  8
1
  6
CONTINUOUS
 10
105.112497
 20
1.752624
 40
0.150000
  1
PLANTA:
  7
TQS_CALIBRI
  0
TEXT
  8
1
  6
CONTINUOUS
 10
101.800510
 20
6.352624
 40
0.150000
  1
TÍTULO:
  7
TQS_CALIBRI
  0
TEXT
  8
1
  6
CONTINUOUS
 10
101.787482
 20
5.577767
 40
0.150000
  1
ELEMENTOS DA PRANCHA:
  7
TQS_CALIBRI
  0
TEXT
  8
1
  6
CONTINUOUS
 10
101.800510
 20
8.252624
 40
0.150000
  1
EMPREENDIMENTO/LOCAL:
  7
TQS_CALIBRI
  0
TEXT
  8
1
  6
CONTINUOUS
 10
106.761120
 20
11.025301
 40
0.150000
  1
CONTATOS:
  7
TQS_CALIBRI
  0
TEXT
  8
1
  6
CONTINUOUS
 10
114.224829
 20
2.752624
 40
0.150000
  1
PLANTA-REVISÃO:
  7
TQS_CALIBRI
  0
TEXT
  8
1
  6
CONTINUOUS
 10
102.041441
 20
16.843956
 40
0.200000
  1
00
  7
TQS_CALIBRI
  0
TEXT
  8
1
  6
CONTINUOUS
 10
102.041441
 20
17.343956
 40
0.200000
  1
01
  7
TQS_CALIBRI
  0
TEXT
  8
1
  6
CONTINUOUS
 10
102.041441
 20
17.843956
 40
0.200000
  1
02
  7
TQS_CALIBRI
  0
TEXT
  8
1
  6
CONTINUOUS
 10
102.041441
 20
18.343956
 40
0.200000
  1
03
  7
TQS_CALIBRI
  0
TEXT
  8
1
  6
CONTINUOUS
 10
102.041441
 20
18.843956
 40
0.200000
  1
04
  7
TQS_CALIBRI
  0
TEXT
  8
1
  6
CONTINUOUS
 10
102.041441
 20
19.343956
 40
0.200000
  1
05
  7
TQS_CALIBRI
  0
TEXT
  8
1
  6
CONTINUOUS
 10
102.041441
 20
19.843956
 40
0.200000
  1
06
  7
TQS_CALIBRI
  0
TEXT
  8
1
  6
CONTINUOUS
 10
102.041441
 20
20.343956
 40
0.200000
  1
07
  7
TQS_CALIBRI
  0
TEXT
  8
1
  6
CONTINUOUS
 10
102.041441
 20
20.843956
 40
0.200000
  1
08
  7
TQS_CALIBRI
  0
TEXT
  8
1
  6
CONTINUOUS
 10
102.041441
 20
21.343956
 40
0.200000
  1
09
  7
TQS_CALIBRI
  0
TEXT
  8
1
  6
CONTINUOUS
 10
102.041441
 20
21.843956
 40
0.200000
  1
10
  7
TQS_CALIBRI
  0
TEXT
  8
1
  6
CONTINUOUS
 10
116.437973
 20
16.222571
 40
0.250000
  1
AUTOR
  7
TQS_CALIBRI
  0
TEXT
  8
1
  6
CONTINUOUS
 10
106.749019
 20
10.335784
 40
0.195000
  1
Tel: 99928-2128
  7
TQS_CALIBRI
  0
TEXT
  8
1
  6
CONTINUOUS
 10
106.749019
 20
10.012284
 40
0.195000
  1
franciscogonca@hotmail.com 
  7
TQS_CALIBRI
  0
TEXT
  8
1
  6
CONTINUOUS
 10
106.749019
 20
9.680784
 40
0.195000
  1
Tel: 99981-6458
  7
TQS_CALIBRI
  0
TEXT
  8
1
  6
CONTINUOUS
 10
106.749019
 20
9.357284
 40
0.195000
  1
tiago@vgfengenharia.com.br 
  7
TQS_CALIBRI
  0
TEXT
  8
1
  6
CONTINUOUS
 10
106.749019
 20
9.025784
 40
0.195000
  1
Tel: 99912-8379
  7
TQS_CALIBRI
  0
TEXT
  8
1
  6
CONTINUOUS
 10
110.809443
 20
11.052624
 40
0.150000
  1
CLIENTE:
  7
TQS_CALIBRI
  0
TEXT
  8
1
  6
CONTINUOUS
 10
116.009770
 20
1.647683
 40
0.500000
  1
-R
  7
TQS_CALIBRI
  0
TEXT
  8
1
  6
CONTINUOUS
 10
101.832253
 20
12.547181
 40
0.250000
  1
RESPONSÁVEL -  Diego de Vasconcelos Gonçalves Ferreira
  7
TQS_CALIBRI
  0
TEXT
  8
1
  6
CONTINUOUS
 10
110.422141
 20
2.578345
 40
0.250000
  1
Diego Vasconcelos
  7
TQS_CALIBRI
  0
TEXT
  8
1
  6
CONTINUOUS
 10
106.749019
 20
10.667284
 40
0.195000
  1
diego@vgfengenharia.com.br 
  7
TQS_CALIBRI
  0
TEXT
  8
1
  6
CONTINUOUS
 10
104.982892
 20
16.853163
 40
0.200000
  1
Emissão inicial.
  7
TQS_CALIBRI
  0
TEXT
  8
1
  6
CONTINUOUS
 10
101.795719
 20
7.825700
 40
0.250000
  1
Assembléia Legislativa de Alagoas
  7
TQS_CALIBRI
  0
TEXT
  8
1
  6
CONTINUOUS
 10
104.517953
 20
14.045361
 40
0.250000
  1
ALA
  7
TQS_CALIBRI
  0
TEXT
  8
1
  6
CONTINUOUS
 10
101.789281
 20
2.263237
 40
0.250000
  1
27/02/2024
  7
TQS_CALIBRI
  0
TEXT
  8
1
  6
CONTINUOUS
 10
102.992347
 20
16.854551
 40
0.200000
  1
27/02/24
  7
TQS_CALIBRI
  0
TEXT
  8
1
  6
CONTINUOUS
 10
101.787954
 20
7.415393
 40
0.200000
  1
RUA SÁ E ALBUQUERQUE, NÚMERO 807, JARAGUÁ - MACEIÓ-AL
  7
TQS_CALIBRI
  0
TEXT
  8
1
  6
CONTINUOUS
 10
101.789859
 20
1.251887
 40
0.250000
  1
PE
  7
TQS_CALIBRI
  0
TEXT
  8
1
  6
CONTINUOUS
 10
105.114178
 20
1.251887
 40
0.250000
  1
CLA-EEM-EST-PE-0733-ARM-R00
  7
TQS_CALIBRI
  0
TEXT
  8
1
  6
CONTINUOUS
 10
116.547332
 20
16.842370
 40
0.200000
  1
DIEGO
  7
TQS_CALIBRI
  0
TEXT
  8
1
  6
CONTINUOUS
 10
114.396264
 20
1.644018
 40
0.500000
  1
0733
  7
TQS_CALIBRI
  0
TEXT
  8
1
  6
CONTINUOUS
 10
116.689770
 20
1.647683
 40
0.500000
  1
00
  7
TQS_CALIBRI
  0
TEXT
  8
1
  6
CONTINUOUS
 10
110.802729
 20
10.513659
 40
0.400000
  1
ALA
  7
TQS_CALIBRI
  0
TEXT
  8
1
  6
CONTINUOUS
 10
101.762319
 20
5.951739
 40
0.250000
  1
ARM. PROTENSÃO VERTICAL (06-Niv+1395) - 01 - J
  7
TQS_CALIBRI
  0
ENDSEC
  0
EOF
